999
DXF file: C:\Users\sesa63760\Dev\_Creo\CAD\MCADID0004331_3D-CAD\drw0001_1.dxf
999
Pro/ENGINEER 2019471 by Parametric Technology Corporation
  0
SECTION
  2
HEADER
  9
$ACADVER
  1
AC1024
  9
$DWGCODEPAGE
  3
ANSI_1252
  9
$EXTMAX
 10
94.4414401941
 20
133.5671797031
 30
0.0
  9
$EXTMIN
 10
0.0
 20
0.0
 30
0.0
  9
$LIMMIN
 10
0.0
 20
0.0
  9
$LIMMAX
 10
94.4414401941
 20
133.5671797031
  9
$VIEWCTR
 10
47.2207200971
 20
66.7835898516
  9
$VIEWSIZE
 40
133.5671797031
  9
$CLAYER
  8
0
  9
$LTSCALE
 40
8.7066013436
  9
$CELTYPE
  6
BYLAYER
  9
$DIMSCALE
 40
1.0
  9
$DIMASZ
 40
1.1243028595
  9
$DIMEXO
 40
1.0
  9
$DIMDLI
 40
6.0154700192
  9
$DIMEXE
 40
1.0
  9
$DIMCEN
 40
1.4247165835
  9
$DIMLFAC
 40
1.0
  9
$DIMBLK
  1
_FILLED
  9
$DIMALT
 70
0
  9
$DIMALTF
 40
0.0393700787
  9
$DIMTXT
 40
1.5740240032
  9
$DIMTOL
 70
1
  9
$DIMLIM
 70
0
  9
$DIMTFAC
 40
1.0
  9
$DIMTP
 40
0.01
  9
$DIMTM
 40
0.01
  9
$DIMGAP
 40
0.625
  9
$DIMDSEP
 70
46
  9
$AUNITS
 70
0
  9
$PDMODE
 70
3
  9
$PDSIZE
 40
0.3125
  9
$HANDSEED
  5
2C5
  9
$TILEMODE
 70
1
  9
$MEASUREMENT
 70
1
  9
$INSUNITS
 70
4
  0
ENDSEC
  0
SECTION
  2
CLASSES
  0
CLASS
  1
ACDBDICTIONARYWDFLT
  2
AcDbDictionaryWithDefault
  3
AutoCAD 2000
 90
0
 91
1
280
0
281
0
  0
CLASS
  1
ACDBPLACEHOLDER
  2
AcDbPlaceHolder
  3
AutoCAD 2000
 90
0
 91
1
280
0
281
0
  0
CLASS
  1
LAYOUT
  2
AcDbLayout
  3
AutoCAD 2000
 90
0
 91
0
280
0
281
0
  0
ENDSEC
  0
SECTION
  2
TABLES
  0
TABLE
  2
VPORT
  5
8
100
AcDbSymbolTable
 70
2
  0
VPORT
  5
1F4
100
AcDbSymbolTableRecord
100
AcDbViewportTableRecord
  2
*ACTIVE
 70
0
 10
0.0
 20
0.0
 11
1.0
 21
1.0
 12
47.2207200971
 22
66.7835898516
 13
0.0
 23
0.0
 14
1.0
 24
1.0
 15
0.0
 25
0.0
 16
0.0
 26
0.0
 36
1.0
 17
0.0
 27
0.0
 37
0.0
 40
133.5671797031
 41
0.7070707071
 42
50.0
 43
0.0
 44
0.0
 50
0.0
 51
0.0
 71
0
 72
100
 73
1
 74
1
 75
0
 76
0
 77
0
 78
0
  0
ENDTAB
  0
TABLE
  2
LTYPE
  5
5
100
AcDbSymbolTable
 70
6
  0
LTYPE
  5
14
100
AcDbSymbolTableRecord
100
AcDbLinetypeTableRecord
  2
BYBLOCK
 70
0
  3

 72
65
 73
0
 40
0.0
  0
LTYPE
  5
15
100
AcDbSymbolTableRecord
100
AcDbLinetypeTableRecord
  2
BYLAYER
 70
0
  3

 72
65
 73
0
 40
0.0
  0
LTYPE
  5
16
100
AcDbSymbolTableRecord
100
AcDbLinetypeTableRecord
  2
CONTINUOUS
 70
64
  3
Solid line
 72
65
 73
0
 40
0.0
  0
LTYPE
  5
1F5
100
AcDbSymbolTableRecord
100
AcDbLinetypeTableRecord
  2
CENTER
 70
64
  3
____ _ ____ _ ____ _ ____ _ ____ _ ____ _ ____
 72
65
 73
4
 40
0.6
 49
0.375
 74
0
 49
-0.075
 74
0
 49
0.075
 74
0
 49
-0.075
 74
0
  0
LTYPE
  5
1F6
100
AcDbSymbolTableRecord
100
AcDbLinetypeTableRecord
  2
HIDDEN
 70
64
  3
- - - - - - - - - - - - - - - - - - - -
 72
65
 73
2
 40
0.2
 49
0.1
 74
0
 49
-0.1
 74
0
  0
LTYPE
  5
1F7
100
AcDbSymbolTableRecord
100
AcDbLinetypeTableRecord
  2
PHANTOM
 70
64
  3
_____ _ _ _____ _ _ _____ _ _ _____
 72
65
 73
6
 40
0.8
 49
0.45
 74
0
 49
-0.05
 74
0
 49
0.1
 74
0
 49
-0.05
 74
0
 49
0.1
 74
0
 49
-0.05
 74
0
  0
LTYPE
  5
1F8
100
AcDbSymbolTableRecord
100
AcDbLinetypeTableRecord
  2
DOT
 70
64
  3
. . . . . . . . . . . . . . . . . . . .
 72
65
 73
2
 40
0.2
 49
0.1
 74
0
 49
-0.1
 74
0
  0
LTYPE
  5
1F9
100
AcDbSymbolTableRecord
100
AcDbLinetypeTableRecord
  2
DASHED
 70
64
  3
- - - - - - - - - - - - - - - - - - - -
 72
65
 73
2
 40
0.2
 49
0.1
 74
0
 49
-0.1
 74
0
  0
ENDTAB
  0
TABLE
  2
LAYER
  5
2
100
AcDbSymbolTable
 70
36
  0
LAYER
  5
10
100
AcDbSymbolTableRecord
100
AcDbLayerTableRecord
  2
0
 70
0
 62
7
  6
CONTINUOUS
370
-3
390
F
  0
LAYER
  5
1FA
100
AcDbSymbolTableRecord
100
AcDbLayerTableRecord
  2
DEFAULT_1
 70
0
 62
7
  6
CENTER
370
-3
390
F
  0
LAYER
  5
1FB
100
AcDbSymbolTableRecord
100
AcDbLayerTableRecord
  2
DEFAULT_2
 70
0
 62
7
  6
HIDDEN
370
-3
390
F
  0
LAYER
  5
1FC
100
AcDbSymbolTableRecord
100
AcDbLayerTableRecord
  2
DEFAULT_3
 70
0
 62
7
  6
PHANTOM
370
-3
390
F
  0
LAYER
  5
1FD
100
AcDbSymbolTableRecord
100
AcDbLayerTableRecord
  2
00_COMPONENTS
 70
0
 62
7
  6
CONTINUOUS
370
-3
390
F
  0
LAYER
  5
1FE
100
AcDbSymbolTableRecord
100
AcDbLayerTableRecord
  2
01_1_DEFAULT_DATUMS
 70
0
 62
7
  6
CONTINUOUS
370
-3
390
F
  0
LAYER
  5
1FF
100
AcDbSymbolTableRecord
100
AcDbLayerTableRecord
  2
01_PLANES
 70
0
 62
7
  6
CONTINUOUS
370
-3
390
F
  0
LAYER
  5
200
100
AcDbSymbolTableRecord
100
AcDbLayerTableRecord
  2
02_COORD_SYS
 70
0
 62
7
  6
CONTINUOUS
370
-3
390
F
  0
LAYER
  5
201
100
AcDbSymbolTableRecord
100
AcDbLayerTableRecord
  2
03_AXES
 70
0
 62
7
  6
CONTINUOUS
370
-3
390
F
  0
LAYER
  5
202
100
AcDbSymbolTableRecord
100
AcDbLayerTableRecord
  2
04_POINTS
 70
0
 62
7
  6
CONTINUOUS
370
-3
390
F
  0
LAYER
  5
203
100
AcDbSymbolTableRecord
100
AcDbLayerTableRecord
  2
05_CURVES
 70
0
 62
7
  6
CONTINUOUS
370
-3
390
F
  0
LAYER
  5
204
100
AcDbSymbolTableRecord
100
AcDbLayerTableRecord
  2
06_SURFS
 70
0
 62
7
  6
CONTINUOUS
370
-3
390
F
  0
LAYER
  5
205
100
AcDbSymbolTableRecord
100
AcDbLayerTableRecord
  2
07_COSMETICS
 70
0
 62
7
  6
CONTINUOUS
370
-3
390
F
  0
LAYER
  5
206
100
AcDbSymbolTableRecord
100
AcDbLayerTableRecord
  2
10_NOTES
 70
0
 62
7
  6
CONTINUOUS
370
-3
390
F
  0
LAYER
  5
207
100
AcDbSymbolTableRecord
100
AcDbLayerTableRecord
  2
11_NOTES_PUB
 70
0
 62
7
  6
CONTINUOUS
370
-3
390
F
  0
LAYER
  5
208
100
AcDbSymbolTableRecord
100
AcDbLayerTableRecord
  2
13_REF_GTOL
 70
0
 62
7
  6
CONTINUOUS
370
-3
390
F
  0
LAYER
  5
209
100
AcDbSymbolTableRecord
100
AcDbLayerTableRecord
  2
16_MISC
 70
0
 62
7
  6
CONTINUOUS
370
-3
390
F
  0
LAYER
  5
20A
100
AcDbSymbolTableRecord
100
AcDbLayerTableRecord
  2
17_NO_PRINT
 70
0
 62
7
  6
CONTINUOUS
370
-3
390
F
  0
LAYER
  5
20B
100
AcDbSymbolTableRecord
100
AcDbLayerTableRecord
  2
18_DATUM_CAMS_JOINTS
 70
0
 62
7
  6
CONTINUOUS
370
-3
390
F
  0
LAYER
  5
20C
100
AcDbSymbolTableRecord
100
AcDbLayerTableRecord
  2
19_DATUM_FUNCTIONAL
 70
0
 62
7
  6
CONTINUOUS
370
-3
390
F
  0
LAYER
  5
20D
100
AcDbSymbolTableRecord
100
AcDbLayerTableRecord
  2
20_DATUM_KINEMATIC_SCHEME
 70
0
 62
7
  6
CONTINUOUS
370
-3
390
F
  0
ENDTAB
  0
TABLE
  2
STYLE
  5
3
100
AcDbSymbolTable
 70
1
  0
STYLE
  5
11
100
AcDbSymbolTableRecord
100
AcDbTextStyleTableRecord
  2
STANDARD
 70
0
 40
0.0
 41
1.0
 50
0.0
 71
0
 42
0.2
  3
ARIAL.TTF
  4

  0
STYLE
  5
20E
100
AcDbSymbolTableRecord
100
AcDbTextStyleTableRecord
  2
TEXTSTYLE_1
 70
0
 40
0.0
 41
0.8
 50
0.0
 71
0
 42
0.2
  3
gdt
  4

  0
ENDTAB
  0
TABLE
  2
VIEW
  5
6
100
AcDbSymbolTable
 70
0
  0
ENDTAB
  0
TABLE
  2
UCS
  5
7
100
AcDbSymbolTable
 70
0
  0
ENDTAB
  0
TABLE
  2
APPID
  5
9
100
AcDbSymbolTable
 70
1
  0
APPID
  5
20F
100
AcDbSymbolTableRecord
100
AcDbRegAppTableRecord
  2
ACAD
 70
0
  0
ENDTAB
  0
TABLE
  2
BLOCK_RECORD
  5
1
100
AcDbSymbolTable
 70
0
  0
BLOCK_RECORD
  5
210
100
AcDbSymbolTableRecord
100
AcDbBlockTableRecord
  2
*Model_Space
  0
BLOCK_RECORD
  5
211
100
AcDbSymbolTableRecord
100
AcDbBlockTableRecord
  2
*Paper_Space
  0
BLOCK_RECORD
  5
212
100
AcDbSymbolTableRecord
100
AcDbBlockTableRecord
  2
_FILLED
  0
ENDTAB
  0
TABLE
  2
DIMSTYLE
  5
A
100
AcDbSymbolTable
 70
1
100
AcDbDimStyleTable
 71
0
  0
DIMSTYLE
105
213
100
AcDbSymbolTableRecord
100
AcDbDimStyleTableRecord
  2
STANDARD
 70
0
  3

  4

 40
1.0
 41
1.1243028595
 42
1.0
 43
0.38
 44
1.0
 45
0.0
 46
0.0
 47
0.01
 48
0.01
140
1.5740240032
141
0.09
142
0.0
143
25.4
144
1.0
145
0.0
146
1.0
147
0.625
 71
1
 72
0
 73
0
 74
0
 75
0
 76
0
 77
1
 78
8
 79
2
170
0
171
1
172
0
173
0
174
0
175
0
176
0
177
0
178
0
270
2
179
2
271
2
272
2
273
2
274
2
275
0
280
0
281
0
282
0
283
1
284
8
285
0
286
0
287
3
288
0
340
11
278
46
341
212
342
212
343
212
344
212
  0
ENDTAB
  0
ENDSEC
  0
SECTION
  2
BLOCKS
  0
BLOCK
  5
20
100
AcDbEntity
  8
0
100
AcDbBlockBegin
  2
*Model_Space
 70
0
 10
0.0
 20
0.0
 30
0.0
  3
*Model_Space
  1

  0
ENDBLK
  5
21
100
AcDbEntity
  8
0
100
AcDbBlockEnd
  0
BLOCK
  5
1C
100
AcDbEntity
  8
0
100
AcDbBlockBegin
  2
*Paper_Space
 70
0
 10
0.0
 20
0.0
 30
0.0
  3
*Paper_Space
  1

  0
ENDBLK
  5
1D
100
AcDbEntity
  8
0
100
AcDbBlockEnd
  0
BLOCK
  5
214
100
AcDbEntity
  8
0
100
AcDbBlockBegin
  2
_FILLED
 70
64
 10
0.0
 20
0.0
  3
_FILLED
  1

  0
SOLID
  5
215
100
AcDbEntity
  8
0
  6
BYBLOCK
 62
0
100
AcDbTrace
 10
0.0
 20
0.0
 11
-1.0
 21
0.25
 12
-1.0
 22
-0.25
 13
-1.0
 23
-0.25
  0
ENDBLK
  5
216
100
AcDbEntity
  8
0
  6
BYBLOCK
 62
0
100
AcDbBlockEnd
  0
ENDSEC
  0
SECTION
  2
ENTITIES
  0
LINE
  5
217
100
AcDbEntity
  8
0
100
AcDbLine
 62
7
  6
BYLAYER
 10
13.8907350041
 20
99.2421132023
 11
25.731586446
 21
106.0783911627
  0
LINE
  5
218
100
AcDbEntity
  8
0
100
AcDbLine
 62
7
  6
BYLAYER
 10
13.0037136832
 20
98.2028641782
 11
13.1621014766
 21
98.2943088675
  0
LINE
  5
219
100
AcDbEntity
  8
0
100
AcDbLine
 62
7
  6
BYLAYER
 10
15.6907194516
 20
99.6725749878
 11
25.7315939401
 21
105.4696419727
  0
LINE
  5
21A
100
AcDbEntity
  8
0
100
AcDbLine
 62
7
  6
BYLAYER
 10
16.3978238776
 20
99.9991706508
 11
25.1659114591
 21
105.0613981588
  0
LINE
  5
21B
100
AcDbEntity
  8
0
100
AcDbLine
 62
7
  6
BYLAYER
 10
11.9430490954
 20
62.8891189562
 11
11.9430490954
 21
90.2664450026
  0
LINE
  5
21C
100
AcDbEntity
  8
0
100
AcDbLine
 62
7
  6
BYLAYER
 10
11.9430490954
 20
90.2664450026
 11
13.0037136832
 21
90.8788163325
  0
LWPOLYLINE
  5
21D
100
AcDbEntity
  8
0
100
AcDbPolyline
 62
7
  6
BYLAYER
 90
4
 70
0
 10
12.5678200824
 20
62.528415419
 10
12.5866081929
 20
62.4302245207
 10
12.7637239052
 20
62.1178761892
 10
13.1978699047
 20
61.7390455905
  0
LINE
  5
21E
100
AcDbEntity
  8
0
100
AcDbLine
 62
7
  6
BYLAYER
 10
13.0037136832
 20
89.6540838708
 11
13.0037136832
 21
98.2028641782
  0
LINE
  5
21F
100
AcDbEntity
  8
0
100
AcDbLine
 62
7
  6
BYLAYER
 10
16.3978232889
 20
100.0808191416
 11
16.3978279992
 21
99.3255684128
  0
LWPOLYLINE
  5
220
100
AcDbEntity
  8
0
100
AcDbPolyline
 62
7
  6
BYLAYER
 90
4
 70
0
 10
71.7236634475
 20
27.9498757282
 10
72.0847791482
 20
27.8253814787
 10
72.3499820488
 20
27.8235713847
 10
72.7246026455
 20
27.9498609101
  0
LINE
  5
221
100
AcDbEntity
  8
0
100
AcDbLine
 62
7
  6
BYLAYER
 10
25.0244901029
 20
105.0613978189
 11
25.0244901029
 21
104.9797489881
  0
LINE
  5
222
100
AcDbEntity
  8
0
100
AcDbLine
 62
7
  6
BYLAYER
 10
25.7315881397
 20
106.0783901849
 11
25.7315939401
 21
105.4696419727
  0
LINE
  5
223
100
AcDbEntity
  8
0
100
AcDbLine
 62
7
  6
BYLAYER
 10
26.4387036652
 20
104.8981049164
 11
26.4387036652
 21
105.0614012182
  0
LINE
  5
224
100
AcDbEntity
  8
0
100
AcDbLine
 62
7
  6
BYLAYER
 10
24.3174692855
 20
71.9116536113
 11
24.8831523553
 21
72.8914508681
  0
LINE
  5
225
100
AcDbEntity
  8
0
100
AcDbLine
 62
7
  6
BYLAYER
 10
71.72416344
 20
27.9495867075
 11
13.2057931927
 21
61.7344192073
  0
LINE
  5
226
100
AcDbEntity
  8
0
100
AcDbLine
 62
7
  6
BYLAYER
 10
72.2241531642
 20
28.0865946334
 11
11.9430490954
 21
62.8891189562
  0
LINE
  5
227
100
AcDbEntity
  8
0
100
AcDbLine
 62
7
  6
BYLAYER
 10
13.1978560955
 20
61.7390567609
 11
13.2057931927
 21
61.7344192073
  0
LINE
  5
228
100
AcDbEntity
  8
0
100
AcDbLine
 62
7
  6
BYLAYER
 10
24.8831523553
 20
72.8914508681
 11
27.2873814519
 21
74.2795248986
  0
LINE
  5
229
100
AcDbEntity
  8
0
100
AcDbLine
 62
7
  6
BYLAYER
 10
30.1158203525
 20
72.6465618805
 11
27.7115912559
 21
71.25848785
  0
LINE
  5
22A
100
AcDbEntity
  8
0
100
AcDbLine
 62
7
  6
BYLAYER
 10
28.188505251
 20
71.1464460482
 11
30.4513117695
 21
72.4528702025
  0
LINE
  5
22B
100
AcDbEntity
  8
0
100
AcDbLine
 62
7
  6
BYLAYER
 10
64.0939390384
 20
53.0297108854
 11
67.6496239458
 21
52.1541904355
  0
LINE
  5
22C
100
AcDbEntity
  8
0
100
AcDbLine
 62
7
  6
BYLAYER
 10
66.8378152229
 20
52.5944297073
 11
63.368105573
 21
53.4487803691
  0
LINE
  5
22D
100
AcDbEntity
  8
0
100
AcDbLine
 62
7
  6
BYLAYER
 10
24.3174692855
 20
71.9116536113
 11
72.2241531642
 21
44.2533424926
  0
LINE
  5
22E
100
AcDbEntity
  8
0
100
AcDbLine
 62
7
  6
BYLAYER
 10
67.6496239458
 20
52.1541904355
 11
66.8378152229
 21
52.5944297073
  0
LINE
  5
22F
100
AcDbEntity
  8
0
100
AcDbLine
 62
7
  6
BYLAYER
 10
27.7115912559
 20
71.25848785
 11
24.8831523553
 21
72.8914508681
  0
LINE
  5
230
100
AcDbEntity
  8
0
100
AcDbLine
 62
7
  6
BYLAYER
 10
72.8605466177
 20
45.3556144065
 11
28.188505251
 21
71.1464460482
  0
LINE
  5
231
100
AcDbEntity
  8
0
100
AcDbLine
 62
7
  6
BYLAYER
 10
64.0939390384
 20
53.0297108854
 11
24.3174692855
 21
75.994165697
  0
LINE
  5
232
100
AcDbEntity
  8
0
100
AcDbLine
 62
7
  6
BYLAYER
 10
11.5162738603
 20
97.4742516439
 11
11.2656839575
 21
97.7378114577
  0
LINE
  5
233
100
AcDbEntity
  8
0
100
AcDbLine
 62
7
  6
BYLAYER
 10
67.3055892747
 20
52.4002781476
 11
72.8605466177
 21
49.193175767
  0
LINE
  5
234
100
AcDbEntity
  8
0
100
AcDbLine
 62
7
  6
BYLAYER
 10
67.7339899233
 20
70.2588290705
 11
66.7440404297
 21
70.2588266909
  0
LINE
  5
235
100
AcDbEntity
  8
0
100
AcDbLine
 62
7
  6
BYLAYER
 10
66.7440404297
 20
70.3608894931
 11
67.7339899233
 21
70.3608918726
  0
LINE
  5
236
100
AcDbEntity
  8
0
100
AcDbLine
 62
7
  6
BYLAYER
 10
11.9430490954
 20
90.2664450026
 11
13.0037136832
 21
89.6540838708
  0
LINE
  5
237
100
AcDbEntity
  8
0
100
AcDbLine
 62
7
  6
BYLAYER
 10
11.5162666686
 20
97.4742403552
 11
12.3992250977
 21
96.7968071507
  0
LINE
  5
238
100
AcDbEntity
  8
0
100
AcDbLine
 62
7
  6
BYLAYER
 10
76.5020775048
 20
75.4231193806
 11
67.7339899233
 21
70.3608918726
  0
LINE
  5
239
100
AcDbEntity
  8
0
100
AcDbLine
 62
7
  6
BYLAYER
 10
76.5020780936
 20
75.3414708898
 11
67.8754112796
 21
70.3608922126
  0
LINE
  5
23A
100
AcDbEntity
  8
0
100
AcDbLine
 62
7
  6
BYLAYER
 10
84.9520222341
 20
51.6017372622
 11
80.992155642
 21
53.8879344021
  0
LINE
  5
23B
100
AcDbEntity
  8
0
100
AcDbLine
 62
7
  6
BYLAYER
 10
71.446297139
 20
70.8303796183
 11
73.0019255808
 21
71.7285167568
  0
LINE
  5
23C
100
AcDbEntity
  8
0
100
AcDbLine
 62
7
  6
BYLAYER
 10
74.1332917204
 20
72.381707403
 11
75.6889201622
 21
73.2798445415
  0
LINE
  5
23D
100
AcDbEntity
  8
0
100
AcDbLine
 62
7
  6
BYLAYER
 10
71.5523654306
 20
70.7691424469
 11
73.0019255808
 21
71.6060413942
  0
LINE
  5
23E
100
AcDbEntity
  8
0
100
AcDbLine
 62
7
  6
BYLAYER
 10
74.239360012
 20
72.3204702316
 11
75.6889201622
 21
73.1573691789
  0
LINE
  5
23F
100
AcDbEntity
  8
0
100
AcDbLine
 62
7
  6
BYLAYER
 10
77.8102493377
 20
72.0551222779
 11
76.2546208958
 21
71.1569851394
  0
LINE
  5
240
100
AcDbEntity
  8
0
100
AcDbLine
 62
7
  6
BYLAYER
 10
75.1232547563
 20
70.5037944932
 11
73.5676263144
 21
69.6056573547
  0
LINE
  5
241
100
AcDbEntity
  8
0
100
AcDbLine
 62
7
  6
BYLAYER
 10
13.0037136832
 20
98.2028641782
 11
72.2241531642
 21
64.0127009871
  0
LINE
  5
242
100
AcDbEntity
  8
0
100
AcDbLine
 62
7
  6
BYLAYER
 10
13.1451350394
 20
98.2028645181
 11
72.2241525754
 21
64.0943494779
  0
LINE
  5
243
100
AcDbEntity
  8
0
100
AcDbLine
 62
7
  6
BYLAYER
 10
82.2650164656
 20
72.8307936488
 11
72.2241419771
 21
67.0337266639
  0
LINE
  5
244
100
AcDbEntity
  8
0
100
AcDbLine
 62
7
  6
BYLAYER
 10
72.2241525754
 20
64.0943494779
 11
84.8106008778
 21
71.3610954168
  0
LINE
  5
245
100
AcDbEntity
  8
0
100
AcDbLine
 62
7
  6
BYLAYER
 10
72.2241531642
 20
64.0127009871
 11
84.9520222341
 21
71.3610957568
  0
LINE
  5
246
100
AcDbEntity
  8
0
100
AcDbLine
 62
7
  6
BYLAYER
 10
72.2241419771
 20
67.0337266639
 11
15.6907194516
 21
99.6725749878
  0
LINE
  5
247
100
AcDbEntity
  8
0
100
AcDbLine
 62
7
  6
BYLAYER
 10
66.7440404297
 20
70.2588266909
 11
16.3978279992
 21
99.3255684128
  0
LINE
  5
248
100
AcDbEntity
  8
0
100
AcDbLine
 62
7
  6
BYLAYER
 10
66.7440404297
 20
70.3608894931
 11
16.3978279992
 21
99.4276312149
  0
LINE
  5
249
100
AcDbEntity
  8
0
100
AcDbLine
 62
7
  6
BYLAYER
 10
63.2792151411
 20
59.2972672845
 11
63.2792151411
 21
55.2147551989
  0
LINE
  5
24A
100
AcDbEntity
  8
0
100
AcDbLine
 62
7
  6
BYLAYER
 10
63.6327700037
 20
55.0106348216
 11
63.6327700037
 21
59.0931469072
  0
LINE
  5
24B
100
AcDbEntity
  8
0
100
AcDbLine
 62
7
  6
BYLAYER
 10
73.5676263144
 20
69.6056573547
 11
71.446297139
 21
70.8303796183
  0
LINE
  5
24C
100
AcDbEntity
  8
0
100
AcDbLine
 62
7
  6
BYLAYER
 10
17.1249559331
 20
102.6544500581
 11
18.4630446539
 21
101.8819216519
  0
LINE
  5
24D
100
AcDbEntity
  8
0
100
AcDbLine
 62
7
  6
BYLAYER
 10
73.0019255808
 20
71.6060413942
 11
75.0171864646
 21
70.442556302
  0
LINE
  5
24E
100
AcDbEntity
  8
0
100
AcDbLine
 62
7
  6
BYLAYER
 10
73.0019255808
 20
71.7285167568
 11
75.1232547563
 21
70.5037944932
  0
LINE
  5
24F
100
AcDbEntity
  8
0
100
AcDbLine
 62
7
  6
BYLAYER
 10
76.2546208958
 20
71.1569851394
 11
74.1332917204
 21
72.381707403
  0
LINE
  5
250
100
AcDbEntity
  8
0
100
AcDbLine
 62
7
  6
BYLAYER
 10
66.7440404297
 20
70.3608894931
 11
66.7440404297
 21
70.2588266909
  0
LINE
  5
251
100
AcDbEntity
  8
0
100
AcDbLine
 62
7
  6
BYLAYER
 10
67.7339899233
 20
70.3608918726
 11
67.7339899233
 21
70.3193183923
  0
LINE
  5
252
100
AcDbEntity
  8
0
100
AcDbLine
 62
7
  6
BYLAYER
 10
14.8067264609
 20
103.17361283
 11
15.8657810706
 21
102.7348875017
  0
LINE
  5
253
100
AcDbEntity
  8
0
100
AcDbLine
 62
7
  6
BYLAYER
 10
75.6889201622
 20
73.1573691789
 11
77.704181046
 21
71.9938840867
  0
LINE
  5
254
100
AcDbEntity
  8
0
100
AcDbLine
 62
7
  6
BYLAYER
 10
75.6889201622
 20
73.2798445415
 11
77.8102493377
 21
72.0551222779
  0
LINE
  5
255
100
AcDbEntity
  8
0
100
AcDbLine
 62
7
  6
BYLAYER
 10
72.2241525754
 20
64.0943494779
 11
72.2241419771
 21
67.0337266639
  0
LINE
  5
256
100
AcDbEntity
  8
0
100
AcDbLine
 62
7
  6
BYLAYER
 10
72.2241531642
 20
64.0127009871
 11
72.2241531642
 21
49.5606082039
  0
LINE
  5
257
100
AcDbEntity
  8
0
100
AcDbLine
 62
7
  6
BYLAYER
 10
72.2241531642
 20
44.2533424926
 11
72.2241531642
 21
28.0865946334
  0
LINE
  5
258
100
AcDbEntity
  8
0
100
AcDbLine
 62
7
  6
BYLAYER
 10
73.0019255808
 20
71.7285167568
 11
73.0019255808
 21
71.6060413942
  0
LINE
  5
259
100
AcDbEntity
  8
0
100
AcDbLine
 62
7
  6
BYLAYER
 10
26.1558609527
 20
105.0614005384
 11
76.5020733832
 21
75.9946588165
  0
LINE
  5
25A
100
AcDbEntity
  8
0
100
AcDbLine
 62
7
  6
BYLAYER
 10
25.7315939401
 20
105.4696419727
 11
82.2650164656
 21
72.8307936488
  0
LINE
  5
25B
100
AcDbEntity
  8
0
100
AcDbLine
 62
7
  6
BYLAYER
 10
84.7936345988
 20
71.4525388319
 11
84.9520222341
 21
71.3610957568
  0
LINE
  5
25C
100
AcDbEntity
  8
0
100
AcDbLine
 62
7
  6
BYLAYER
 10
25.7315864461
 20
106.0783911627
 11
84.0649934189
 21
72.4003448433
  0
LINE
  5
25D
100
AcDbEntity
  8
0
100
AcDbLine
 62
7
  6
BYLAYER
 10
75.6889201622
 20
73.2798445415
 11
75.6889201622
 21
73.1573691789
  0
LINE
  5
25E
100
AcDbEntity
  8
0
100
AcDbLine
 62
7
  6
BYLAYER
 10
76.5020775048
 20
75.3414708898
 11
76.5020722056
 21
76.1579557982
  0
LINE
  5
25F
100
AcDbEntity
  8
0
100
AcDbLine
 62
7
  6
BYLAYER
 10
72.8605466177
 20
49.193175767
 11
84.3156287806
 21
55.8067310597
  0
LINE
  5
260
100
AcDbEntity
  8
0
100
AcDbLine
 62
7
  6
BYLAYER
 10
72.8605466177
 20
45.3556144065
 11
72.2241531642
 21
44.2533424926
  0
LINE
  5
261
100
AcDbEntity
  8
0
100
AcDbLine
 62
7
  6
BYLAYER
 10
72.8605466177
 20
45.3556144065
 11
84.3156287806
 21
51.9691696992
  0
LINE
  5
262
100
AcDbEntity
  8
0
100
AcDbLine
 62
7
  6
BYLAYER
 10
84.9520222341
 20
71.3610957568
 11
84.9520222341
 21
56.9090029736
  0
LINE
  5
263
100
AcDbEntity
  8
0
100
AcDbLine
 62
7
  6
BYLAYER
 10
84.9520222341
 20
51.6017372622
 11
84.9520222341
 21
35.4349894031
  0
LINE
  5
264
100
AcDbEntity
  8
0
100
AcDbLine
 62
7
  6
BYLAYER
 10
84.3156287806
 20
55.8067310597
 11
84.9520222341
 21
56.9090029736
  0
LINE
  5
265
100
AcDbEntity
  8
0
100
AcDbLine
 62
7
  6
BYLAYER
 10
26.1558609527
 20
105.0614005384
 11
25.1659114591
 21
105.0613981588
  0
LINE
  5
266
100
AcDbEntity
  8
0
100
AcDbLine
 62
7
  6
BYLAYER
 10
83.6892831011
 20
34.2802840461
 11
83.6972233158
 21
34.2849235221
  0
LINE
  5
267
100
AcDbEntity
  8
0
100
AcDbLine
 62
7
  6
BYLAYER
 10
72.2241531642
 20
28.0865946334
 11
84.9520222341
 21
35.4349894031
  0
LINE
  5
268
100
AcDbEntity
  8
0
100
AcDbLine
 62
7
  6
BYLAYER
 10
83.6892831011
 20
34.2802840461
 11
72.7241311047
 21
27.9495883784
  0
LWPOLYLINE
  5
269
100
AcDbEntity
  8
0
100
AcDbPolyline
 62
7
  6
BYLAYER
 90
4
 70
0
 10
83.6972094246
 20
34.2849123024
 10
84.1252109722
 20
34.6557570301
 10
84.3063108299
 20
34.9706885082
 10
84.3262718419
 20
35.0737144022
  0
ARC
  5
26A
100
AcDbEntity
  8
0
100
AcDbCircle
 62
7
  6
BYLAYER
 10
67.1211013938
 20
71.6397177256
 40
1.4435073911
100
AcDbArc
 50
254.1804431118
 51
256.7869697251
  0
ARC
  5
26B
100
AcDbEntity
  8
0
100
AcDbCircle
 62
7
  6
BYLAYER
 10
67.0965502222
 20
71.5526574772
 40
1.3530516922
100
AcDbArc
 50
250.875426138
 51
254.1756969187
  0
ARC
  5
26C
100
AcDbEntity
  8
0
100
AcDbCircle
 62
7
  6
BYLAYER
 10
16.8454571536
 20
100.0400277951
 40
0.8955843386
100
AcDbArc
 50
236.676635959
 51
240.0121286476
  0
ARC
  5
26D
100
AcDbEntity
  8
0
100
AcDbCircle
 62
7
  6
BYLAYER
 10
76.0692256186
 20
76.0931897766
 40
0.8674344643
100
AcDbArc
 50
299.9340666145
 51
304.5263030402
  0
ARC
  5
26E
100
AcDbEntity
  8
0
100
AcDbCircle
 62
7
  6
BYLAYER
 10
16.8306757638
 20
99.3291002548
 40
0.8674344643
100
AcDbArc
 50
119.9340666146
 51
124.5263030401
  0
ARC
  5
26F
100
AcDbEntity
  8
0
100
AcDbCircle
 62
7
  6
BYLAYER
 10
13.9979734213
 20
98.2026640393
 40
0.8528384055
100
AcDbArc
 50
173.7725819828
 51
179.9865313413
  0
ARC
  5
270
100
AcDbEntity
  8
0
100
AcDbCircle
 62
7
  6
BYLAYER
 10
83.9577632576
 20
71.3608949541
 40
0.8528376438
100
AcDbArc
 50
0.013467594
 51
6.2273623866
  0
ARC
  5
271
100
AcDbEntity
  8
0
100
AcDbCircle
 62
7
  6
BYLAYER
 10
16.5355194926
 20
99.3912795284
 40
0.4379135018
100
AcDbArc
 50
149.5020056001
 51
150.7268585907
  0
ARC
  5
272
100
AcDbEntity
  8
0
100
AcDbCircle
 62
7
  6
BYLAYER
 10
76.4283526266
 20
75.4978148217
 40
0.3674028158
100
AcDbArc
 50
15.3077750072
 51
20.9933144838
  0
ARC
  5
273
100
AcDbEntity
  8
0
100
AcDbCircle
 62
7
  6
BYLAYER
 10
16.4715389052
 20
99.4206848595
 40
0.3673924314
100
AcDbArc
 50
159.0066611679
 51
164.6984560197
  0
SPLINE
  5
274
100
AcDbEntity
  8
0
100
AcDbSpline
 62
7
  6
BYLAYER
 70
0
 71
3
 72
29
 73
25
 74
0
 42
0.0000001
 43
0.0000001
 44
0.0000000001
 40
0.0
 40
0.0
 40
0.0
 40
0.0
 40
0.0238635051
 40
0.0488838167
 40
0.0752016706
 40
0.1029200845
 40
0.1626229087
 40
0.2278347617
 40
0.2977546949
 40
0.3711805151
 40
0.4466515124
 40
0.5225683084
 40
0.5973021327
 40
0.6693024515
 40
0.7372102943
 40
0.7693097636
 40
0.8000321349
 40
0.857112714
 40
0.8835551526
 40
0.9086823336
 40
0.9326460277
 40
0.9556625501
 40
0.9780067724
 40
1.0
 40
1.0
 40
1.0
 40
1.0
 10
12.6755103226
 20
96.1431247843
 30
0.0
 10
12.6322137111
 20
96.2047218257
 30
0.0
 10
12.5523292329
 20
96.3372787029
 30
0.0
 10
12.4561291181
 20
96.554748201
 30
0.0
 10
12.3816947692
 20
96.793342211
 30
0.0
 10
12.3104357196
 20
97.1455857692
 30
0.0
 10
12.2822763951
 20
97.6288969174
 30
0.0
 10
12.3396261066
 20
98.2427913851
 30
0.0
 10
12.485065505
 20
98.8862229628
 30
0.0
 10
12.7139639075
 20
99.5390267703
 30
0.0
 10
13.0190896966
 20
100.1807815339
 30
0.0
 10
13.3908009574
 20
100.7912066019
 30
0.0
 10
13.8173718005
 20
101.3510373833
 30
0.0
 10
14.2852988358
 20
101.8425432223
 30
0.0
 10
14.7053453149
 20
102.1888171739
 30
0.0
 10
15.0499055728
 20
102.4162395335
 30
0.0
 10
15.3807043722
 20
102.6001816342
 30
0.0
 10
15.7168305455
 20
102.7370238077
 30
0.0
 10
16.0510939498
 20
102.8156576193
 30
0.0
 10
16.2883192622
 20
102.8437938511
 30
0.0
 10
16.5164613975
 20
102.842222075
 30
0.0
 10
16.7336760827
 20
102.8108129736
 30
0.0
 10
16.9379977801
 20
102.7496593247
 30
0.0
 10
17.0648619762
 20
102.6891452798
 30
0.0
 10
17.1249559141
 20
102.6544500392
 30
0.0
  0
SPLINE
  5
275
100
AcDbEntity
  8
0
100
AcDbSpline
 62
7
  6
BYLAYER
 70
0
 71
3
 72
27
 73
23
 74
0
 42
0.0000001
 43
0.0000001
 44
0.0000000001
 40
0.0
 40
0.0
 40
0.0
 40
0.0
 40
0.0483456368
 40
0.0743687056
 40
0.1017377452
 40
0.1605990955
 40
0.2248237593
 40
0.2937009665
 40
0.366135273
 40
0.440780255
 40
0.5161456758
 40
0.5906964601
 40
0.6629483902
 40
0.7315672966
 40
0.7954789069
 40
0.8539990999
 40
0.8812016324
 40
0.9070645156
 40
0.9316894305
 40
0.9552339092
 40
0.9779145957
 40
1.0
 40
1.0
 40
1.0
 40
1.0
 10
11.2656839575
 20
97.7378114577
 30
0.0
 10
11.1946646012
 20
97.8388489773
 30
0.0
 10
11.1069416278
 20
98.0101621324
 30
0.0
 10
11.0277310534
 20
98.2579155401
 30
0.0
 10
10.9681722453
 20
98.538908814
 30
0.0
 10
10.9413316071
 20
98.9242641601
 30
0.0
 10
10.9806137376
 20
99.4145243455
 30
0.0
 10
11.0891363975
 20
99.9295419257
 30
0.0
 10
11.2635980441
 20
100.4540301394
 30
0.0
 10
11.4987663125
 20
100.9724168893
 30
0.0
 10
11.7875925152
 20
101.4691643744
 30
0.0
 10
12.121414237
 20
101.929373672
 30
0.0
 10
12.4902265868
 20
102.3392531217
 30
0.0
 10
12.8831220762
 20
102.6865985293
 30
0.0
 10
13.28846996
 20
102.961028665
 30
0.0
 10
13.6354838066
 20
103.1260786297
 30
0.0
 10
13.9079387026
 20
103.211270546
 30
0.0
 10
14.102794066
 20
103.2509275165
 30
0.0
 10
14.2916186383
 20
103.2675710896
 30
0.0
 10
14.4730045757
 20
103.2609354782
 30
0.0
 10
14.645466793
 20
103.230982771
 30
0.0
 10
14.7546009843
 20
103.1951983358
 30
0.0
 10
14.8067249978
 20
103.1736100173
 30
0.0
  0
SPLINE
  5
276
100
AcDbEntity
  8
0
100
AcDbSpline
 62
7
  6
BYLAYER
 70
0
 71
3
 72
9
 73
5
 74
0
 42
0.0000001
 43
0.0000001
 44
0.0000000001
 40
0.0
 40
0.0
 40
0.0
 40
0.0
 40
0.4927502214
 40
1.0
 40
1.0
 40
1.0
 40
1.0
 10
12.9893075575
 20
95.815998859
 30
0.0
 10
12.9296317297
 20
95.8609044228
 30
0.0
 10
12.8159616798
 20
95.9622993941
 30
0.0
 10
12.7197214722
 20
96.0802266517
 30
0.0
 10
12.6755103226
 20
96.1431247843
 30
0.0
  0
SPLINE
  5
277
100
AcDbEntity
  8
0
100
AcDbSpline
 62
7
  6
BYLAYER
 70
0
 71
3
 72
9
 73
5
 74
0
 42
0.0000001
 43
0.0000001
 44
0.0000000001
 40
0.0
 40
0.0
 40
0.0
 40
0.0
 40
0.4934307336
 40
1.0
 40
1.0
 40
1.0
 40
1.0
 10
12.3899617064
 20
96.805039642
 30
0.0
 10
12.3475079732
 20
96.8403235943
 30
0.0
 10
12.2664177636
 20
96.917968787
 30
0.0
 10
12.1963715552
 20
97.0056400052
 30
0.0
 10
12.1637820898
 20
97.0520042489
 30
0.0
  0
SPLINE
  5
278
100
AcDbEntity
  8
0
100
AcDbSpline
 62
7
  6
BYLAYER
 70
0
 71
3
 72
23
 73
19
 74
0
 42
0.0000001
 43
0.0000001
 44
0.0000000001
 40
0.0
 40
0.0
 40
0.0
 40
0.0
 40
0.1018052529
 40
0.1301845614
 40
0.159687387
 40
0.2218567711
 40
0.2878066513
 40
0.3567733827
 40
0.4278354438
 40
0.4999703815
 40
0.5721064497
 40
0.6431719268
 40
0.7121442292
 40
0.7781018806
 40
0.8402795822
 40
0.8697871927
 40
0.8981710688
 40
1.0
 40
1.0
 40
1.0
 40
1.0
 10
15.5398263179
 20
102.6623988841
 30
0.0
 10
15.2978911227
 20
102.6453410648
 30
0.0
 10
14.992135664
 20
102.5548734616
 30
0.0
 10
14.6509837905
 20
102.387413172
 30
0.0
 10
14.4030022021
 20
102.2442944722
 30
0.0
 10
14.0963517128
 20
102.0260255508
 30
0.0
 10
13.7450457376
 20
101.713289365
 30
0.0
 10
13.4117979113
 20
101.3520890514
 30
0.0
 10
13.1039177513
 20
100.9503918712
 30
0.0
 10
12.8281807367
 20
100.5170419285
 30
0.0
 10
12.5906729456
 20
100.0616065041
 30
0.0
 10
12.3966384761
 20
99.5941390647
 30
0.0
 10
12.2503504197
 20
99.1249286651
 30
0.0
 10
12.1550546622
 20
98.6642905757
 30
0.0
 10
12.1192637905
 20
98.2895492765
 30
0.0
 10
12.1192124549
 20
98.0031890567
 30
0.0
 10
12.1446840623
 20
97.6239292397
 30
0.0
 10
12.2190804272
 20
97.3138033869
 30
0.0
 10
12.3252240828
 20
97.0956646735
 30
0.0
  0
SPLINE
  5
279
100
AcDbEntity
  8
0
100
AcDbSpline
 62
7
  6
BYLAYER
 70
0
 71
3
 72
23
 73
19
 74
0
 42
0.0000001
 43
0.0000001
 44
0.0000000001
 40
0.0
 40
0.0
 40
0.0
 40
0.0
 40
0.0512882409
 40
0.106429516
 40
0.1652983802
 40
0.2275657873
 40
0.2927367045
 40
0.3601950234
 40
0.4292373445
 40
0.4991032948
 40
0.5690039564
 40
0.6381490762
 40
0.70577447
 40
0.7711706541
 40
0.8337131844
 40
0.8928964996
 40
0.948373119
 40
1.0
 40
1.0
 40
1.0
 40
1.0
 10
12.3072233361
 20
97.5113743291
 30
0.0
 10
12.2796423738
 20
97.612872828
 30
0.0
 10
12.2388564259
 20
97.8281638098
 30
0.0
 10
12.2192654639
 20
98.1673357104
 30
0.0
 10
12.2391613105
 20
98.5289811399
 30
0.0
 10
12.2981372592
 20
98.9070412662
 30
0.0
 10
12.3951730834
 20
99.2952809189
 30
0.0
 10
12.5286274343
 20
99.6872085799
 30
0.0
 10
12.6962548694
 20
100.0762575658
 30
0.0
 10
12.8952369291
 20
100.4558894736
 30
0.0
 10
13.1222257373
 20
100.8197171946
 30
0.0
 10
13.3734036334
 20
101.1616175241
 30
0.0
 10
13.6445489642
 20
101.475841594
 30
0.0
 10
13.931119134
 20
101.7571183778
 30
0.0
 10
14.2283289978
 20
102.0007368706
 30
0.0
 10
14.5313011723
 20
102.2026285852
 30
0.0
 10
14.8349887673
 20
102.3593701599
 30
0.0
 10
15.0422212712
 20
102.4346598158
 30
0.0
 10
15.1442167762
 20
102.4630524287
 30
0.0
  0
SPLINE
  5
27A
100
AcDbEntity
  8
0
100
AcDbSpline
 62
7
  6
BYLAYER
 70
0
 71
3
 72
27
 73
23
 74
0
 42
0.0000001
 43
0.0000001
 44
0.0000000001
 40
0.0
 40
0.0
 40
0.0
 40
0.0
 40
0.0483466575
 40
0.074370196
 40
0.1017396164
 40
0.160602237
 40
0.2248280168
 40
0.2937052664
 40
0.3661399465
 40
0.4407856495
 40
0.5161522072
 40
0.5907044643
 40
0.6629580701
 40
0.7315787105
 40
0.7954919409
 40
0.8254742899
 40
0.8540650874
 40
0.9070619305
 40
0.9316874409
 40
0.9552327973
 40
0.9779141837
 40
1.0
 40
1.0
 40
1.0
 40
1.0
 10
12.1637820898
 20
97.0520042489
 30
0.0
 10
12.0895343174
 20
97.1576347579
 30
0.0
 10
11.9978236975
 20
97.336735332
 30
0.0
 10
11.9150127374
 20
97.5957505125
 30
0.0
 10
11.8527462641
 20
97.8895165305
 30
0.0
 10
11.8246864544
 20
98.2923884287
 30
0.0
 10
11.8657527821
 20
98.8049307071
 30
0.0
 10
11.979207186
 20
99.3433527044
 30
0.0
 10
12.161595065
 20
99.8916751429
 30
0.0
 10
12.4074488488
 20
100.4336212795
 30
0.0
 10
12.7094026539
 20
100.9529490175
 30
0.0
 10
13.0583906343
 20
101.4340745125
 30
0.0
 10
13.4439908336
 20
101.8626038378
 30
0.0
 10
13.8546671905
 20
102.2256880328
 30
0.0
 10
14.215367479
 20
102.4698909403
 30
0.0
 10
14.5060081312
 20
102.6207994164
 30
0.0
 10
14.781176479
 20
102.7355826131
 30
0.0
 10
15.0575458771
 20
102.8093443007
 30
0.0
 10
15.3272452076
 20
102.8331163966
 30
0.0
 10
15.516889443
 20
102.8261801611
 30
0.0
 10
15.6971903799
 20
102.7948667121
 30
0.0
 10
15.8112864289
 20
102.7574546666
 30
0.0
 10
15.8657797265
 20
102.7348849181
 30
0.0
  0
SPLINE
  5
27B
100
AcDbEntity
  8
0
100
AcDbSpline
 62
7
  6
BYLAYER
 70
0
 71
3
 72
9
 73
5
 74
0
 42
0.0000001
 43
0.0000001
 44
0.0000000001
 40
0.0
 40
0.0
 40
0.0
 40
0.0
 40
0.4793488859
 40
1.0
 40
1.0
 40
1.0
 40
1.0
 10
17.7127978048
 20
101.456209371
 30
0.0
 10
17.551700934
 20
101.3943100951
 30
0.0
 10
17.2268461489
 20
101.2351558811
 30
0.0
 10
16.9283160866
 20
101.0319640627
 30
0.0
 10
16.7798275781
 20
100.9175589795
 30
0.0
  0
SPLINE
  5
27C
100
AcDbEntity
  8
0
100
AcDbSpline
 62
7
  6
BYLAYER
 70
0
 71
3
 72
12
 73
8
 74
0
 42
0.0000001
 43
0.0000001
 44
0.0000000001
 40
0.0
 40
0.0
 40
0.0
 40
0.0
 40
0.2895142017
 40
0.5486423514
 40
0.7816187824
 40
0.8918331699
 40
1.0
 40
1.0
 40
1.0
 40
1.0
 10
60.4860787354
 20
79.6485051358
 30
0.0
 10
60.3763704293
 20
79.5851654676
 30
0.0
 10
60.177347258
 20
79.4480540113
 30
0.0
 10
59.9394983242
 20
79.1983334497
 30
0.0
 10
59.8118699866
 20
78.9629190172
 30
0.0
 10
59.7620910921
 20
78.7709881002
 30
0.0
 10
59.7538541017
 20
78.675232794
 30
0.0
 10
59.7538623203
 20
78.6279032492
 30
0.0
  0
SPLINE
  5
27D
100
AcDbEntity
  8
0
100
AcDbSpline
 62
7
  6
BYLAYER
 70
0
 71
3
 72
20
 73
16
 74
0
 42
0.0000001
 43
0.0000001
 44
0.0000000001
 40
0.0
 40
0.0
 40
0.0
 40
0.0
 40
0.0428322655
 40
0.0874335446
 40
0.1352348158
 40
0.1871660008
 40
0.2436327306
 40
0.304611157
 40
0.3697343026
 40
0.4383682914
 40
0.5826232114
 40
0.7296958067
 40
0.871196448
 40
0.9376114835
 40
1.0
 40
1.0
 40
1.0
 40
1.0
 10
70.4107215773
 20
75.3619766455
 30
0.0
 10
70.410709219
 20
75.4331456319
 30
0.0
 10
70.3917152638
 20
75.5790463652
 30
0.0
 10
70.3079924214
 20
75.7896849256
 30
0.0
 10
70.1722667126
 20
75.9894106733
 30
0.0
 10
69.9882258125
 20
76.1741764324
 30
0.0
 10
69.7602192248
 20
76.3407931333
 30
0.0
 10
69.4930730681
 20
76.486115651
 30
0.0
 10
69.192338673
 20
76.6072530394
 30
0.0
 10
68.7478470704
 20
76.7353427102
 30
0.0
 10
68.1520899444
 20
76.8188890904
 30
0.0
 10
67.4302036804
 20
76.798962897
 30
0.0
 10
66.8481285688
 20
76.6825651601
 30
0.0
 10
66.4252504968
 20
76.5292825138
 30
0.0
 10
66.2327316177
 20
76.434399431
 30
0.0
 10
66.1429565365
 20
76.3825681335
 30
0.0
  0
SPLINE
  5
27E
100
AcDbEntity
  8
0
100
AcDbSpline
 62
7
  6
BYLAYER
 70
0
 71
3
 72
20
 73
16
 74
0
 42
0.0000001
 43
0.0000001
 44
0.0000000001
 40
0.0
 40
0.0
 40
0.0
 40
0.0
 40
0.0428322655
 40
0.0874335446
 40
0.1352348158
 40
0.1871660008
 40
0.2436327306
 40
0.304611157
 40
0.3697343026
 40
0.4383682914
 40
0.5826232114
 40
0.7296958067
 40
0.871196448
 40
0.9376114835
 40
1.0
 40
1.0
 40
1.0
 40
1.0
 10
64.7538437762
 20
78.6279026817
 30
0.0
 10
64.7538314178
 20
78.6990716681
 30
0.0
 10
64.7348374626
 20
78.8449724014
 30
0.0
 10
64.6511146203
 20
79.0556109618
 30
0.0
 10
64.5153889114
 20
79.2553367094
 30
0.0
 10
64.3313480114
 20
79.4401024686
 30
0.0
 10
64.1033414236
 20
79.6067191694
 30
0.0
 10
63.8361952669
 20
79.7520416872
 30
0.0
 10
63.5354608719
 20
79.8731790755
 30
0.0
 10
63.0909692692
 20
80.0012687463
 30
0.0
 10
62.4952121432
 20
80.0848151266
 30
0.0
 10
61.7733258792
 20
80.0648889332
 30
0.0
 10
61.1912507676
 20
79.9484911962
 30
0.0
 10
60.7683726956
 20
79.79520855
 30
0.0
 10
60.5758538165
 20
79.7003254672
 30
0.0
 10
60.4860787354
 20
79.6484941697
 30
0.0
  0
SPLINE
  5
27F
100
AcDbEntity
  8
0
100
AcDbSpline
 62
7
  6
BYLAYER
 70
0
 71
3
 72
12
 73
8
 74
0
 42
0.0000001
 43
0.0000001
 44
0.0000000001
 40
0.0
 40
0.0
 40
0.0
 40
0.0
 40
0.2895142017
 40
0.5486423514
 40
0.7816187824
 40
0.8918331699
 40
1.0
 40
1.0
 40
1.0
 40
1.0
 10
66.1429565365
 20
76.3825790997
 30
0.0
 10
66.0332482305
 20
76.3192394315
 30
0.0
 10
65.8342250592
 20
76.1821279751
 30
0.0
 10
65.5963761253
 20
75.9324074136
 30
0.0
 10
65.4687477878
 20
75.6969929811
 30
0.0
 10
65.4189688933
 20
75.5050620641
 30
0.0
 10
65.4107319028
 20
75.4093067578
 30
0.0
 10
65.4107401215
 20
75.3619772131
 30
0.0
  0
SPLINE
  5
280
100
AcDbEntity
  8
0
100
AcDbSpline
 62
7
  6
BYLAYER
 70
0
 71
3
 72
20
 73
16
 74
0
 42
0.0000001
 43
0.0000001
 44
0.0000000001
 40
0.0
 40
0.0
 40
0.0
 40
0.0
 40
0.0428323099
 40
0.0874336331
 40
0.1352349412
 40
0.1871661695
 40
0.2436329474
 40
0.3046114249
 40
0.3697346246
 40
0.4383686721
 40
0.5826237109
 40
0.7296964271
 40
0.8711972541
 40
0.9376119368
 40
1.0
 40
1.0
 40
1.0
 40
1.0
 10
59.7538623203
 20
78.6279032492
 30
0.0
 10
59.7538746787
 20
78.5567342488
 30
0.0
 10
59.7728686342
 20
78.4108334918
 30
0.0
 10
59.8565914609
 20
78.2001949023
 30
0.0
 10
59.9923171919
 20
78.0004691623
 30
0.0
 10
60.176358085
 20
77.8157034054
 30
0.0
 10
60.4043646695
 20
77.6490867001
 30
0.0
 10
60.6715108269
 20
77.5037641767
 30
0.0
 10
60.9722452252
 20
77.3826268242
 30
0.0
 10
61.4167368297
 20
77.2545370155
 30
0.0
 10
62.0124938258
 20
77.1709915058
 30
0.0
 10
62.7343807979
 20
77.1909146372
 30
0.0
 10
63.316453591
 20
77.3073190188
 30
0.0
 10
63.739332782
 20
77.4605930304
 30
0.0
 10
63.9318530303
 20
77.5554704467
 30
0.0
 10
64.0216273611
 20
77.6073013632
 30
0.0
  0
SPLINE
  5
281
100
AcDbEntity
  8
0
100
AcDbSpline
 62
7
  6
BYLAYER
 70
0
 71
3
 72
20
 73
16
 74
0
 42
0.0000001
 43
0.0000001
 44
0.0000000001
 40
0.0
 40
0.0
 40
0.0
 40
0.0
 40
0.0623913564
 40
0.1288090017
 40
0.2703026857
 40
0.4173651438
 40
0.5616181032
 40
0.6302547849
 40
0.6953816444
 40
0.7563640422
 40
0.8128332041
 40
0.864765686
 40
0.912567124
 40
0.9571679169
 40
1.0
 40
1.0
 40
1.0
 40
1.0
 10
64.0216273611
 20
77.5663622659
 30
0.0
 10
63.9318485059
 20
77.5145287291
 30
0.0
 10
63.7393170749
 20
77.4196516422
 30
0.0
 10
63.3164420055
 20
77.2663741338
 30
0.0
 10
62.7343922702
 20
77.1499827581
 30
0.0
 10
62.0125408776
 20
77.1300538043
 30
0.0
 10
61.4167997445
 20
77.2135877997
 30
0.0
 10
60.9723013765
 20
77.3416757515
 30
0.0
 10
60.6715505744
 20
77.4628153571
 30
0.0
 10
60.4043872465
 20
77.6081400328
 30
0.0
 10
60.1763720145
 20
77.7747652802
 30
0.0
 10
59.9923252591
 20
77.9595328319
 30
0.0
 10
59.8565979917
 20
78.1592592833
 30
0.0
 10
59.7728798866
 20
78.3698973829
 30
0.0
 10
59.753880596
 20
78.5157956939
 30
0.0
 10
59.7538679946
 20
78.5869641501
 30
0.0
  0
SPLINE
  5
282
100
AcDbEntity
  8
0
100
AcDbSpline
 62
7
  6
BYLAYER
 70
0
 71
3
 72
12
 73
8
 74
0
 42
0.0000001
 43
0.0000001
 44
0.0000000001
 40
0.0
 40
0.0
 40
0.0
 40
0.0
 40
0.1081626179
 40
0.21837267
 40
0.4513402258
 40
0.7104790324
 40
1.0
 40
1.0
 40
1.0
 40
1.0
 10
70.4107159031
 20
75.3210381182
 30
0.0
 10
70.4107242832
 20
75.2737105769
 30
0.0
 10
70.4024819298
 20
75.1779600142
 30
0.0
 10
70.3527166335
 20
74.9860348994
 30
0.0
 10
70.2250926821
 20
74.750618509
 30
0.0
 10
69.9872405583
 20
74.5008980578
 30
0.0
 10
69.7882156285
 20
74.3637772188
 30
0.0
 10
69.6785051623
 20
74.3004362297
 30
0.0
  0
SPLINE
  5
283
100
AcDbEntity
  8
0
100
AcDbSpline
 62
7
  6
BYLAYER
 70
0
 71
3
 72
12
 73
8
 74
0
 42
0.0000001
 43
0.0000001
 44
0.0000000001
 40
0.0
 40
0.0
 40
0.0
 40
0.0
 40
0.1081626179
 40
0.21837267
 40
0.4513402258
 40
0.7104790324
 40
1.0
 40
1.0
 40
1.0
 40
1.0
 10
64.7538381019
 20
78.5869641543
 30
0.0
 10
64.753846482
 20
78.5396366131
 30
0.0
 10
64.7456041286
 20
78.4438860504
 30
0.0
 10
64.6958388323
 20
78.2519609356
 30
0.0
 10
64.5682148809
 20
78.0165445452
 30
0.0
 10
64.3303627571
 20
77.766824094
 30
0.0
 10
64.1313378273
 20
77.629703255
 30
0.0
 10
64.0216273611
 20
77.5663622659
 30
0.0
  0
SPLINE
  5
284
100
AcDbEntity
  8
0
100
AcDbSpline
 62
7
  6
BYLAYER
 70
0
 71
3
 72
12
 73
8
 74
0
 42
0.0000001
 43
0.0000001
 44
0.0000000001
 40
0.0
 40
0.0
 40
0.0
 40
0.0
 40
0.2895157488
 40
0.5486441555
 40
0.7816192313
 40
0.8918334044
 40
1.0
 40
1.0
 40
1.0
 40
1.0
 10
64.0216273611
 20
77.6072939316
 30
0.0
 10
64.1313365673
 20
77.6706341833
 30
0.0
 10
64.3303578214
 20
77.807751303
 30
0.0
 10
64.5682071029
 20
78.0574725228
 30
0.0
 10
64.6958363174
 20
78.2928868835
 30
0.0
 10
64.7456149804
 20
78.4848176936
 30
0.0
 10
64.7538519949
 20
78.5805730922
 30
0.0
 10
64.7538437762
 20
78.6279026817
 30
0.0
  0
SPLINE
  5
285
100
AcDbEntity
  8
0
100
AcDbSpline
 62
7
  6
BYLAYER
 70
0
 71
3
 72
12
 73
8
 74
0
 42
0.0000001
 43
0.0000001
 44
0.0000000001
 40
0.0
 40
0.0
 40
0.0
 40
0.0
 40
0.2895157488
 40
0.5486441555
 40
0.7816192313
 40
0.8918334044
 40
1.0
 40
1.0
 40
1.0
 40
1.0
 10
69.6785051623
 20
74.3413678954
 30
0.0
 10
69.7882143685
 20
74.4047081471
 30
0.0
 10
69.9872356226
 20
74.5418252668
 30
0.0
 10
70.2250849041
 20
74.7915464866
 30
0.0
 10
70.3527141185
 20
75.0269608473
 30
0.0
 10
70.4024927816
 20
75.2188916574
 30
0.0
 10
70.410729796
 20
75.3146470561
 30
0.0
 10
70.4107215773
 20
75.3619766455
 30
0.0
  0
SPLINE
  5
286
100
AcDbEntity
  8
0
100
AcDbSpline
 62
7
  6
BYLAYER
 70
0
 71
3
 72
20
 73
16
 74
0
 42
0.0000001
 43
0.0000001
 44
0.0000000001
 40
0.0
 40
0.0
 40
0.0
 40
0.0
 40
0.0428323099
 40
0.0874336331
 40
0.1352349412
 40
0.1871661695
 40
0.2436329474
 40
0.3046114249
 40
0.3697346246
 40
0.4383686721
 40
0.5826237109
 40
0.7296964271
 40
0.8711972541
 40
0.9376119368
 40
1.0
 40
1.0
 40
1.0
 40
1.0
 10
65.4107401215
 20
75.3619772131
 30
0.0
 10
65.4107524799
 20
75.2908082126
 30
0.0
 10
65.4297464354
 20
75.1449074556
 30
0.0
 10
65.5134692621
 20
74.9342688662
 30
0.0
 10
65.6491949931
 20
74.7345431262
 30
0.0
 10
65.8332358862
 20
74.5497773693
 30
0.0
 10
66.0612424706
 20
74.383160664
 30
0.0
 10
66.3283886281
 20
74.2378381406
 30
0.0
 10
66.6291230264
 20
74.116700788
 30
0.0
 10
67.0736146308
 20
73.9886109793
 30
0.0
 10
67.669371627
 20
73.9050654696
 30
0.0
 10
68.391258599
 20
73.924988601
 30
0.0
 10
68.9733313921
 20
74.0413929826
 30
0.0
 10
69.3962105832
 20
74.1946669943
 30
0.0
 10
69.5887308315
 20
74.2895444105
 30
0.0
 10
69.6785051623
 20
74.3413753271
 30
0.0
  0
SPLINE
  5
287
100
AcDbEntity
  8
0
100
AcDbSpline
 62
7
  6
BYLAYER
 70
0
 71
3
 72
20
 73
16
 74
0
 42
0.0000001
 43
0.0000001
 44
0.0000000001
 40
0.0
 40
0.0
 40
0.0
 40
0.0
 40
0.0623913564
 40
0.1288090017
 40
0.2703026857
 40
0.4173651438
 40
0.5616181032
 40
0.6302547849
 40
0.6953816444
 40
0.7563640422
 40
0.8128332041
 40
0.864765686
 40
0.912567124
 40
0.9571679169
 40
1.0
 40
1.0
 40
1.0
 40
1.0
 10
69.6785051623
 20
74.3004362297
 30
0.0
 10
69.5887263071
 20
74.2486026929
 30
0.0
 10
69.396194876
 20
74.153725606
 30
0.0
 10
68.9733198067
 20
74.0004480976
 30
0.0
 10
68.3912700714
 20
73.8840567219
 30
0.0
 10
67.6694186788
 20
73.8641277681
 30
0.0
 10
67.0736775457
 20
73.9476617636
 30
0.0
 10
66.6291791777
 20
74.0757497153
 30
0.0
 10
66.3284283756
 20
74.1968893209
 30
0.0
 10
66.0612650477
 20
74.3422139966
 30
0.0
 10
65.8332498157
 20
74.508839244
 30
0.0
 10
65.6492030603
 20
74.6936067957
 30
0.0
 10
65.5134757928
 20
74.8933332471
 30
0.0
 10
65.4297576878
 20
75.1039713467
 30
0.0
 10
65.4107583972
 20
75.2498696577
 30
0.0
 10
65.4107457957
 20
75.3210381139
 30
0.0
  0
SPLINE
  5
288
100
AcDbEntity
  8
0
100
AcDbSpline
 62
7
  6
BYLAYER
 70
0
 71
3
 72
11
 73
7
 74
0
 42
0.0000001
 43
0.0000001
 44
0.0000000001
 40
0.0
 40
0.0
 40
0.0
 40
0.0
 40
0.3210527739
 40
0.5923088455
 40
0.815171024
 40
1.0
 40
1.0
 40
1.0
 40
1.0
 10
72.9282786079
 20
28.4670997935
 30
0.0
 10
72.9247809743
 20
28.4057028862
 30
0.0
 10
72.9125036995
 20
28.2925627092
 30
0.0
 10
72.8725021138
 20
28.1408106044
 30
0.0
 10
72.8131363568
 20
28.0236276788
 30
0.0
 10
72.7552438863
 20
27.9676189884
 30
0.0
 10
72.7246129338
 20
27.9498668588
 30
0.0
  0
SPLINE
  5
289
100
AcDbEntity
  8
0
100
AcDbSpline
 62
7
  6
BYLAYER
 70
0
 71
3
 72
11
 73
7
 74
0
 42
0.0000001
 43
0.0000001
 44
0.0000000001
 40
0.0
 40
0.0
 40
0.0
 40
0.0
 40
0.250119902
 40
0.4956448066
 40
0.7434554441
 40
1.0
 40
1.0
 40
1.0
 40
1.0
 10
83.6972057402
 20
34.2849102367
 30
0.0
 10
83.7527468611
 20
34.3177317116
 30
0.0
 10
83.8560544348
 20
34.3953241237
 30
0.0
 10
83.9787192132
 20
34.5451027063
 30
0.0
 10
84.0625145102
 20
34.721412393
 30
0.0
 10
84.0901741236
 20
34.84979248
 30
0.0
 10
84.0974291571
 20
34.9155647535
 30
0.0
  0
SPLINE
  5
28A
100
AcDbEntity
  8
0
100
AcDbSpline
 62
7
  6
BYLAYER
 70
0
 71
3
 72
11
 73
7
 74
0
 42
0.0000001
 43
0.0000001
 44
0.0000000001
 40
0.0
 40
0.0
 40
0.0
 40
0.0
 40
0.2565455075
 40
0.5043562892
 40
0.7498807659
 40
1.0
 40
1.0
 40
1.0
 40
1.0
 10
12.7976405296
 20
62.3697125462
 30
0.0
 10
12.804895069
 20
62.3039383495
 30
0.0
 10
12.83255435
 20
62.1755545632
 30
0.0
 10
12.9163513947
 20
61.9992401431
 30
0.0
 10
13.0390196697
 20
61.849458528
 30
0.0
 10
13.1423303317
 20
61.7718653673
 30
0.0
 10
13.1978730449
 20
61.7390438366
 30
0.0
  0
SPLINE
  5
28B
100
AcDbEntity
  8
0
100
AcDbSpline
 62
7
  6
BYLAYER
 70
0
 71
3
 72
11
 73
7
 74
0
 42
0.0000001
 43
0.0000001
 44
0.0000000001
 40
0.0
 40
0.0
 40
0.0
 40
0.0
 40
0.1848327722
 40
0.4076986683
 40
0.678953903
 40
1.0
 40
1.0
 40
1.0
 40
1.0
 10
71.7236523066
 20
27.9498821701
 30
0.0
 10
71.6930252613
 20
27.9676378095
 30
0.0
 10
71.6351420709
 20
28.0236493948
 30
0.0
 10
71.575785037
 20
28.1408278679
 30
0.0
 10
71.5357886394
 20
28.2925696663
 30
0.0
 10
71.5235122747
 20
28.4057008275
 30
0.0
 10
71.5200146906
 20
28.4670923727
 30
0.0
  0
SPLINE
  5
28C
100
AcDbEntity
  8
0
100
AcDbSpline
 62
7
  6
BYLAYER
 70
0
 71
3
 72
11
 73
7
 74
0
 42
0.0000001
 43
0.0000001
 44
0.0000000001
 40
0.0
 40
0.0
 40
0.0
 40
0.0
 40
0.2225587114
 40
0.457736609
 40
0.7152918289
 40
1.0
 40
1.0
 40
1.0
 40
1.0
 10
76.7949124155
 20
75.7497116447
 30
0.0
 10
76.7949124079
 20
75.7159179475
 30
0.0
 10
76.7840791123
 20
75.6460116752
 30
0.0
 10
76.7367146645
 20
75.5468738598
 30
0.0
 10
76.6609078118
 20
75.4551451641
 30
0.0
 10
76.596480253
 20
75.4030568863
 30
0.0
 10
76.5608740388
 20
75.3785399457
 30
0.0
  0
SPLINE
  5
28D
100
AcDbEntity
  8
0
100
AcDbSpline
 62
7
  6
BYLAYER
 70
0
 71
3
 72
11
 73
7
 74
0
 42
0.0000001
 43
0.0000001
 44
0.0000000001
 40
0.0
 40
0.0
 40
0.0
 40
0.0
 40
0.2352728336
 40
0.4797788475
 40
0.7351456474
 40
1.0
 40
1.0
 40
1.0
 40
1.0
 10
84.8055685402
 20
71.4534057617
 30
0.0
 10
84.7950008217
 20
71.5503920656
 30
0.0
 10
84.7384721358
 20
71.7454393214
 30
0.0
 10
84.5700312169
 20
72.0033927721
 30
0.0
 10
84.3399953059
 20
72.2246195038
 30
0.0
 10
84.1601081192
 20
72.3454343916
 30
0.0
 10
84.0649937517
 20
72.4003452281
 30
0.0
  0
SPLINE
  5
28E
100
AcDbEntity
  8
0
100
AcDbSpline
 62
7
  6
BYLAYER
 70
0
 71
3
 72
9
 73
5
 74
0
 42
0.0000001
 43
0.0000001
 44
0.0000000001
 40
0.0
 40
0.0
 40
0.0
 40
0.0
 40
0.2419886257
 40
1.0
 40
1.0
 40
1.0
 40
1.0
 10
67.8754112796
 20
70.3608922126
 30
0.0
 10
67.8649320123
 20
70.3548420409
 30
0.0
 10
67.821139049
 20
70.3306896362
 30
0.0
 10
67.7755658884
 20
70.3098136794
 30
0.0
 10
67.7404073425
 20
70.2956517869
 30
0.0
  0
SPLINE
  5
28F
100
AcDbEntity
  8
0
100
AcDbSpline
 62
7
  6
BYLAYER
 70
0
 71
3
 72
9
 73
5
 74
0
 42
0.0000001
 43
0.0000001
 44
0.0000000001
 40
0.0
 40
0.0
 40
0.0
 40
0.0
 40
0.2430777981
 40
1.0
 40
1.0
 40
1.0
 40
1.0
 10
67.7404073425
 20
70.2956517869
 30
0.0
 10
67.7250394035
 20
70.2894615679
 30
0.0
 10
67.6612973395
 20
70.2652957066
 30
0.0
 10
67.5956548261
 20
70.2462249219
 30
0.0
 10
67.5454327045
 20
70.2344209096
 30
0.0
  0
SPLINE
  5
290
100
AcDbEntity
  8
0
100
AcDbSpline
 62
7
  6
BYLAYER
 70
0
 71
3
 72
9
 73
5
 74
0
 42
0.0000001
 43
0.0000001
 44
0.0000000001
 40
0.0
 40
0.0
 40
0.0
 40
0.0
 40
0.5000005822
 40
1.0
 40
1.0
 40
1.0
 40
1.0
 10
67.5454327045
 20
70.2344209096
 30
0.0
 10
67.4222762663
 20
70.2054746988
 30
0.0
 10
67.1682937638
 20
70.1781706676
 30
0.0
 10
66.9143114801
 20
70.2054769884
 30
0.0
 10
66.791155623
 20
70.2344243838
 30
0.0
  0
SPLINE
  5
291
100
AcDbEntity
  8
0
100
AcDbSpline
 62
7
  6
BYLAYER
 70
0
 71
3
 72
9
 73
5
 74
0
 42
0.0000001
 43
0.0000001
 44
0.0000000001
 40
0.0
 40
0.0
 40
0.0
 40
0.0
 40
0.2602391911
 40
1.0
 40
1.0
 40
1.0
 40
1.0
 10
66.6532591612
 20
70.2742827602
 30
0.0
 10
66.6359807601
 20
70.2802840147
 30
0.0
 10
66.5700931193
 20
70.304745868
 30
0.0
 10
66.5062262243
 20
70.3348921806
 30
0.0
 10
66.4611977172
 20
70.3608888132
 30
0.0
  0
SPLINE
  5
292
100
AcDbEntity
  8
0
100
AcDbSpline
 62
7
  6
BYLAYER
 70
0
 71
3
 72
11
 73
7
 74
0
 42
0.0000001
 43
0.0000001
 44
0.0000000001
 40
0.0
 40
0.0
 40
0.0
 40
0.0
 40
0.2352727498
 40
0.4797788214
 40
0.7351456687
 40
1.0
 40
1.0
 40
1.0
 40
1.0
 10
13.1501674714
 20
98.2951757527
 30
0.0
 10
13.1607352197
 20
98.3921614707
 30
0.0
 10
13.2172634705
 20
98.5872075782
 30
0.0
 10
13.3857024922
 20
98.8451601451
 30
0.0
 10
13.6157358828
 20
99.0663869329
 30
0.0
 10
13.7956212382
 20
99.1872023758
 30
0.0
 10
13.8907346712
 20
99.2421135872
 30
0.0
  0
SPLINE
  5
293
100
AcDbEntity
  8
0
100
AcDbSpline
 62
7
  6
BYLAYER
 70
0
 71
3
 72
9
 73
5
 74
0
 42
0.0000001
 43
0.0000001
 44
0.0000000001
 40
0.0
 40
0.0
 40
0.0
 40
0.0
 40
0.2555810976
 40
1.0
 40
1.0
 40
1.0
 40
1.0
 10
16.3534557195
 20
99.2916923781
 30
0.0
 10
16.3473076039
 20
99.2957401239
 30
0.0
 10
16.3234593284
 20
99.3118886337
 30
0.0
 10
16.3004590657
 20
99.3292999909
 30
0.0
 10
16.283962831
 20
99.3429946234
 30
0.0
  0
SPLINE
  5
294
100
AcDbEntity
  8
0
100
AcDbSpline
 62
7
  6
BYLAYER
 70
0
 71
3
 72
11
 73
7
 74
0
 42
0.0000001
 43
0.0000001
 44
0.0000000001
 40
0.0
 40
0.0
 40
0.0
 40
0.0
 40
0.2790111833
 40
0.5346902516
 40
0.7722974153
 40
1.0
 40
1.0
 40
1.0
 40
1.0
 10
16.283962831
 20
99.3429946234
 30
0.0
 10
16.2562815343
 20
99.3659747271
 30
0.0
 10
16.2063749833
 20
99.4141190162
 30
0.0
 10
16.1486952297
 20
99.4961485867
 30
0.0
 10
16.1130394127
 20
99.5829402933
 30
0.0
 10
16.1049889604
 20
99.6432174149
 30
0.0
 10
16.104988967
 20
99.6725783867
 30
0.0
  0
SPLINE
  5
295
100
AcDbEntity
  8
0
100
AcDbSpline
 62
7
  6
BYLAYER
 70
0
 71
3
 72
11
 73
7
 74
0
 42
0.0000001
 43
0.0000001
 44
0.0000000001
 40
0.0
 40
0.0
 40
0.0
 40
0.0
 40
0.2225587114
 40
0.457736609
 40
0.7152918289
 40
1.0
 40
1.0
 40
1.0
 40
1.0
 10
16.104988967
 20
99.6725783867
 30
0.0
 10
16.1049889745
 20
99.7063720839
 30
0.0
 10
16.1158222701
 20
99.7762783562
 30
0.0
 10
16.1631867179
 20
99.8754161716
 30
0.0
 10
16.2389935706
 20
99.9671448674
 30
0.0
 10
16.3034211294
 20
100.0192331451
 30
0.0
 10
16.3390273437
 20
100.0437500857
 30
0.0
  0
SPLINE
  5
296
100
AcDbEntity
  8
0
100
AcDbSpline
 62
7
  6
BYLAYER
 70
0
 71
3
 72
9
 73
5
 74
0
 42
0.0000001
 43
0.0000001
 44
0.0000000001
 40
0.0
 40
0.0
 40
0.0
 40
0.0
 40
0.2461915319
 40
1.0
 40
1.0
 40
1.0
 40
1.0
 10
76.771368065
 20
75.6294401918
 30
0.0
 10
76.7696440896
 20
75.6339400983
 30
0.0
 10
76.7622949539
 20
75.6520842027
 30
0.0
 10
76.7535864044
 20
75.6696720184
 30
0.0
 10
76.7463721819
 20
75.6825427788
 30
0.0
  0
SPLINE
  5
297
100
AcDbEntity
  8
0
100
AcDbSpline
 62
7
  6
BYLAYER
 70
0
 71
3
 72
9
 73
5
 74
0
 42
0.0000001
 43
0.0000001
 44
0.0000000001
 40
0.0
 40
0.0
 40
0.0
 40
0.0
 40
0.2265271521
 40
1.0
 40
1.0
 40
1.0
 40
1.0
 10
76.7463721819
 20
75.6825427788
 30
0.0
 10
76.7338845902
 20
75.7048216592
 30
0.0
 10
76.6699781131
 20
75.7983027258
 30
0.0
 10
76.5775949461
 20
75.8694029849
 30
0.0
 10
76.5020722056
 20
75.913005073
 30
0.0
  0
SPLINE
  5
298
100
AcDbEntity
  8
0
100
AcDbSpline
 62
7
  6
BYLAYER
 70
0
 71
3
 72
9
 73
5
 74
0
 42
0.0000001
 43
0.0000001
 44
0.0000000001
 40
0.0
 40
0.0
 40
0.0
 40
0.0
 40
0.2585317981
 40
1.0
 40
1.0
 40
1.0
 40
1.0
 10
76.5020722056
 20
76.1579557982
 30
0.0
 10
76.5124076321
 20
76.151988772
 30
0.0
 10
76.5519317855
 20
76.1281404364
 30
0.0
 10
76.5896033753
 20
76.1011580067
 30
0.0
 10
76.6159385514
 20
76.079295408
 30
0.0
  0
SPLINE
  5
299
100
AcDbEntity
  8
0
100
AcDbSpline
 62
7
  6
BYLAYER
 70
0
 71
3
 72
11
 73
7
 74
0
 42
0.0000001
 43
0.0000001
 44
0.0000000001
 40
0.0
 40
0.0
 40
0.0
 40
0.0
 40
0.2790111833
 40
0.5346902516
 40
0.7722974153
 40
1.0
 40
1.0
 40
1.0
 40
1.0
 10
76.6159385514
 20
76.079295408
 30
0.0
 10
76.6436198481
 20
76.0563153043
 30
0.0
 10
76.6935263991
 20
76.0081710152
 30
0.0
 10
76.7512061527
 20
75.9261414448
 30
0.0
 10
76.7868619697
 20
75.8393497381
 30
0.0
 10
76.794912422
 20
75.7790726166
 30
0.0
 10
76.7949124155
 20
75.7497116447
 30
0.0
  0
SPLINE
  5
29A
100
AcDbEntity
  8
0
100
AcDbSpline
 62
7
  6
BYLAYER
 70
0
 71
3
 72
10
 73
6
 74
0
 42
0.0000001
 43
0.0000001
 44
0.0000000001
 40
0.0
 40
0.0
 40
0.0
 40
0.0
 40
0.2438211787
 40
0.4933785856
 40
1.0
 40
1.0
 40
1.0
 40
1.0
 10
13.8907346712
 20
99.2421135872
 30
0.0
 10
14.0222246885
 20
99.3180258521
 30
0.0
 10
14.3030459149
 20
99.446851666
 30
0.0
 10
14.9015943254
 20
99.6228734646
 30
0.0
 10
15.375241352
 20
99.6725742295
 30
0.0
 10
15.6907194516
 20
99.6725749878
 30
0.0
  0
SPLINE
  5
29B
100
AcDbEntity
  8
0
100
AcDbSpline
 62
7
  6
BYLAYER
 70
0
 71
3
 72
9
 73
5
 74
0
 42
0.0000001
 43
0.0000001
 44
0.0000000001
 40
0.0
 40
0.0
 40
0.0
 40
0.0
 40
0.2432698711
 40
1.0
 40
1.0
 40
1.0
 40
1.0
 10
25.0244901029
 20
105.0613978189
 30
0.0
 10
25.0330641564
 20
105.0663480215
 30
0.0
 10
25.0686342766
 20
105.0861310861
 30
0.0
 10
25.1054128747
 20
105.1037178417
 30
0.0
 10
25.133699994
 20
105.1158953044
 30
0.0
  0
SPLINE
  5
29C
100
AcDbEntity
  8
0
100
AcDbSpline
 62
7
  6
BYLAYER
 70
0
 71
3
 72
11
 73
7
 74
0
 42
0.0000001
 43
0.0000001
 44
0.0000000001
 40
0.0
 40
0.0
 40
0.0
 40
0.0
 40
0.2383523023
 40
0.4930356691
 40
0.7514230985
 40
1.0
 40
1.0
 40
1.0
 40
1.0
 10
25.133699994
 20
105.1158953044
 30
0.0
 10
25.2130815063
 20
105.1500686462
 30
0.0
 10
25.3852897528
 20
105.2027659603
 30
0.0
 10
25.6568312977
 20
105.2363031887
 30
0.0
 10
25.933929167
 20
105.2261795742
 30
0.0
 10
26.1151820866
 20
105.1893281705
 30
0.0
 10
26.2013316872
 20
105.1628319668
 30
0.0
  0
SPLINE
  5
29D
100
AcDbEntity
  8
0
100
AcDbSpline
 62
7
  6
BYLAYER
 70
0
 71
3
 72
9
 73
5
 74
0
 42
0.0000001
 43
0.0000001
 44
0.0000000001
 40
0.0
 40
0.0
 40
0.0
 40
0.0
 40
0.2617889425
 40
1.0
 40
1.0
 40
1.0
 40
1.0
 10
26.2013316872
 20
105.1628319668
 30
0.0
 10
26.2228864359
 20
105.1562025801
 30
0.0
 10
26.3045552115
 20
105.1288286889
 30
0.0
 10
26.3836315561
 20
105.0931963959
 30
0.0
 10
26.4387036652
 20
105.0614012182
 30
0.0
  0
SPLINE
  5
29E
100
AcDbEntity
  8
0
100
AcDbSpline
 62
7
  6
BYLAYER
 70
0
 71
3
 72
9
 73
5
 74
0
 42
0.0000001
 43
0.0000001
 44
0.0000000001
 40
0.0
 40
0.0
 40
0.0
 40
0.0
 40
0.2751188877
 40
1.0
 40
1.0
 40
1.0
 40
1.0
 10
16.3978232889
 20
99.8358684165
 30
0.0
 10
16.3717134759
 20
99.820793999
 30
0.0
 10
16.2797311426
 20
99.761630559
 30
0.0
 10
16.1985045773
 20
99.6819718046
 30
0.0
 10
16.1581926699
 20
99.6135242223
 30
0.0
  0
SPLINE
  5
29F
100
AcDbEntity
  8
0
100
AcDbSpline
 62
7
  6
BYLAYER
 70
0
 71
3
 72
9
 73
5
 74
0
 42
0.0000001
 43
0.0000001
 44
0.0000000001
 40
0.0
 40
0.0
 40
0.0
 40
0.0
 40
0.2541635641
 40
1.0
 40
1.0
 40
1.0
 40
1.0
 10
16.1535281646
 20
99.6054076687
 30
0.0
 10
16.1510958505
 20
99.6010681708
 30
0.0
 10
16.1418206979
 20
99.5838316918
 30
0.0
 10
16.1337557681
 20
99.5659385379
 30
0.0
 10
16.1285332178
 20
99.5523066551
 30
0.0
  0
SPLINE
  5
2A0
100
AcDbEntity
  8
0
100
AcDbSpline
 62
7
  6
BYLAYER
 70
0
 71
3
 72
10
 73
6
 74
0
 42
0.0000001
 43
0.0000001
 44
0.0000000001
 40
0.0
 40
0.0
 40
0.0
 40
0.0
 40
0.2438210563
 40
0.4933783984
 40
1.0
 40
1.0
 40
1.0
 40
1.0
 10
84.0649937517
 20
72.4003452281
 30
0.0
 10
83.9335039962
 20
72.4762560779
 30
0.0
 10
83.6526836237
 20
72.6050792396
 30
0.0
 10
83.0541375469
 20
72.7810964494
 30
0.0
 10
82.5804928989
 20
72.8307944072
 30
0.0
 10
82.2650164656
 20
72.8307936488
 30
0.0
  0
SPLINE
  5
2A1
100
AcDbEntity
  8
0
100
AcDbSpline
 62
7
  6
BYLAYER
 70
0
 71
3
 72
17
 73
13
 74
0
 42
0.0000001
 43
0.0000001
 44
0.0000000001
 40
0.0
 40
0.0
 40
0.0
 40
0.0
 40
0.0428610441
 40
0.0874892275
 40
0.1353139613
 40
0.1872740542
 40
0.3045219965
 40
0.4381782377
 40
0.5825189697
 40
0.7296725293
 40
0.8713102799
 40
1.0
 40
1.0
 40
1.0
 40
1.0
 10
62.9560172805
 20
44.5476486294
 30
0.0
 10
62.9806713793
 20
44.5618824953
 30
0.0
 10
63.0349956612
 20
44.5845247139
 30
0.0
 10
63.1247078786
 20
44.5976113741
 30
0.0
 10
63.2210344776
 20
44.5905763674
 30
0.0
 10
63.3609816698
 20
44.5532930907
 30
0.0
 10
63.5399094574
 20
44.4555053811
 30
0.0
 10
63.7376018931
 20
44.2804393153
 30
0.0
 10
63.9123447147
 20
44.0567753242
 30
0.0
 10
64.0499287558
 20
43.8025669341
 30
0.0
 10
64.139167741
 20
43.538646263
 30
0.0
 10
64.1631022975
 20
43.3588952372
 30
0.0
 10
64.1631022975
 20
43.2734204159
 30
0.0
  0
SPLINE
  5
2A2
100
AcDbEntity
  8
0
100
AcDbSpline
 62
7
  6
BYLAYER
 70
0
 71
3
 72
17
 73
13
 74
0
 42
0.0000001
 43
0.0000001
 44
0.0000000001
 40
0.0
 40
0.0
 40
0.0
 40
0.0
 40
0.0428592926
 40
0.087485474
 40
0.1353198781
 40
0.1872819044
 40
0.3045421965
 40
0.4382074305
 40
0.582548911
 40
0.7297129633
 40
0.8713059682
 40
1.0
 40
1.0
 40
1.0
 40
1.0
 10
42.3594401476
 20
69.9746746167
 30
0.0
 10
42.4112097563
 20
70.0045688519
 30
0.0
 10
42.5253451191
 20
70.0519618884
 30
0.0
 10
42.7137153992
 20
70.0796109864
 30
0.0
 10
42.9160192623
 20
70.0647057254
 30
0.0
 10
43.2099620232
 20
69.9865266323
 30
0.0
 10
43.5857222401
 20
69.7810586621
 30
0.0
 10
44.0008775739
 20
69.4133956141
 30
0.0
 10
44.3678737126
 20
68.9436751446
 30
0.0
 10
44.6566951533
 20
68.4098324635
 30
0.0
 10
44.844148982
 20
67.8556567377
 30
0.0
 10
44.8943622873
 20
67.478223923
 30
0.0
 10
44.8943622873
 20
67.2987191672
 30
0.0
  0
SPLINE
  5
2A3
100
AcDbEntity
  8
0
100
AcDbSpline
 62
7
  6
BYLAYER
 70
0
 71
3
 72
17
 73
13
 74
0
 42
0.0000001
 43
0.0000001
 44
0.0000000001
 40
0.0
 40
0.0
 40
0.0
 40
0.0
 40
0.0428592926
 40
0.087485474
 40
0.1353198781
 40
0.1872819044
 40
0.3045421965
 40
0.4382074305
 40
0.582548911
 40
0.7297129633
 40
0.8713059682
 40
1.0
 40
1.0
 40
1.0
 40
1.0
 10
15.489270592
 20
80.4255083023
 30
0.0
 10
15.5410402007
 20
80.4554025375
 30
0.0
 10
15.6551755635
 20
80.5027955739
 30
0.0
 10
15.8435458436
 20
80.530444672
 30
0.0
 10
16.0458497067
 20
80.515539411
 30
0.0
 10
16.3397924676
 20
80.4373603178
 30
0.0
 10
16.7155526845
 20
80.2318923476
 30
0.0
 10
17.1307080183
 20
79.8642292997
 30
0.0
 10
17.497704157
 20
79.3945088302
 30
0.0
 10
17.7865255977
 20
78.8606661491
 30
0.0
 10
17.9739794265
 20
78.3064904233
 30
0.0
 10
18.0241927317
 20
77.9290576086
 30
0.0
 10
18.0241927317
 20
77.7495528528
 30
0.0
  0
SPLINE
  5
2A4
100
AcDbEntity
  8
0
100
AcDbSpline
 62
7
  6
BYLAYER
 70
0
 71
3
 72
17
 73
13
 74
0
 42
0.0000001
 43
0.0000001
 44
0.0000000001
 40
0.0
 40
0.0
 40
0.0
 40
0.0
 40
0.0428592926
 40
0.087485474
 40
0.1353198781
 40
0.1872819044
 40
0.3045421965
 40
0.4382074305
 40
0.582548911
 40
0.7297129633
 40
0.8713059682
 40
1.0
 40
1.0
 40
1.0
 40
1.0
 10
15.489270592
 20
85.4878232885
 30
0.0
 10
15.5410402007
 20
85.5177175237
 30
0.0
 10
15.6551755635
 20
85.5651105601
 30
0.0
 10
15.8435458436
 20
85.5927596582
 30
0.0
 10
16.0458497067
 20
85.5778543972
 30
0.0
 10
16.3397924676
 20
85.499675304
 30
0.0
 10
16.7155526845
 20
85.2942073338
 30
0.0
 10
17.1307080183
 20
84.9265442859
 30
0.0
 10
17.497704157
 20
84.4568238164
 30
0.0
 10
17.7865255977
 20
83.9229811353
 30
0.0
 10
17.9739794265
 20
83.3688054095
 30
0.0
 10
18.0241927317
 20
82.9913725948
 30
0.0
 10
18.0241927317
 20
82.811867839
 30
0.0
  0
SPLINE
  5
2A5
100
AcDbEntity
  8
0
100
AcDbSpline
 62
7
  6
BYLAYER
 70
0
 71
3
 72
17
 73
13
 74
0
 42
0.0000001
 43
0.0000001
 44
0.0000000001
 40
0.0
 40
0.0
 40
0.0
 40
0.0
 40
0.0428592926
 40
0.087485474
 40
0.1353198781
 40
0.1872819044
 40
0.3045421965
 40
0.4382074305
 40
0.582548911
 40
0.7297129633
 40
0.8713059682
 40
1.0
 40
1.0
 40
1.0
 40
1.0
 10
15.489270592
 20
74.0567894487
 30
0.0
 10
15.5410402007
 20
74.0866836839
 30
0.0
 10
15.6551755635
 20
74.1340767203
 30
0.0
 10
15.8435458436
 20
74.1617258184
 30
0.0
 10
16.0458497067
 20
74.1468205574
 30
0.0
 10
16.3397924676
 20
74.0686414642
 30
0.0
 10
16.7155526845
 20
73.863173494
 30
0.0
 10
17.1307080183
 20
73.495510446
 30
0.0
 10
17.497704157
 20
73.0257899766
 30
0.0
 10
17.7865255977
 20
72.4919472955
 30
0.0
 10
17.9739794265
 20
71.9377715697
 30
0.0
 10
18.0241927317
 20
71.560338755
 30
0.0
 10
18.0241927317
 20
71.3808339992
 30
0.0
  0
SPLINE
  5
2A6
100
AcDbEntity
  8
0
100
AcDbSpline
 62
7
  6
BYLAYER
 70
0
 71
3
 72
15
 73
11
 74
0
 42
0.0000001
 43
0.0000001
 44
0.0000000001
 40
0.0
 40
0.0
 40
0.0
 40
0.0
 40
0.0868943563
 40
0.1863242906
 40
0.3037357802
 40
0.437534607
 40
0.5819868341
 40
0.7292639467
 40
0.8712844614
 40
1.0
 40
1.0
 40
1.0
 40
1.0
 10
63.3309967032
 20
59.4117080615
 30
0.0
 10
63.3434762755
 20
59.418917086
 30
0.0
 10
63.3748471826
 20
59.4269164078
 30
0.0
 10
63.4253370319
 20
59.4168910528
 30
0.0
 10
63.4769184483
 20
59.3886836713
 30
0.0
 10
63.5263730888
 20
59.3448878361
 30
0.0
 10
63.5700596798
 20
59.2890177969
 30
0.0
 10
63.6044919779
 20
59.2254500528
 30
0.0
 10
63.6267210486
 20
59.159439027
 30
0.0
 10
63.6327700037
 20
59.1144954315
 30
0.0
 10
63.6327700037
 20
59.0931469072
 30
0.0
  0
SPLINE
  5
2A7
100
AcDbEntity
  8
0
100
AcDbSpline
 62
7
  6
BYLAYER
 70
0
 71
3
 72
11
 73
7
 74
0
 42
0.0000001
 43
0.0000001
 44
0.0000000001
 40
0.0
 40
0.0
 40
0.0
 40
0.0
 40
0.2177868453
 40
0.4509169606
 40
0.7103006453
 40
1.0
 40
1.0
 40
1.0
 40
1.0
 10
24.0331561606
 20
75.7517503607
 30
0.0
 10
24.0892330939
 20
75.7841261925
 30
0.0
 10
24.2180793179
 20
75.8308841004
 30
0.0
 10
24.4320879189
 20
75.8362985354
 30
0.0
 10
24.6601687024
 20
75.7812192628
 30
0.0
 10
24.8085586944
 20
75.7106247823
 30
0.0
 10
24.8831523553
 20
75.6675590864
 30
0.0
  0
SPLINE
  5
2A8
100
AcDbEntity
  8
0
100
AcDbSpline
 62
7
  6
BYLAYER
 70
0
 71
3
 72
11
 73
7
 74
0
 42
0.0000001
 43
0.0000001
 44
0.0000000001
 40
0.0
 40
0.0
 40
0.0
 40
0.0
 40
0.288744113
 40
0.5488106576
 40
0.7823396718
 40
1.0
 40
1.0
 40
1.0
 40
1.0
 10
63.6327700037
 20
55.0106348216
 30
0.0
 10
63.6327700037
 20
54.9980111767
 30
0.0
 10
63.6307882135
 20
54.9739434721
 30
0.0
 10
63.6210970134
 20
54.9408326995
 30
0.0
 10
63.6046818869
 20
54.9139116158
 30
0.0
 10
63.5892283457
 20
54.900953957
 30
0.0
 10
63.5809884416
 20
54.8961940446
 30
0.0
  0
SPLINE
  5
2A9
100
AcDbEntity
  8
0
100
AcDbSpline
 62
7
  6
BYLAYER
 70
0
 71
3
 72
11
 73
7
 74
0
 42
0.0000001
 43
0.0000001
 44
0.0000000001
 40
0.0
 40
0.0
 40
0.0
 40
0.0
 40
0.2897016594
 40
0.5490895814
 40
0.7822189142
 40
1.0
 40
1.0
 40
1.0
 40
1.0
 10
18.0241927317
 20
71.3808339992
 30
0.0
 10
18.0241927317
 20
71.2744312707
 30
0.0
 10
18.0080606264
 20
71.0720747934
 30
0.0
 10
17.9261129679
 20
70.7940455481
 30
0.0
 10
17.788130274
 20
70.5684407341
 30
0.0
 10
17.6585222848
 20
70.459488507
 30
0.0
 10
17.5892540258
 20
70.4194897186
 30
0.0
  0
SPLINE
  5
2AA
100
AcDbEntity
  8
0
100
AcDbSpline
 62
7
  6
BYLAYER
 70
0
 71
3
 72
11
 73
7
 74
0
 42
0.0000001
 43
0.0000001
 44
0.0000000001
 40
0.0
 40
0.0
 40
0.0
 40
0.0
 40
0.2897016594
 40
0.5490895814
 40
0.7822189142
 40
1.0
 40
1.0
 40
1.0
 40
1.0
 10
18.0241927317
 20
82.811867839
 30
0.0
 10
18.0241927317
 20
82.7054651105
 30
0.0
 10
18.0080606264
 20
82.5031086332
 30
0.0
 10
17.9261129679
 20
82.2250793879
 30
0.0
 10
17.788130274
 20
81.9994745739
 30
0.0
 10
17.6585222848
 20
81.8905223469
 30
0.0
 10
17.5892540258
 20
81.8505235585
 30
0.0
  0
SPLINE
  5
2AB
100
AcDbEntity
  8
0
100
AcDbSpline
 62
7
  6
BYLAYER
 70
0
 71
3
 72
11
 73
7
 74
0
 42
0.0000001
 43
0.0000001
 44
0.0000000001
 40
0.0
 40
0.0
 40
0.0
 40
0.0
 40
0.2897016594
 40
0.5490895814
 40
0.7822189142
 40
1.0
 40
1.0
 40
1.0
 40
1.0
 10
18.0241927317
 20
77.7495528528
 30
0.0
 10
18.0241927317
 20
77.6431501243
 30
0.0
 10
18.0080606264
 20
77.440793647
 30
0.0
 10
17.9261129679
 20
77.1627644017
 30
0.0
 10
17.788130274
 20
76.9371595877
 30
0.0
 10
17.6585222848
 20
76.8282073607
 30
0.0
 10
17.5892540258
 20
76.7882085723
 30
0.0
  0
SPLINE
  5
2AC
100
AcDbEntity
  8
0
100
AcDbSpline
 62
7
  6
BYLAYER
 70
0
 71
3
 72
11
 73
7
 74
0
 42
0.0000001
 43
0.0000001
 44
0.0000000001
 40
0.0
 40
0.0
 40
0.0
 40
0.0
 40
0.2897016594
 40
0.5490895814
 40
0.7822189142
 40
1.0
 40
1.0
 40
1.0
 40
1.0
 10
44.8943622873
 20
67.2987191672
 30
0.0
 10
44.8943622873
 20
67.1923164387
 30
0.0
 10
44.878230182
 20
66.9899599614
 30
0.0
 10
44.7962825234
 20
66.7119307161
 30
0.0
 10
44.6582998296
 20
66.4863259021
 30
0.0
 10
44.5286918404
 20
66.3773736751
 30
0.0
 10
44.4594235814
 20
66.3373748867
 30
0.0
  0
SPLINE
  5
2AD
100
AcDbEntity
  8
0
100
AcDbSpline
 62
7
  6
BYLAYER
 70
0
 71
3
 72
11
 73
7
 74
0
 42
0.0000001
 43
0.0000001
 44
0.0000000001
 40
0.0
 40
0.0
 40
0.0
 40
0.0
 40
0.2895505284
 40
0.5491401806
 40
0.7822781221
 40
1.0
 40
1.0
 40
1.0
 40
1.0
 10
64.1631022975
 20
43.2734204159
 30
0.0
 10
64.1631022975
 20
43.2227796455
 30
0.0
 10
64.1553701064
 20
43.1264188266
 30
0.0
 10
64.1164150356
 20
42.9940016292
 30
0.0
 10
64.05070039
 20
42.8865293532
 30
0.0
 10
63.9889463939
 20
42.8347096158
 30
0.0
 10
63.9559702874
 20
42.8156692265
 30
0.0
  0
SPLINE
  5
2AE
100
AcDbEntity
  8
0
100
AcDbSpline
 62
7
  6
BYLAYER
 70
0
 71
3
 72
11
 73
7
 74
0
 42
0.0000001
 43
0.0000001
 44
0.0000000001
 40
0.0
 40
0.0
 40
0.0
 40
0.0
 40
0.2897003537
 40
0.5490843943
 40
0.7822141087
 40
1.0
 40
1.0
 40
1.0
 40
1.0
 10
23.6810658225
 20
74.9735142599
 30
0.0
 10
23.6810658225
 20
75.0596497127
 30
0.0
 10
23.6941230258
 20
75.2234613733
 30
0.0
 10
23.760463386
 20
75.4485316321
 30
0.0
 10
23.8721586564
 20
75.6311665734
 30
0.0
 10
23.9770779739
 20
75.7193738052
 30
0.0
 10
24.0331561606
 20
75.7517503607
 30
0.0
  0
SPLINE
  5
2AF
100
AcDbEntity
  8
0
100
AcDbSpline
 62
7
  6
BYLAYER
 70
0
 71
3
 72
13
 73
9
 74
0
 42
0.0000001
 43
0.0000001
 44
0.0000000001
 40
0.0
 40
0.0
 40
0.0
 40
0.0
 40
0.1142234676
 40
0.237555398
 40
0.4999989155
 40
0.7624430267
 40
0.8857756506
 40
1.0
 40
1.0
 40
1.0
 40
1.0
 10
24.8831523553
 20
72.8914508681
 30
0.0
 10
24.80088393
 20
72.9389474911
 30
0.0
 10
24.6383292915
 20
73.0529182542
 30
0.0
 10
24.3339753162
 20
73.3377185632
 30
0.0
 10
24.0125216491
 20
73.7768325995
 30
0.0
 10
23.7929621108
 20
74.2747761337
 30
0.0
 10
23.698491817
 20
74.6807557019
 30
0.0
 10
23.6810658225
 20
74.8785186688
 30
0.0
 10
23.6810658225
 20
74.9735142599
 30
0.0
  0
SPLINE
  5
2B0
100
AcDbEntity
  8
0
100
AcDbSpline
 62
7
  6
BYLAYER
 70
0
 71
3
 72
17
 73
13
 74
0
 42
0.0000001
 43
0.0000001
 44
0.0000000001
 40
0.0
 40
0.0
 40
0.0
 40
0.0
 40
0.0428555697
 40
0.087482561
 40
0.1353084298
 40
0.1872735732
 40
0.3045314897
 40
0.4381937926
 40
0.5825432957
 40
0.7297070365
 40
0.871325156
 40
1.0
 40
1.0
 40
1.0
 40
1.0
 10
63.9559702874
 20
42.8156692265
 30
0.0
 10
63.9313199241
 20
42.8014361176
 30
0.0
 10
63.8769980742
 20
42.7787985001
 30
0.0
 10
63.7872901747
 20
42.7657136536
 30
0.0
 10
63.6909593769
 20
42.7727409477
 30
0.0
 10
63.5510026829
 20
42.8100329217
 30
0.0
 10
63.3720616599
 20
42.9078244941
 30
0.0
 10
63.1743596658
 20
43.0829064934
 30
0.0
 10
62.9996125609
 20
43.3065883165
 30
0.0
 10
62.862035145
 20
43.5608002476
 30
0.0
 10
62.7728088636
 20
43.8247083621
 30
0.0
 10
62.7488828472
 20
44.0044369165
 30
0.0
 10
62.7488828472
 20
44.0899019249
 30
0.0
  0
SPLINE
  5
2B1
100
AcDbEntity
  8
0
100
AcDbSpline
 62
7
  6
BYLAYER
 70
0
 71
3
 72
17
 73
13
 74
0
 42
0.0000001
 43
0.0000001
 44
0.0000000001
 40
0.0
 40
0.0
 40
0.0
 40
0.0
 40
0.0428592926
 40
0.087485474
 40
0.1353198781
 40
0.1872819044
 40
0.3045421965
 40
0.4382074305
 40
0.582548911
 40
0.7297129633
 40
0.8713059682
 40
1.0
 40
1.0
 40
1.0
 40
1.0
 10
44.4594235814
 20
66.3373748867
 30
0.0
 10
44.4076539726
 20
66.3074806515
 30
0.0
 10
44.2935186098
 20
66.2600876151
 30
0.0
 10
44.1051483298
 20
66.232438517
 30
0.0
 10
43.9028444667
 20
66.247343778
 30
0.0
 10
43.6089017057
 20
66.3255228712
 30
0.0
 10
43.2331414888
 20
66.5309908414
 30
0.0
 10
42.817986155
 20
66.8986538893
 30
0.0
 10
42.4509900163
 20
67.3683743588
 30
0.0
 10
42.1621685757
 20
67.9022170399
 30
0.0
 10
41.9747147469
 20
68.4563927657
 30
0.0
 10
41.9245014417
 20
68.8338255804
 30
0.0
 10
41.9245014417
 20
69.0133303362
 30
0.0
  0
SPLINE
  5
2B2
100
AcDbEntity
  8
0
100
AcDbSpline
 62
7
  6
BYLAYER
 70
0
 71
3
 72
9
 73
5
 74
0
 42
0.0000001
 43
0.0000001
 44
0.0000000001
 40
0.0
 40
0.0
 40
0.0
 40
0.0
 40
0.2357877571
 40
1.0
 40
1.0
 40
1.0
 40
1.0
 10
66.8378152229
 20
52.5944297073
 30
0.0
 10
66.8765412487
 20
52.5848941528
 30
0.0
 10
67.0390767457
 20
52.5375567478
 30
0.0
 10
67.1936427365
 20
52.4649090494
 30
0.0
 10
67.3055892747
 20
52.4002781476
 30
0.0
  0
SPLINE
  5
2B3
100
AcDbEntity
  8
0
100
AcDbSpline
 62
7
  6
BYLAYER
 70
0
 71
3
 72
15
 73
11
 74
0
 42
0.0000001
 43
0.0000001
 44
0.0000000001
 40
0.0
 40
0.0
 40
0.0
 40
0.0
 40
0.1448520769
 40
0.2745457152
 40
0.3911098206
 40
0.5000019296
 40
0.6088936798
 40
0.7254568371
 40
0.8551492479
 40
1.0
 40
1.0
 40
1.0
 40
1.0
 10
22.5496949726
 20
74.9735115404
 30
0.0
 10
22.5496949726
 20
75.1001805692
 30
0.0
 10
22.5689162769
 20
75.3410879293
 30
0.0
 10
22.6664098398
 20
75.6720311768
 30
0.0
 10
22.8308760205
 20
75.9407252097
 30
0.0
 10
23.0589719875
 20
76.1326775097
 30
0.0
 10
23.3392522214
 20
76.2342451911
 30
0.0
 10
23.6541789295
 20
76.2423366038
 30
0.0
 10
23.9895293302
 20
76.1613026954
 30
0.0
 10
24.2077710716
 20
76.0574985575
 30
0.0
 10
24.3174692855
 20
75.994165697
 30
0.0
  0
SPLINE
  5
2B4
100
AcDbEntity
  8
0
100
AcDbSpline
 62
7
  6
BYLAYER
 70
0
 71
3
 72
15
 73
11
 74
0
 42
0.0000001
 43
0.0000001
 44
0.0000000001
 40
0.0
 40
0.0
 40
0.0
 40
0.0
 40
0.1141232787
 40
0.2373467935
 40
0.3669716251
 40
0.4999988493
 40
0.6330262331
 40
0.7626515288
 40
0.885875802
 40
1.0
 40
1.0
 40
1.0
 40
1.0
 10
24.3174692855
 20
71.9116536113
 30
0.0
 10
24.1964847688
 20
71.9815024744
 30
0.0
 10
23.957465041
 20
72.1491169406
 30
0.0
 10
23.628518222
 20
72.4567583548
 30
0.0
 10
23.3254437652
 20
72.82055602
 30
0.0
 10
23.0595367818
 20
73.2266212578
 30
0.0
 10
22.8408251016
 20
73.6599355202
 30
0.0
 10
22.6773013431
 20
74.1043052325
 30
0.0
 10
22.575346104
 20
74.5430041314
 30
0.0
 10
22.5496949726
 20
74.8338103186
 30
0.0
 10
22.5496949726
 20
74.9735115404
 30
0.0
  0
SPLINE
  5
2B5
100
AcDbEntity
  8
0
100
AcDbSpline
 62
7
  6
BYLAYER
 70
0
 71
3
 72
11
 73
7
 74
0
 42
0.0000001
 43
0.0000001
 44
0.0000000001
 40
0.0
 40
0.0
 40
0.0
 40
0.0
 40
0.288744113
 40
0.5488106576
 40
0.7823396718
 40
1.0
 40
1.0
 40
1.0
 40
1.0
 10
63.2792151411
 20
59.2972672845
 30
0.0
 10
63.2792151411
 20
59.3098909294
 30
0.0
 10
63.2811969313
 20
59.333958634
 30
0.0
 10
63.2908881314
 20
59.3670694066
 30
0.0
 10
63.3073032578
 20
59.3939904903
 30
0.0
 10
63.3227567991
 20
59.4069481491
 30
0.0
 10
63.3309967032
 20
59.4117080615
 30
0.0
  0
SPLINE
  5
2B6
100
AcDbEntity
  8
0
100
AcDbSpline
 62
7
  6
BYLAYER
 70
0
 71
3
 72
11
 73
7
 74
0
 42
0.0000001
 43
0.0000001
 44
0.0000000001
 40
0.0
 40
0.0
 40
0.0
 40
0.0
 40
0.2897016594
 40
0.5490895814
 40
0.7822189142
 40
1.0
 40
1.0
 40
1.0
 40
1.0
 10
15.0543318861
 20
73.0954451682
 30
0.0
 10
15.0543318861
 20
73.2018478967
 30
0.0
 10
15.0704639914
 20
73.404204374
 30
0.0
 10
15.1524116499
 20
73.6822336192
 30
0.0
 10
15.2903943438
 20
73.9078384333
 30
0.0
 10
15.420002333
 20
74.0167906603
 30
0.0
 10
15.489270592
 20
74.0567894487
 30
0.0
  0
SPLINE
  5
2B7
100
AcDbEntity
  8
0
100
AcDbSpline
 62
7
  6
BYLAYER
 70
0
 71
3
 72
11
 73
7
 74
0
 42
0.0000001
 43
0.0000001
 44
0.0000000001
 40
0.0
 40
0.0
 40
0.0
 40
0.0
 40
0.2897016594
 40
0.5490895814
 40
0.7822189142
 40
1.0
 40
1.0
 40
1.0
 40
1.0
 10
15.0543318861
 20
84.526479008
 30
0.0
 10
15.0543318861
 20
84.6328817365
 30
0.0
 10
15.0704639914
 20
84.8352382138
 30
0.0
 10
15.1524116499
 20
85.1132674591
 30
0.0
 10
15.2903943438
 20
85.3388722731
 30
0.0
 10
15.420002333
 20
85.4478245001
 30
0.0
 10
15.489270592
 20
85.4878232885
 30
0.0
  0
SPLINE
  5
2B8
100
AcDbEntity
  8
0
100
AcDbSpline
 62
7
  6
BYLAYER
 70
0
 71
3
 72
11
 73
7
 74
0
 42
0.0000001
 43
0.0000001
 44
0.0000000001
 40
0.0
 40
0.0
 40
0.0
 40
0.0
 40
0.2897016594
 40
0.5490895814
 40
0.7822189142
 40
1.0
 40
1.0
 40
1.0
 40
1.0
 10
15.0543318861
 20
79.4641640218
 30
0.0
 10
15.0543318861
 20
79.5705667503
 30
0.0
 10
15.0704639914
 20
79.7729232276
 30
0.0
 10
15.1524116499
 20
80.0509524729
 30
0.0
 10
15.2903943438
 20
80.2765572869
 30
0.0
 10
15.420002333
 20
80.3855095139
 30
0.0
 10
15.489270592
 20
80.4255083023
 30
0.0
  0
SPLINE
  5
2B9
100
AcDbEntity
  8
0
100
AcDbSpline
 62
7
  6
BYLAYER
 70
0
 71
3
 72
17
 73
13
 74
0
 42
0.0000001
 43
0.0000001
 44
0.0000000001
 40
0.0
 40
0.0
 40
0.0
 40
0.0
 40
0.0428592926
 40
0.087485474
 40
0.1353198781
 40
0.1872819044
 40
0.3045421965
 40
0.4382074305
 40
0.582548911
 40
0.7297129633
 40
0.8713059682
 40
1.0
 40
1.0
 40
1.0
 40
1.0
 10
17.5892540258
 20
76.7882085723
 30
0.0
 10
17.537484417
 20
76.7583143371
 30
0.0
 10
17.4233490542
 20
76.7109213006
 30
0.0
 10
17.2349787742
 20
76.6832722026
 30
0.0
 10
17.0326749111
 20
76.6981774636
 30
0.0
 10
16.7387321501
 20
76.7763565567
 30
0.0
 10
16.3629719333
 20
76.9818245269
 30
0.0
 10
15.9478165994
 20
77.3494875749
 30
0.0
 10
15.5808204608
 20
77.8192080444
 30
0.0
 10
15.2919990201
 20
78.3530507255
 30
0.0
 10
15.1045451913
 20
78.9072264513
 30
0.0
 10
15.0543318861
 20
79.284659266
 30
0.0
 10
15.0543318861
 20
79.4641640218
 30
0.0
  0
SPLINE
  5
2BA
100
AcDbEntity
  8
0
100
AcDbSpline
 62
7
  6
BYLAYER
 70
0
 71
3
 72
11
 73
7
 74
0
 42
0.0000001
 43
0.0000001
 44
0.0000000001
 40
0.0
 40
0.0
 40
0.0
 40
0.0
 40
0.2897016594
 40
0.5490895814
 40
0.7822189142
 40
1.0
 40
1.0
 40
1.0
 40
1.0
 10
41.9245014417
 20
69.0133303362
 30
0.0
 10
41.9245014417
 20
69.1197330647
 30
0.0
 10
41.940633547
 20
69.322089542
 30
0.0
 10
42.0225812055
 20
69.6001187873
 30
0.0
 10
42.1605638994
 20
69.8257236013
 30
0.0
 10
42.2901718886
 20
69.9346758283
 30
0.0
 10
42.3594401476
 20
69.9746746167
 30
0.0
  0
SPLINE
  5
2BB
100
AcDbEntity
  8
0
100
AcDbSpline
 62
7
  6
BYLAYER
 70
0
 71
3
 72
11
 73
7
 74
0
 42
0.0000001
 43
0.0000001
 44
0.0000000001
 40
0.0
 40
0.0
 40
0.0
 40
0.0
 40
0.2895403107
 40
0.5491269238
 40
0.7822649846
 40
1.0
 40
1.0
 40
1.0
 40
1.0
 10
62.7488828472
 20
44.0899019249
 30
0.0
 10
62.7488828472
 20
44.1405408239
 30
0.0
 10
62.7566159041
 20
44.2368990078
 30
0.0
 10
62.7955668977
 20
44.3693142442
 30
0.0
 10
62.861279368
 20
44.4767905387
 30
0.0
 10
62.9230384284
 20
44.5286085273
 30
0.0
 10
62.9560172805
 20
44.5476486294
 30
0.0
  0
SPLINE
  5
2BC
100
AcDbEntity
  8
0
100
AcDbSpline
 62
7
  6
BYLAYER
 70
0
 71
3
 72
17
 73
13
 74
0
 42
0.0000001
 43
0.0000001
 44
0.0000000001
 40
0.0
 40
0.0
 40
0.0
 40
0.0
 40
0.0428592926
 40
0.087485474
 40
0.1353198781
 40
0.1872819044
 40
0.3045421965
 40
0.4382074305
 40
0.582548911
 40
0.7297129633
 40
0.8713059682
 40
1.0
 40
1.0
 40
1.0
 40
1.0
 10
17.5892540258
 20
81.8505235585
 30
0.0
 10
17.537484417
 20
81.8206293233
 30
0.0
 10
17.4233490542
 20
81.7732362868
 30
0.0
 10
17.2349787742
 20
81.7455871888
 30
0.0
 10
17.0326749111
 20
81.7604924498
 30
0.0
 10
16.7387321501
 20
81.8386715429
 30
0.0
 10
16.3629719333
 20
82.0441395131
 30
0.0
 10
15.9478165994
 20
82.4118025611
 30
0.0
 10
15.5808204608
 20
82.8815230306
 30
0.0
 10
15.2919990201
 20
83.4153657117
 30
0.0
 10
15.1045451913
 20
83.9695414375
 30
0.0
 10
15.0543318861
 20
84.3469742522
 30
0.0
 10
15.0543318861
 20
84.526479008
 30
0.0
  0
SPLINE
  5
2BD
100
AcDbEntity
  8
0
100
AcDbSpline
 62
7
  6
BYLAYER
 70
0
 71
3
 72
9
 73
5
 74
0
 42
0.0000001
 43
0.0000001
 44
0.0000000001
 40
0.0
 40
0.0
 40
0.0
 40
0.0
 40
0.4744361267
 40
1.0
 40
1.0
 40
1.0
 40
1.0
 10
63.2792151411
 20
59.2972672845
 30
0.0
 10
63.3043101177
 20
59.3117557895
 30
0.0
 10
63.3626507597
 20
59.3329014423
 30
0.0
 10
63.423891662
 20
59.3395425226
 30
0.0
 10
63.4559915315
 20
59.3395425997
 30
0.0
  0
SPLINE
  5
2BE
100
AcDbEntity
  8
0
100
AcDbSpline
 62
7
  6
BYLAYER
 70
0
 71
3
 72
9
 73
5
 74
0
 42
0.0000001
 43
0.0000001
 44
0.0000000001
 40
0.0
 40
0.0
 40
0.0
 40
0.0
 40
0.2526297933
 40
1.0
 40
1.0
 40
1.0
 40
1.0
 10
63.4559915315
 20
59.3395425997
 30
0.0
 10
63.4625820031
 20
59.3395426156
 30
0.0
 10
63.4886647248
 20
59.3389410389
 30
0.0
 10
63.5147032797
 20
59.3359857624
 30
0.0
 10
63.5338608274
 20
59.3323634399
 30
0.0
  0
SPLINE
  5
2BF
100
AcDbEntity
  8
0
100
AcDbSpline
 62
7
  6
BYLAYER
 70
0
 71
3
 72
11
 73
7
 74
0
 42
0.0000001
 43
0.0000001
 44
0.0000000001
 40
0.0
 40
0.0
 40
0.0
 40
0.0
 40
0.2372185796
 40
0.5000005262
 40
0.7627821863
 40
1.0
 40
1.0
 40
1.0
 40
1.0
 10
63.6327685317
 20
55.2147560487
 30
0.0
 10
63.6076733696
 20
55.2292444195
 30
0.0
 10
63.5493104408
 20
55.2503897825
 30
0.0
 10
63.4559915585
 20
55.2605207529
 30
0.0
 10
63.3626728169
 20
55.2503893566
 30
0.0
 10
63.3043101177
 20
55.2292437039
 30
0.0
 10
63.2792151411
 20
55.2147551989
 30
0.0
  0
SPLINE
  5
2C0
100
AcDbEntity
  8
0
100
AcDbSpline
 62
7
  6
BYLAYER
 70
0
 71
3
 72
17
 73
13
 74
0
 42
0.0000001
 43
0.0000001
 44
0.0000000001
 40
0.0
 40
0.0
 40
0.0
 40
0.0
 40
0.0428592926
 40
0.087485474
 40
0.1353198781
 40
0.1872819044
 40
0.3045421965
 40
0.4382074305
 40
0.582548911
 40
0.7297129633
 40
0.8713059682
 40
1.0
 40
1.0
 40
1.0
 40
1.0
 10
17.5892540258
 20
70.4194897186
 30
0.0
 10
17.537484417
 20
70.3895954835
 30
0.0
 10
17.4233490542
 20
70.342202447
 30
0.0
 10
17.2349787742
 20
70.314553349
 30
0.0
 10
17.0326749111
 20
70.3294586099
 30
0.0
 10
16.7387321501
 20
70.4076377031
 30
0.0
 10
16.3629719333
 20
70.6131056733
 30
0.0
 10
15.9478165994
 20
70.9807687213
 30
0.0
 10
15.5808204608
 20
71.4504891908
 30
0.0
 10
15.2919990201
 20
71.9843318719
 30
0.0
 10
15.1045451913
 20
72.5385075977
 30
0.0
 10
15.0543318861
 20
72.9159404124
 30
0.0
 10
15.0543318861
 20
73.0954451682
 30
0.0
  0
SPLINE
  5
2C1
100
AcDbEntity
  8
0
100
AcDbSpline
 62
7
  6
BYLAYER
 70
0
 71
3
 72
15
 73
11
 74
0
 42
0.0000001
 43
0.0000001
 44
0.0000000001
 40
0.0
 40
0.0
 40
0.0
 40
0.0
 40
0.0868943563
 40
0.1863242906
 40
0.3037357802
 40
0.437534607
 40
0.5819868341
 40
0.7292639467
 40
0.8712844614
 40
1.0
 40
1.0
 40
1.0
 40
1.0
 10
63.5809884416
 20
54.8961940446
 30
0.0
 10
63.5685088692
 20
54.8889850201
 30
0.0
 10
63.5371379622
 20
54.8809856983
 30
0.0
 10
63.4866481129
 20
54.8910110533
 30
0.0
 10
63.4350666965
 20
54.9192184348
 30
0.0
 10
63.385612056
 20
54.96301427
 30
0.0
 10
63.341925465
 20
55.0188843092
 30
0.0
 10
63.3074931668
 20
55.0824520533
 30
0.0
 10
63.2852640962
 20
55.1484630791
 30
0.0
 10
63.2792151411
 20
55.1934066746
 30
0.0
 10
63.2792151411
 20
55.2147551989
 30
0.0
  0
ELLIPSE
  5
2C2
100
AcDbEntity
  8
0
100
AcDbEllipse
 62
7
  6
BYLAYER
 10
28.9136677791
 20
73.3405570207
 30
0.0
 11
1.2020842188
 21
2.0820647278
 31
0.0
 40
0.5773494077
 41
-3.1415862518
 42
-2.796885072
  0
ENDSEC
  0
SECTION
  2
OBJECTS
  0
DICTIONARY
  5
C
100
AcDbDictionary
280
0
281
1
  3
ACAD_GROUP
350
D
  3
ACAD_MLINESTYLE
350
17
  3
ACAD_LAYOUT
350
1A
  3
ACAD_PLOTSETTINGS
350
19
  3
ACAD_PLOTSTYLENAME
350
E
  0
DICTIONARY
  5
D
102
{ACAD_REACTORS
330
C
102
}
100
AcDbDictionary
280
0
281
1
  0
ACDBDICTIONARYWDFLT
  5
E
102
{ACAD_REACTORS
330
C
102
}
100
AcDbDictionary
281
1
  3
Normal
350
F
100
AcDbDictionaryWithDefault
340
F
  0
DICTIONARY
  5
17
102
{ACAD_REACTORS
330
C
102
}
100
AcDbDictionary
280
0
281
1
  3
Standard
350
18
  0
DICTIONARY
  5
19
102
{ACAD_REACTORS
330
C
102
}
100
AcDbDictionary
281
1
  0
DICTIONARY
  5
1A
102
{ACAD_REACTORS
330
C
102
}
100
AcDbDictionary
281
1
  3
Model
350
2C3
  3
Layout1
350
2C4
  0
ACDBPLACEHOLDER
  5
F
102
{ACAD_REACTORS
330
E
102
}
  0
MLINESTYLE
  5
18
102
{ACAD_REACTORS
330
17
102
}
100
AcDbMlineStyle
  2
STANDARD
 70
0
  3

 62
256
 51
90.0
 52
90.0
 71
2
 49
0.5
 62
256
  6
BYLAYER
 49
-0.5
 62
256
  6
BYLAYER
  0
LAYOUT
  5
2C3
102
{ACAD_REACTORS
330
1A
102
}
100
AcDbPlotSettings
  1

  2
none_device
  4

  6

 40
0.0
 41
0.0
 42
0.0
 43
0.0
 44
210.0
 45
297.0
 46
0.0
 47
0.0
 48
0.0
 49
0.0
140
0.0
141
0.0
142
1.0
143
1.0
 70
1024
 72
1
 73
0
 74
0
  7

 75
0
147
1.0
148
0.0
149
0.0
100
AcDbLayout
  1
Model
 70
0
 71
0
 10
0.0
 20
0.0
 11
210.0
 21
297.0
 12
0.0
 22
0.0
 32
0.0
 14
0.0
 24
0.0
 34
0.0
 15
0.0
 25
0.0
 35
0.0
146
0.0
 13
0.0
 23
0.0
 33
0.0
 16
1.0
 26
0.0
 36
0.0
 17
0.0
 27
1.0
 37
0.0
 76
0
330
210
345
0
346
0
  0
LAYOUT
  5
2C4
102
{ACAD_REACTORS
330
1A
102
}
100
AcDbPlotSettings
  1

  2
none_device
  4

  6

 40
0.0
 41
0.0
 42
0.0
 43
0.0
 44
210.0
 45
297.0
 46
0.0
 47
0.0
 48
0.0
 49
0.0
140
0.0
141
0.0
142
1.0
143
1.0
 70
0
 72
1
 73
0
 74
0
  7

 75
0
147
1.0
148
0.0
149
0.0
100
AcDbLayout
  1
Layout1
 70
0
 71
1
 10
0.0
 20
0.0
 11
210.0
 21
297.0
 12
0.0
 22
0.0
 32
0.0
 14
0.0
 24
0.0
 34
0.0
 15
0.0
 25
0.0
 35
0.0
146
0.0
 13
0.0
 23
0.0
 33
0.0
 16
1.0
 26
0.0
 36
0.0
 17
0.0
 27
1.0
 37
0.0
 76
0
330
211
345
0
346
0
  0
ENDSEC
  0
EOF
