999
DXF file: C:\Users\sesa63760\Dev\_Creo\CAD\MCADID0004733_3D-CAD\drw0001_1.dxf
999
Pro/ENGINEER 2019471 by Parametric Technology Corporation
  0
SECTION
  2
HEADER
  9
$ACADVER
  1
AC1024
  9
$DWGCODEPAGE
  3
ANSI_1252
  9
$EXTMAX
 10
85.7815893859
 20
121.3196764171
 30
0.0
  9
$EXTMIN
 10
0.0
 20
0.0
 30
0.0
  9
$LIMMIN
 10
0.0
 20
0.0
  9
$LIMMAX
 10
85.7815893859
 20
121.3196764171
  9
$VIEWCTR
 10
42.8907946929
 20
60.6598382086
  9
$VIEWSIZE
 40
121.3196764171
  9
$CLAYER
  8
0
  9
$LTSCALE
 40
7.9082455739
  9
$CELTYPE
  6
BYLAYER
  9
$DIMSCALE
 40
1.0
  9
$DIMASZ
 40
1.0212093975
  9
$DIMEXO
 40
1.0
  9
$DIMDLI
 40
5.4638787601
  9
$DIMEXE
 40
1.0
  9
$DIMCEN
 40
1.2940765484
  9
$DIMLFAC
 40
1.0
  9
$DIMBLK
  1
_FILLED
  9
$DIMALT
 70
0
  9
$DIMALTF
 40
0.0393700787
  9
$DIMTXT
 40
1.4296931564
  9
$DIMTOL
 70
1
  9
$DIMLIM
 70
0
  9
$DIMTFAC
 40
1.0
  9
$DIMTP
 40
0.01
  9
$DIMTM
 40
0.01
  9
$DIMGAP
 40
0.625
  9
$DIMDSEP
 70
46
  9
$AUNITS
 70
0
  9
$PDMODE
 70
3
  9
$PDSIZE
 40
0.3125
  9
$HANDSEED
  5
2BA
  9
$TILEMODE
 70
1
  9
$MEASUREMENT
 70
1
  9
$INSUNITS
 70
4
  0
ENDSEC
  0
SECTION
  2
CLASSES
  0
CLASS
  1
ACDBDICTIONARYWDFLT
  2
AcDbDictionaryWithDefault
  3
AutoCAD 2000
 90
0
 91
1
280
0
281
0
  0
CLASS
  1
ACDBPLACEHOLDER
  2
AcDbPlaceHolder
  3
AutoCAD 2000
 90
0
 91
1
280
0
281
0
  0
CLASS
  1
LAYOUT
  2
AcDbLayout
  3
AutoCAD 2000
 90
0
 91
0
280
0
281
0
  0
ENDSEC
  0
SECTION
  2
TABLES
  0
TABLE
  2
VPORT
  5
8
100
AcDbSymbolTable
 70
2
  0
VPORT
  5
1F4
100
AcDbSymbolTableRecord
100
AcDbViewportTableRecord
  2
*ACTIVE
 70
0
 10
0.0
 20
0.0
 11
1.0
 21
1.0
 12
42.8907946929
 22
60.6598382086
 13
0.0
 23
0.0
 14
1.0
 24
1.0
 15
0.0
 25
0.0
 16
0.0
 26
0.0
 36
1.0
 17
0.0
 27
0.0
 37
0.0
 40
121.3196764171
 41
0.7070707071
 42
50.0
 43
0.0
 44
0.0
 50
0.0
 51
0.0
 71
0
 72
100
 73
1
 74
1
 75
0
 76
0
 77
0
 78
0
  0
ENDTAB
  0
TABLE
  2
LTYPE
  5
5
100
AcDbSymbolTable
 70
6
  0
LTYPE
  5
14
100
AcDbSymbolTableRecord
100
AcDbLinetypeTableRecord
  2
BYBLOCK
 70
0
  3

 72
65
 73
0
 40
0.0
  0
LTYPE
  5
15
100
AcDbSymbolTableRecord
100
AcDbLinetypeTableRecord
  2
BYLAYER
 70
0
  3

 72
65
 73
0
 40
0.0
  0
LTYPE
  5
16
100
AcDbSymbolTableRecord
100
AcDbLinetypeTableRecord
  2
CONTINUOUS
 70
64
  3
Solid line
 72
65
 73
0
 40
0.0
  0
LTYPE
  5
1F5
100
AcDbSymbolTableRecord
100
AcDbLinetypeTableRecord
  2
CENTER
 70
64
  3
____ _ ____ _ ____ _ ____ _ ____ _ ____ _ ____
 72
65
 73
4
 40
0.6
 49
0.375
 74
0
 49
-0.075
 74
0
 49
0.075
 74
0
 49
-0.075
 74
0
  0
LTYPE
  5
1F6
100
AcDbSymbolTableRecord
100
AcDbLinetypeTableRecord
  2
HIDDEN
 70
64
  3
- - - - - - - - - - - - - - - - - - - -
 72
65
 73
2
 40
0.2
 49
0.1
 74
0
 49
-0.1
 74
0
  0
LTYPE
  5
1F7
100
AcDbSymbolTableRecord
100
AcDbLinetypeTableRecord
  2
PHANTOM
 70
64
  3
_____ _ _ _____ _ _ _____ _ _ _____
 72
65
 73
6
 40
0.8
 49
0.45
 74
0
 49
-0.05
 74
0
 49
0.1
 74
0
 49
-0.05
 74
0
 49
0.1
 74
0
 49
-0.05
 74
0
  0
LTYPE
  5
1F8
100
AcDbSymbolTableRecord
100
AcDbLinetypeTableRecord
  2
DOT
 70
64
  3
. . . . . . . . . . . . . . . . . . . .
 72
65
 73
2
 40
0.2
 49
0.1
 74
0
 49
-0.1
 74
0
  0
LTYPE
  5
1F9
100
AcDbSymbolTableRecord
100
AcDbLinetypeTableRecord
  2
DASHED
 70
64
  3
- - - - - - - - - - - - - - - - - - - -
 72
65
 73
2
 40
0.2
 49
0.1
 74
0
 49
-0.1
 74
0
  0
ENDTAB
  0
TABLE
  2
LAYER
  5
2
100
AcDbSymbolTable
 70
36
  0
LAYER
  5
10
100
AcDbSymbolTableRecord
100
AcDbLayerTableRecord
  2
0
 70
0
 62
7
  6
CONTINUOUS
370
-3
390
F
  0
LAYER
  5
1FA
100
AcDbSymbolTableRecord
100
AcDbLayerTableRecord
  2
DEFAULT_1
 70
0
 62
7
  6
CENTER
370
-3
390
F
  0
LAYER
  5
1FB
100
AcDbSymbolTableRecord
100
AcDbLayerTableRecord
  2
DEFAULT_2
 70
0
 62
7
  6
HIDDEN
370
-3
390
F
  0
LAYER
  5
1FC
100
AcDbSymbolTableRecord
100
AcDbLayerTableRecord
  2
DEFAULT_3
 70
0
 62
7
  6
PHANTOM
370
-3
390
F
  0
LAYER
  5
1FD
100
AcDbSymbolTableRecord
100
AcDbLayerTableRecord
  2
00_COMPONENTS
 70
0
 62
7
  6
CONTINUOUS
370
-3
390
F
  0
LAYER
  5
1FE
100
AcDbSymbolTableRecord
100
AcDbLayerTableRecord
  2
01_1_DEFAULT_DATUMS
 70
0
 62
7
  6
CONTINUOUS
370
-3
390
F
  0
LAYER
  5
1FF
100
AcDbSymbolTableRecord
100
AcDbLayerTableRecord
  2
01_PLANES
 70
0
 62
7
  6
CONTINUOUS
370
-3
390
F
  0
LAYER
  5
200
100
AcDbSymbolTableRecord
100
AcDbLayerTableRecord
  2
02_COORD_SYS
 70
0
 62
7
  6
CONTINUOUS
370
-3
390
F
  0
LAYER
  5
201
100
AcDbSymbolTableRecord
100
AcDbLayerTableRecord
  2
03_AXES
 70
0
 62
7
  6
CONTINUOUS
370
-3
390
F
  0
LAYER
  5
202
100
AcDbSymbolTableRecord
100
AcDbLayerTableRecord
  2
04_POINTS
 70
0
 62
7
  6
CONTINUOUS
370
-3
390
F
  0
LAYER
  5
203
100
AcDbSymbolTableRecord
100
AcDbLayerTableRecord
  2
05_CURVES
 70
0
 62
7
  6
CONTINUOUS
370
-3
390
F
  0
LAYER
  5
204
100
AcDbSymbolTableRecord
100
AcDbLayerTableRecord
  2
06_SURFS
 70
0
 62
7
  6
CONTINUOUS
370
-3
390
F
  0
LAYER
  5
205
100
AcDbSymbolTableRecord
100
AcDbLayerTableRecord
  2
07_COSMETICS
 70
0
 62
7
  6
CONTINUOUS
370
-3
390
F
  0
LAYER
  5
206
100
AcDbSymbolTableRecord
100
AcDbLayerTableRecord
  2
10_NOTES
 70
0
 62
7
  6
CONTINUOUS
370
-3
390
F
  0
LAYER
  5
207
100
AcDbSymbolTableRecord
100
AcDbLayerTableRecord
  2
11_NOTES_PUB
 70
0
 62
7
  6
CONTINUOUS
370
-3
390
F
  0
LAYER
  5
208
100
AcDbSymbolTableRecord
100
AcDbLayerTableRecord
  2
13_REF_GTOL
 70
0
 62
7
  6
CONTINUOUS
370
-3
390
F
  0
LAYER
  5
209
100
AcDbSymbolTableRecord
100
AcDbLayerTableRecord
  2
16_MISC
 70
0
 62
7
  6
CONTINUOUS
370
-3
390
F
  0
LAYER
  5
20A
100
AcDbSymbolTableRecord
100
AcDbLayerTableRecord
  2
17_NO_PRINT
 70
0
 62
7
  6
CONTINUOUS
370
-3
390
F
  0
LAYER
  5
20B
100
AcDbSymbolTableRecord
100
AcDbLayerTableRecord
  2
18_DATUM_CAMS_JOINTS
 70
0
 62
7
  6
CONTINUOUS
370
-3
390
F
  0
LAYER
  5
20C
100
AcDbSymbolTableRecord
100
AcDbLayerTableRecord
  2
19_DATUM_FUNCTIONAL
 70
0
 62
7
  6
CONTINUOUS
370
-3
390
F
  0
LAYER
  5
20D
100
AcDbSymbolTableRecord
100
AcDbLayerTableRecord
  2
20_DATUM_KINEMATIC_SCHEME
 70
0
 62
7
  6
CONTINUOUS
370
-3
390
F
  0
ENDTAB
  0
TABLE
  2
STYLE
  5
3
100
AcDbSymbolTable
 70
1
  0
STYLE
  5
11
100
AcDbSymbolTableRecord
100
AcDbTextStyleTableRecord
  2
STANDARD
 70
0
 40
0.0
 41
1.0
 50
0.0
 71
0
 42
0.2
  3
ARIAL.TTF
  4

  0
STYLE
  5
20E
100
AcDbSymbolTableRecord
100
AcDbTextStyleTableRecord
  2
TEXTSTYLE_1
 70
0
 40
0.0
 41
0.8
 50
0.0
 71
0
 42
0.2
  3
gdt
  4

  0
ENDTAB
  0
TABLE
  2
VIEW
  5
6
100
AcDbSymbolTable
 70
0
  0
ENDTAB
  0
TABLE
  2
UCS
  5
7
100
AcDbSymbolTable
 70
0
  0
ENDTAB
  0
TABLE
  2
APPID
  5
9
100
AcDbSymbolTable
 70
1
  0
APPID
  5
20F
100
AcDbSymbolTableRecord
100
AcDbRegAppTableRecord
  2
ACAD
 70
0
  0
ENDTAB
  0
TABLE
  2
BLOCK_RECORD
  5
1
100
AcDbSymbolTable
 70
0
  0
BLOCK_RECORD
  5
210
100
AcDbSymbolTableRecord
100
AcDbBlockTableRecord
  2
*Model_Space
  0
BLOCK_RECORD
  5
211
100
AcDbSymbolTableRecord
100
AcDbBlockTableRecord
  2
*Paper_Space
  0
BLOCK_RECORD
  5
212
100
AcDbSymbolTableRecord
100
AcDbBlockTableRecord
  2
_FILLED
  0
ENDTAB
  0
TABLE
  2
DIMSTYLE
  5
A
100
AcDbSymbolTable
 70
1
100
AcDbDimStyleTable
 71
0
  0
DIMSTYLE
105
213
100
AcDbSymbolTableRecord
100
AcDbDimStyleTableRecord
  2
STANDARD
 70
0
  3

  4

 40
1.0
 41
1.0212093975
 42
1.0
 43
0.38
 44
1.0
 45
0.0
 46
0.0
 47
0.01
 48
0.01
140
1.4296931564
141
0.09
142
0.0
143
25.4
144
1.0
145
0.0
146
1.0
147
0.625
 71
1
 72
0
 73
0
 74
0
 75
0
 76
0
 77
1
 78
8
 79
2
170
0
171
1
172
0
173
0
174
0
175
0
176
0
177
0
178
0
270
2
179
2
271
2
272
2
273
2
274
2
275
0
280
0
281
0
282
0
283
1
284
8
285
0
286
0
287
3
288
0
340
11
278
46
341
212
342
212
343
212
344
212
  0
ENDTAB
  0
ENDSEC
  0
SECTION
  2
BLOCKS
  0
BLOCK
  5
20
100
AcDbEntity
  8
0
100
AcDbBlockBegin
  2
*Model_Space
 70
0
 10
0.0
 20
0.0
 30
0.0
  3
*Model_Space
  1

  0
ENDBLK
  5
21
100
AcDbEntity
  8
0
100
AcDbBlockEnd
  0
BLOCK
  5
1C
100
AcDbEntity
  8
0
100
AcDbBlockBegin
  2
*Paper_Space
 70
0
 10
0.0
 20
0.0
 30
0.0
  3
*Paper_Space
  1

  0
ENDBLK
  5
1D
100
AcDbEntity
  8
0
100
AcDbBlockEnd
  0
BLOCK
  5
214
100
AcDbEntity
  8
0
100
AcDbBlockBegin
  2
_FILLED
 70
64
 10
0.0
 20
0.0
  3
_FILLED
  1

  0
SOLID
  5
215
100
AcDbEntity
  8
0
  6
BYBLOCK
 62
0
100
AcDbTrace
 10
0.0
 20
0.0
 11
-1.0
 21
0.25
 12
-1.0
 22
-0.25
 13
-1.0
 23
-0.25
  0
ENDBLK
  5
216
100
AcDbEntity
  8
0
  6
BYBLOCK
 62
0
100
AcDbBlockEnd
  0
ENDSEC
  0
SECTION
  2
ENTITIES
  0
LINE
  5
217
100
AcDbEntity
  8
0
100
AcDbLine
 62
7
  6
BYLAYER
 10
9.9516513094
 20
56.3373202542
 11
9.9516513094
 21
76.7498806825
  0
LWPOLYLINE
  5
218
100
AcDbEntity
  8
0
100
AcDbPolyline
 62
7
  6
BYLAYER
 90
3
 70
0
 10
20.8159338517
 20
84.4729810143
 10
15.9661354581
 20
81.67296532
 10
9.9516513094
 20
76.7498806825
  0
LINE
  5
219
100
AcDbEntity
  8
0
100
AcDbLine
 62
7
  6
BYLAYER
 10
31.871870263
 20
89.4054494525
 11
26.3298632754
 21
87.1486022474
  0
LINE
  5
21A
100
AcDbEntity
  8
0
100
AcDbLine
 62
7
  6
BYLAYER
 10
17.729858286
 20
72.2592323828
 11
17.729858286
 21
70.8816429709
  0
LINE
  5
21B
100
AcDbEntity
  8
0
100
AcDbLine
 62
7
  6
BYLAYER
 10
18.8611949859
 20
74.1162020985
 11
18.8611949859
 21
76.9948475709
  0
LINE
  5
21C
100
AcDbEntity
  8
0
100
AcDbLine
 62
7
  6
BYLAYER
 10
19.0104981058
 20
76.9086493245
 11
19.0104981058
 21
74.1162024574
  0
LINE
  5
21D
100
AcDbEntity
  8
0
100
AcDbLine
 62
7
  6
BYLAYER
 10
19.9572536258
 20
68.8686469691
 11
19.9572536258
 21
71.0140982514
  0
LINE
  5
21E
100
AcDbEntity
  8
0
100
AcDbLine
 62
7
  6
BYLAYER
 10
19.895994963
 20
74.6420757922
 11
19.8671013496
 21
71.0661465149
  0
LINE
  5
21F
100
AcDbEntity
  8
0
100
AcDbLine
 62
7
  6
BYLAYER
 10
20.8210208574
 20
81.5976167523
 11
20.8163426274
 21
81.6896463331
  0
LINE
  5
220
100
AcDbEntity
  8
0
100
AcDbLine
 62
7
  6
BYLAYER
 10
20.8163626388
 20
86.0881177547
 11
20.8210208574
 21
85.9947297442
  0
LINE
  5
221
100
AcDbEntity
  8
0
100
AcDbLine
 62
7
  6
BYLAYER
 10
20.8159338517
 20
81.6896465021
 11
20.8159338517
 21
86.0881143273
  0
LINE
  5
222
100
AcDbEntity
  8
0
100
AcDbLine
 62
7
  6
BYLAYER
 10
20.8210208574
 20
81.5976167523
 11
20.8210208574
 21
85.9947297442
  0
LINE
  5
223
100
AcDbEntity
  8
0
100
AcDbLine
 62
7
  6
BYLAYER
 10
21.2654069117
 20
50.050418907
 11
21.2654069117
 21
49.8054681819
  0
LINE
  5
224
100
AcDbEntity
  8
0
100
AcDbLine
 62
7
  6
BYLAYER
 10
21.3538848712
 20
70.1656526718
 11
21.3538848712
 21
67.632889522
  0
LINE
  5
225
100
AcDbEntity
  8
0
100
AcDbLine
 62
7
  6
BYLAYER
 10
17.729858286
 20
72.2592323828
 11
19.8868036236
 21
73.5045379206
  0
LINE
  5
226
100
AcDbEntity
  8
0
100
AcDbLine
 62
7
  6
BYLAYER
 10
19.8756204917
 20
72.120491963
 11
17.729858286
 21
70.8816429709
  0
LINE
  5
227
100
AcDbEntity
  8
0
100
AcDbLine
 62
7
  6
BYLAYER
 10
9.9516513094
 20
56.3373202542
 11
21.2654069117
 21
49.8054681819
  0
LINE
  5
228
100
AcDbEntity
  8
0
100
AcDbLine
 62
7
  6
BYLAYER
 10
50.0447727252
 20
33.4350201981
 11
21.2654069117
 21
50.050418907
  0
LINE
  5
229
100
AcDbEntity
  8
0
100
AcDbLine
 62
7
  6
BYLAYER
 10
52.378215388
 20
34.7822259058
 11
56.8330066565
 21
32.2103091524
  0
LINE
  5
22A
100
AcDbEntity
  8
0
100
AcDbLine
 62
7
  6
BYLAYER
 10
50.0447727252
 20
43.288083143
 11
50.7198952647
 21
43.2618276969
  0
LINE
  5
22B
100
AcDbEntity
  8
0
100
AcDbLine
 62
7
  6
BYLAYER
 10
59.6511963693
 20
37.4180105113
 11
61.0654158196
 21
36.6015290023
  0
LINE
  5
22C
100
AcDbEntity
  8
0
100
AcDbLine
 62
7
  6
BYLAYER
 10
51.3175702305
 20
43.0697675375
 11
51.4943476618
 21
42.9677073489
  0
LINE
  5
22D
100
AcDbEntity
  8
0
100
AcDbLine
 62
7
  6
BYLAYER
 10
20.8210208574
 20
85.9947297442
 11
21.9567429467
 21
82.7574451467
  0
LINE
  5
22E
100
AcDbEntity
  8
0
100
AcDbLine
 62
7
  6
BYLAYER
 10
34.4174794046
 20
85.393184117
 11
34.4174794046
 21
85.9762189561
  0
LINE
  5
22F
100
AcDbEntity
  8
0
100
AcDbLine
 62
7
  6
BYLAYER
 10
21.3967500729
 20
49.9712542146
 11
21.3774437767
 21
49.9470813976
  0
LINE
  5
230
100
AcDbEntity
  8
0
100
AcDbLine
 62
7
  6
BYLAYER
 10
21.4074833971
 20
49.9683928657
 11
21.3867431048
 21
49.9446091583
  0
LINE
  5
231
100
AcDbEntity
  8
0
100
AcDbLine
 62
7
  6
BYLAYER
 10
51.452880849
 20
45.1333077916
 11
51.1219362971
 21
45.3396585384
  0
LWPOLYLINE
  5
232
100
AcDbEntity
  8
0
100
AcDbPolyline
 62
7
  6
BYLAYER
 90
3
 70
0
 10
51.4538027488
 20
45.1601955545
 10
38.1115684926
 20
54.1664174737
 10
31.2501679848
 20
59.3908541732
  0
LWPOLYLINE
  5
233
100
AcDbEntity
  8
0
100
AcDbPolyline
 62
7
  6
BYLAYER
 90
3
 70
0
 10
20.7203972046
 20
68.4674599272
 10
32.466765297
 20
58.6535876673
 10
38.7076856105
 20
53.9397980529
  0
LINE
  5
234
100
AcDbEntity
  8
0
100
AcDbLine
 62
7
  6
BYLAYER
 10
31.2501679848
 20
59.3908541732
 11
19.8860212523
 21
69.0491395881
  0
LINE
  5
235
100
AcDbEntity
  8
0
100
AcDbLine
 62
7
  6
BYLAYER
 10
20.0743387204
 20
68.7720807944
 11
19.8620369993
 21
68.9610453871
  0
LINE
  5
236
100
AcDbEntity
  8
0
100
AcDbLine
 62
7
  6
BYLAYER
 10
38.7076856105
 20
53.9397980529
 11
51.2994957868
 21
45.4196416755
  0
LINE
  5
237
100
AcDbEntity
  8
0
100
AcDbLine
 62
7
  6
BYLAYER
 10
69.247977733
 20
39.6699290993
 11
65.7124291072
 21
41.7111328719
  0
LINE
  5
238
100
AcDbEntity
  8
0
100
AcDbLine
 62
7
  6
BYLAYER
 10
70.7043477789
 20
39.5796635882
 11
69.9972380538
 21
39.9879043427
  0
LINE
  5
239
100
AcDbEntity
  8
0
100
AcDbLine
 62
7
  6
BYLAYER
 10
17.729858286
 20
72.2592323828
 11
9.9516513094
 21
76.7498806825
  0
LINE
  5
23A
100
AcDbEntity
  8
0
100
AcDbLine
 62
7
  6
BYLAYER
 10
19.9572536258
 20
71.0140982514
 11
19.8671013496
 21
71.0661465149
  0
LINE
  5
23B
100
AcDbEntity
  8
0
100
AcDbLine
 62
7
  6
BYLAYER
 10
15.8913588696
 20
75.2802221246
 11
17.3055783199
 21
74.4637406156
  0
LINE
  5
23C
100
AcDbEntity
  8
0
100
AcDbLine
 62
7
  6
BYLAYER
 10
19.895994963
 20
74.6420757922
 11
51.9472540075
 21
56.1376913801
  0
LINE
  5
23D
100
AcDbEntity
  8
0
100
AcDbLine
 62
7
  6
BYLAYER
 10
21.9567429467
 20
82.7574451467
 11
24.5701929608
 21
79.8308313623
  0
LINE
  5
23E
100
AcDbEntity
  8
0
100
AcDbLine
 62
7
  6
BYLAYER
 10
19.0104981058
 20
76.9086493245
 11
18.8611949859
 21
76.9948475709
  0
LINE
  5
23F
100
AcDbEntity
  8
0
100
AcDbLine
 62
7
  6
BYLAYER
 10
76.0542570053
 20
48.8461878162
 11
75.3471472802
 21
49.2544285708
  0
LINE
  5
240
100
AcDbEntity
  8
0
100
AcDbLine
 62
7
  6
BYLAYER
 10
51.2994957914
 20
45.4196416725
 11
51.2654306435
 21
47.6737051178
  0
LINE
  5
241
100
AcDbEntity
  8
0
100
AcDbLine
 62
7
  6
BYLAYER
 10
50.0447727252
 20
33.4350201981
 11
50.0447727252
 21
43.288083143
  0
LINE
  5
242
100
AcDbEntity
  8
0
100
AcDbLine
 62
7
  6
BYLAYER
 10
51.0700777051
 20
45.5748757446
 11
51.0700777051
 21
45.3039714982
  0
LINE
  5
243
100
AcDbEntity
  8
0
100
AcDbLine
 62
7
  6
BYLAYER
 10
51.4236363949
 20
47.5669799151
 11
51.4236363949
 21
45.1155057208
  0
LINE
  5
244
100
AcDbEntity
  8
0
100
AcDbLine
 62
7
  6
BYLAYER
 10
51.9539689831
 20
42.6137015841
 11
51.9539689831
 21
44.8225753317
  0
LINE
  5
245
100
AcDbEntity
  8
0
100
AcDbLine
 62
7
  6
BYLAYER
 10
52.378215388
 20
34.7822259058
 11
52.378215388
 21
42.8586388981
  0
LINE
  5
246
100
AcDbEntity
  8
0
100
AcDbLine
 62
7
  6
BYLAYER
 10
75.2478759308
 20
50.0622927196
 11
71.7123273051
 21
52.1034964922
  0
LINE
  5
247
100
AcDbEntity
  8
0
100
AcDbLine
 62
7
  6
BYLAYER
 10
54.605630158
 20
44.1925060969
 11
54.605630158
 21
43.1736597112
  0
LINE
  5
248
100
AcDbEntity
  8
0
100
AcDbLine
 62
7
  6
BYLAYER
 10
71.5509944617
 20
58.0295316915
 11
72.965213912
 21
57.2130501824
  0
LINE
  5
249
100
AcDbEntity
  8
0
100
AcDbLine
 62
7
  6
BYLAYER
 10
68.550238941
 20
60.3376395037
 11
68.9483900933
 21
60.107772029
  0
LINE
  5
24A
100
AcDbEntity
  8
0
100
AcDbLine
 62
7
  6
BYLAYER
 10
56.8330066565
 20
32.2103091524
 11
56.8330066565
 21
44.4596284559
  0
LINE
  5
24B
100
AcDbEntity
  8
0
100
AcDbLine
 62
7
  6
BYLAYER
 10
57.1512033832
 20
44.3966045534
 11
57.1512033832
 21
44.6433383252
  0
LINE
  5
24C
100
AcDbEntity
  8
0
100
AcDbLine
 62
7
  6
BYLAYER
 10
51.4236363949
 20
45.4913139716
 11
51.2995071768
 21
45.4196483619
  0
LINE
  5
24D
100
AcDbEntity
  8
0
100
AcDbLine
 62
7
  6
BYLAYER
 10
35.0576435808
 20
85.6066283578
 11
34.4174794046
 21
85.9762189561
  0
LINE
  5
24E
100
AcDbEntity
  8
0
100
AcDbLine
 62
7
  6
BYLAYER
 10
64.4697516502
 20
44.9477039895
 11
64.469755183
 21
44.4578089651
  0
LINE
  5
24F
100
AcDbEntity
  8
0
100
AcDbLine
 62
7
  6
BYLAYER
 10
54.605630158
 20
44.1925060969
 11
57.3145802863
 21
45.7565098468
  0
LINE
  5
250
100
AcDbEntity
  8
0
100
AcDbLine
 62
7
  6
BYLAYER
 10
74.4265368353
 20
55.6360435939
 11
76.4551387279
 21
56.8072504515
  0
LINE
  5
251
100
AcDbEntity
  8
0
100
AcDbLine
 62
7
  6
BYLAYER
 10
53.7820331559
 20
43.6691286263
 11
51.9539689831
 21
42.6137015841
  0
LINE
  5
252
100
AcDbEntity
  8
0
100
AcDbLine
 62
7
  6
BYLAYER
 10
68.288112371
 20
51.5613721873
 11
68.7123782061
 21
51.8063291848
  0
LINE
  5
253
100
AcDbEntity
  8
0
100
AcDbLine
 62
7
  6
BYLAYER
 10
76.4551387279
 20
55.7884040658
 11
74.8443964998
 21
54.8584471579
  0
LINE
  5
254
100
AcDbEntity
  8
0
100
AcDbLine
 62
7
  6
BYLAYER
 10
57.2295060049
 20
44.688546095
 11
54.605630158
 21
43.1736597112
  0
LINE
  5
255
100
AcDbEntity
  8
0
100
AcDbLine
 62
7
  6
BYLAYER
 10
37.2796359786
 20
86.2833450923
 11
31.871870263
 21
89.4054494525
  0
LINE
  5
256
100
AcDbEntity
  8
0
100
AcDbLine
 62
7
  6
BYLAYER
 10
73.7967625774
 20
68.7524357347
 11
41.7455035329
 21
87.2568201468
  0
LINE
  5
257
100
AcDbEntity
  8
0
100
AcDbLine
 62
7
  6
BYLAYER
 10
52.378215388
 20
34.7822259058
 11
50.0447727252
 21
33.4350201981
  0
LINE
  5
258
100
AcDbEntity
  8
0
100
AcDbLine
 62
7
  6
BYLAYER
 10
75.2360893969
 20
50.0636347253
 11
75.2366730223
 21
50.0687605755
  0
LINE
  5
259
100
AcDbEntity
  8
0
100
AcDbLine
 62
7
  6
BYLAYER
 10
63.3329396692
 20
36.0447061086
 11
69.4921017324
 21
39.6006787575
  0
LINE
  5
25A
100
AcDbEntity
  8
0
100
AcDbLine
 62
7
  6
BYLAYER
 10
69.5869679438
 20
39.5737681809
 11
56.8330066565
 21
32.2103091524
  0
LINE
  5
25B
100
AcDbEntity
  8
0
100
AcDbLine
 62
7
  6
BYLAYER
 10
76.4551387279
 20
56.8072504515
 11
76.4551387279
 21
55.7884040658
  0
LINE
  5
25C
100
AcDbEntity
  8
0
100
AcDbLine
 62
7
  6
BYLAYER
 10
75.3142566279
 20
50.0936465019
 11
75.3149537676
 21
50.0988626389
  0
ARC
  5
25D
100
AcDbEntity
  8
0
100
AcDbCircle
 62
7
  6
BYLAYER
 10
196.9712547883
 20
267.7251945732
 40
266.2233311104
100
AcDbArc
 50
227.6796970914
 51
228.2972970943
  0
ARC
  5
25E
100
AcDbEntity
  8
0
100
AcDbCircle
 62
7
  6
BYLAYER
 10
195.6156089043
 20
266.0431483984
 40
263.8865416002
100
AcDbArc
 50
228.3250805975
 51
228.4869434825
  0
ARC
  5
25F
100
AcDbEntity
  8
0
100
AcDbCircle
 62
7
  6
BYLAYER
 10
156.6061559954
 20
214.1444129349
 40
199.0526687482
100
AcDbArc
 50
238.1114542503
 51
238.2811699985
  0
ARC
  5
260
100
AcDbEntity
  8
0
100
AcDbCircle
 62
7
  6
BYLAYER
 10
155.7397291115
 20
212.4744155912
 40
197.2076365476
100
AcDbArc
 50
238.0643961614
 51
239.1474447291
  0
ARC
  5
261
100
AcDbEntity
  8
0
100
AcDbCircle
 62
7
  6
BYLAYER
 10
39.2495796672
 20
35.692470016
 40
22.8606033807
100
AcDbArc
 50
141.4245375632
 51
141.8771104966
  0
ARC
  5
262
100
AcDbEntity
  8
0
100
AcDbCircle
 62
7
  6
BYLAYER
 10
71.1411900975
 20
42.6854760762
 40
13.962403178
100
AcDbArc
 50
171.9192454199
 51
173.0974087638
  0
ARC
  5
263
100
AcDbEntity
  8
0
100
AcDbCircle
 62
7
  6
BYLAYER
 10
70.8829566252
 20
42.7171116621
 40
13.7022393911
100
AcDbArc
 50
173.0989615231
 51
173.3677288381
  0
ARC
  5
264
100
AcDbEntity
  8
0
100
AcDbCircle
 62
7
  6
BYLAYER
 10
69.2883415405
 20
49.6837449968
 40
10.6403692959
100
AcDbArc
 50
119.733509706
 51
120.0000306671
  0
ARC
  5
265
100
AcDbEntity
  8
0
100
AcDbCircle
 62
7
  6
BYLAYER
 10
70.004054331
 20
49.1170495735
 40
10.1160456161
100
AcDbArc
 50
119.7356760299
 51
120.0000277705
  0
ARC
  5
266
100
AcDbEntity
  8
0
100
AcDbCircle
 62
7
  6
BYLAYER
 10
70.2347627511
 20
48.9638658618
 40
10.0476867538
100
AcDbArc
 50
119.7356762658
 51
120.0000284756
  0
ARC
  5
267
100
AcDbEntity
  8
0
100
AcDbCircle
 62
7
  6
BYLAYER
 10
67.4029332018
 20
53.8044759998
 40
6.7152545643
100
AcDbArc
 50
83.0884542484
 51
84.0509592932
  0
ARC
  5
268
100
AcDbEntity
  8
0
100
AcDbCircle
 62
7
  6
BYLAYER
 10
67.5206839218
 20
54.0411008885
 40
6.4505995196
100
AcDbArc
 50
52.4026832255
 51
60.0100697687
  0
ARC
  5
269
100
AcDbEntity
  8
0
100
AcDbCircle
 62
7
  6
BYLAYER
 10
70.4673827862
 20
44.455108053
 40
5.9976199005
100
AcDbArc
 50
175.3816385076
 51
179.9741521027
  0
ARC
  5
26A
100
AcDbEntity
  8
0
100
AcDbCircle
 62
7
  6
BYLAYER
 10
67.9291126508
 20
54.4473700237
 40
5.8701264921
100
AcDbArc
 50
28.3181939215
 51
28.7640401836
  0
ARC
  5
26B
100
AcDbEntity
  8
0
100
AcDbCircle
 62
7
  6
BYLAYER
 10
68.4422149915
 20
45.4987845342
 40
5.5634570479
100
AcDbArc
 50
179.4280241686
 51
179.9991765004
  0
ARC
  5
26C
100
AcDbEntity
  8
0
100
AcDbCircle
 62
7
  6
BYLAYER
 10
68.6738127445
 20
45.4987927645
 40
5.0879485458
100
AcDbArc
 50
179.4280241686
 51
179.9991765004
  0
ARC
  5
26D
100
AcDbEntity
  8
0
100
AcDbCircle
 62
7
  6
BYLAYER
 10
64.7900589614
 20
57.5204745867
 40
4.8499040819
100
AcDbArc
 50
33.6464348842
 51
34.7429500042
  0
ARC
  5
26E
100
AcDbEntity
  8
0
100
AcDbCircle
 62
7
  6
BYLAYER
 10
65.4045126547
 20
57.1900661961
 40
4.820276681
100
AcDbArc
 50
33.4019411822
 51
37.8360851891
  0
ARC
  5
26F
100
AcDbEntity
  8
0
100
AcDbCircle
 62
7
  6
BYLAYER
 10
70.3102295605
 20
42.5285004338
 40
3.1416477128
100
AcDbArc
 50
277.1755358493
 51
280.726543271
  0
ARC
  5
270
100
AcDbEntity
  8
0
100
AcDbCircle
 62
7
  6
BYLAYER
 10
70.8812005306
 20
41.520799775
 40
1.8195123023
100
AcDbArc
 50
242.3810247295
 51
250.6390558206
  0
ARC
  5
271
100
AcDbEntity
  8
0
100
AcDbCircle
 62
7
  6
BYLAYER
 10
70.8739753667
 20
41.5065105935
 40
1.8035018753
100
AcDbArc
 50
240.0550716655
 51
242.3739574391
  0
SPLINE
  5
272
100
AcDbEntity
  8
0
100
AcDbSpline
 62
7
  6
BYLAYER
 70
0
 71
3
 72
15
 73
11
 74
0
 42
0.0000001
 43
0.0000001
 44
0.0000000001
 40
0.0
 40
0.0
 40
0.0
 40
0.0
 40
0.1485846148
 40
0.2895069336
 40
0.4227213388
 40
0.5486404612
 40
0.6679997927
 40
0.7819375988
 40
0.8919870289
 40
1.0
 40
1.0
 40
1.0
 40
1.0
 10
65.6010952418
 20
57.4401497649
 30
0.0
 10
65.8694786551
 20
57.5951000876
 30
0.0
 10
66.4052611112
 20
57.8755751079
 30
0.0
 10
67.2225078793
 20
58.2100808313
 30
0.0
 10
68.0252087628
 20
58.4440847571
 30
0.0
 10
68.8057509166
 20
58.5750246394
 30
0.0
 10
69.5568985242
 20
58.6011551119
 30
0.0
 10
70.271403147
 20
58.5214760423
 30
0.0
 10
70.9416540679
 20
58.3361383591
 30
0.0
 10
71.3558841729
 20
58.1421547339
 30
0.0
 10
71.5509851983
 20
58.0295156465
 30
0.0
  0
SPLINE
  5
273
100
AcDbEntity
  8
0
100
AcDbSpline
 62
7
  6
BYLAYER
 70
0
 71
3
 72
9
 73
5
 74
0
 42
0.0000001
 43
0.0000001
 44
0.0000000001
 40
0.0
 40
0.0
 40
0.0
 40
0.0
 40
0.2436854315
 40
1.0
 40
1.0
 40
1.0
 40
1.0
 10
57.1865597526
 20
42.8656656703
 30
0.0
 10
57.1865597526
 20
42.9823937005
 30
0.0
 10
57.1940638078
 20
43.4613894394
 30
0.0
 10
57.2305730561
 20
43.939815466
 30
0.0
 10
57.2724143869
 20
44.2996742387
 30
0.0
  0
SPLINE
  5
274
100
AcDbEntity
  8
0
100
AcDbSpline
 62
7
  6
BYLAYER
 70
0
 71
3
 72
17
 73
13
 74
0
 42
0.0000001
 43
0.0000001
 44
0.0000000001
 40
0.0
 40
0.0
 40
0.0
 40
0.0
 40
0.1205277893
 40
0.247275735
 40
0.3779109763
 40
0.5098577384
 40
0.6404575089
 40
0.7671367699
 40
0.8282890857
 40
0.8876222532
 40
0.9449308461
 40
1.0
 40
1.0
 40
1.0
 40
1.0
 10
57.3174205978
 20
44.6481526475
 30
0.0
 10
57.4060172695
 20
45.2725671904
 30
0.0
 10
57.6724228084
 20
46.5425563066
 30
0.0
 10
58.2950324779
 20
48.4231775048
 30
0.0
 10
59.1346061629
 20
50.2832619248
 30
0.0
 10
60.1661833699
 20
52.0672688657
 30
0.0
 10
61.3590445214
 20
53.7222160463
 30
0.0
 10
62.471277872
 20
54.9677633207
 30
0.0
 10
63.4129168981
 20
55.8552343407
 30
0.0
 10
64.1276160099
 20
56.4517815472
 30
0.0
 10
64.8534749783
 20
56.9823617653
 30
0.0
 10
65.3515473563
 20
57.2960740752
 30
0.0
 10
65.6010951293
 20
57.4401497
 30
0.0
  0
SPLINE
  5
275
100
AcDbEntity
  8
0
100
AcDbSpline
 62
7
  6
BYLAYER
 70
0
 71
3
 72
15
 73
11
 74
0
 42
0.0000001
 43
0.0000001
 44
0.0000000001
 40
0.0
 40
0.0
 40
0.0
 40
0.0
 40
0.148590789
 40
0.2895066448
 40
0.4227217518
 40
0.5486428724
 40
0.6680008712
 40
0.7819379286
 40
0.8919872848
 40
1.0
 40
1.0
 40
1.0
 40
1.0
 10
75.4298505286
 20
51.7653950234
 30
0.0
 10
75.4298505286
 20
52.075322361
 30
0.0
 10
75.4048668351
 20
52.6795853425
 30
0.0
 10
75.2859188549
 20
53.5546299056
 30
0.0
 10
75.0872101821
 20
54.3668138007
 30
0.0
 10
74.8103437245
 20
55.1082928025
 30
0.0
 10
74.4573761613
 20
55.7718945953
 30
0.0
 10
74.0310882966
 20
56.3508392605
 30
0.0
 10
73.5354483161
 20
56.8386546763
 30
0.0
 10
73.1603144609
 20
57.1003932577
 30
0.0
 10
72.9652097645
 20
57.2130430119
 30
0.0
  0
SPLINE
  5
276
100
AcDbEntity
  8
0
100
AcDbSpline
 62
7
  6
BYLAYER
 70
0
 71
3
 72
9
 73
5
 74
0
 42
0.0000001
 43
0.0000001
 44
0.0000000001
 40
0.0
 40
0.0
 40
0.0
 40
0.0
 40
0.2570919744
 40
1.0
 40
1.0
 40
1.0
 40
1.0
 10
75.3149537676
 20
50.0988626389
 30
0.0
 10
75.333899148
 20
50.2408181255
 30
0.0
 10
75.3991246211
 20
50.7940457331
 30
0.0
 10
75.4298505286
 20
51.3515550801
 30
0.0
 10
75.4298505286
 20
51.7653950234
 30
0.0
  0
SPLINE
  5
277
100
AcDbEntity
  8
0
100
AcDbSpline
 62
7
  6
BYLAYER
 70
0
 71
3
 72
11
 73
7
 74
0
 42
0.0000001
 43
0.0000001
 44
0.0000000001
 40
0.0
 40
0.0
 40
0.0
 40
0.0
 40
0.2501363554
 40
0.500123251
 40
0.7499688135
 40
1.0
 40
1.0
 40
1.0
 40
1.0
 10
70.8989002561
 20
58.292954987
 30
0.0
 10
70.7719315314
 20
58.477339031
 30
0.0
 10
70.4986736275
 20
58.8331135422
 30
0.0
 10
70.0334594486
 20
59.318797291
 30
0.0
 10
69.5171686872
 20
59.7497348645
 30
0.0
 10
69.142188243
 20
59.9958851464
 30
0.0
 10
68.9483900933
 20
60.107772029
 30
0.0
  0
SPLINE
  5
278
100
AcDbEntity
  8
0
100
AcDbSpline
 62
7
  6
BYLAYER
 70
0
 71
3
 72
15
 73
11
 74
0
 42
0.0000001
 43
0.0000001
 44
0.0000000001
 40
0.0
 40
0.0
 40
0.0
 40
0.0
 40
0.1485639924
 40
0.2895081129
 40
0.4227265882
 40
0.5486369839
 40
0.667999462
 40
0.7819375093
 40
0.8919865797
 40
1.0
 40
1.0
 40
1.0
 40
1.0
 10
68.7123782061
 20
51.8063291848
 30
0.0
 10
68.8476787603
 20
51.8844445299
 30
0.0
 10
69.1178297135
 20
52.0258455861
 30
0.0
 10
69.5298804046
 20
52.1945319163
 30
0.0
 10
69.9346229444
 20
52.3125227833
 30
0.0
 10
70.3281739528
 20
52.3785172438
 30
0.0
 10
70.7068979754
 20
52.3917278546
 30
0.0
 10
71.0671519573
 20
52.351521599
 30
0.0
 10
71.4050998441
 20
52.2580967943
 30
0.0
 10
71.6139495351
 20
52.160277195
 30
0.0
 10
71.712323825
 20
52.1034904641
 30
0.0
  0
SPLINE
  5
279
100
AcDbEntity
  8
0
100
AcDbSpline
 62
7
  6
BYLAYER
 70
0
 71
3
 72
15
 73
11
 74
0
 42
0.0000001
 43
0.0000001
 44
0.0000000001
 40
0.0
 40
0.0
 40
0.0
 40
0.0
 40
0.1485544263
 40
0.2895084068
 40
0.4227320823
 40
0.5486401229
 40
0.6680011277
 40
0.781939148
 40
0.8919870293
 40
1.0
 40
1.0
 40
1.0
 40
1.0
 10
77.1623079212
 20
46.3970319254
 30
0.0
 10
77.1623079212
 20
46.5363346554
 30
0.0
 10
77.1510485069
 20
46.8079982215
 30
0.0
 10
77.0976148229
 20
47.2014146541
 30
0.0
 10
77.0082671002
 20
47.5665874494
 30
0.0
 10
76.8837716689
 20
47.8999295519
 30
0.0
 10
76.7251036072
 20
48.1982712777
 30
0.0
 10
76.5334460117
 20
48.4585498453
 30
0.0
 10
76.3106262835
 20
48.6778715766
 30
0.0
 10
76.1419647116
 20
48.7955298362
 30
0.0
 10
76.0542478133
 20
48.8461719549
 30
0.0
  0
SPLINE
  5
27A
100
AcDbEntity
  8
0
100
AcDbSpline
 62
7
  6
BYLAYER
 70
0
 71
3
 72
15
 73
11
 74
0
 42
0.0000001
 43
0.0000001
 44
0.0000000001
 40
0.0
 40
0.0
 40
0.0
 40
0.0
 40
0.148553783
 40
0.289507052
 40
0.4227302132
 40
0.5486381715
 40
0.6679995023
 40
0.781938056
 40
0.8919865532
 40
1.0
 40
1.0
 40
1.0
 40
1.0
 10
73.3793023921
 20
48.1321373044
 30
0.0
 10
73.4875352808
 20
48.1946252188
 30
0.0
 10
73.7036580513
 20
48.307739003
 30
0.0
 10
74.0332965073
 20
48.4427006086
 30
0.0
 10
74.3571011713
 20
48.5370896379
 30
0.0
 10
74.6719418786
 20
48.5898919681
 30
0.0
 10
74.9749185853
 20
48.6004442201
 30
0.0
 10
75.2631208417
 20
48.5682905062
 30
0.0
 10
75.5334805524
 20
48.4935537797
 30
0.0
 10
75.7005571563
 20
48.4152915292
 30
0.0
 10
75.7792536262
 20
48.3698571644
 30
0.0
  0
SPLINE
  5
27B
100
AcDbEntity
  8
0
100
AcDbSpline
 62
7
  6
BYLAYER
 70
0
 71
3
 72
25
 73
21
 74
0
 42
0.0000001
 43
0.0000001
 44
0.0000000001
 40
0.0
 40
0.0
 40
0.0
 40
0.0
 40
0.0213323751
 40
0.0428932479
 40
0.0648989197
 40
0.0875438275
 40
0.1353193903
 40
0.1872207901
 40
0.2436587057
 40
0.3046064186
 40
0.3696936448
 40
0.4382903358
 40
0.5095764262
 40
0.5826007002
 40
0.6563324402
 40
0.7297080014
 40
0.8016849011
 40
0.8712743213
 40
0.9376207029
 40
1.0
 40
1.0
 40
1.0
 40
1.0
 10
70.979351158
 20
40.05599424
 30
0.0
 10
70.9203783455
 20
40.0900414124
 30
0.0
 10
70.8060473031
 20
40.1661747906
 30
0.0
 10
70.6491616477
 20
40.3022500561
 30
0.0
 10
70.5072709604
 20
40.4595993027
 30
0.0
 10
70.3361941074
 20
40.7006749457
 30
0.0
 10
70.1649292342
 20
41.0549169397
 30
0.0
 10
70.0343892414
 20
41.5382280507
 30
0.0
 10
69.9762178895
 20
42.0773708336
 30
0.0
 10
69.991085513
 20
42.6611208998
 30
0.0
 10
70.0783277583
 20
43.2774777684
 30
0.0
 10
70.2360034622
 20
43.9135514943
 30
0.0
 10
70.4607333145
 20
44.5559271146
 30
0.0
 10
70.7477350444
 20
45.1909639337
 30
0.0
 10
71.0908918104
 20
45.8051222585
 30
0.0
 10
71.4828721911
 20
46.3853172932
 30
0.0
 10
71.9153281349
 20
46.9191420338
 30
0.0
 10
72.3790850807
 20
47.3953332964
 30
0.0
 10
72.8642596894
 20
47.8036108418
 30
0.0
 10
73.2068571514
 20
48.0325765926
 30
0.0
 10
73.3793023921
 20
48.1321373044
 30
0.0
  0
SPLINE
  5
27C
100
AcDbEntity
  8
0
100
AcDbSpline
 62
7
  6
BYLAYER
 70
0
 71
3
 72
25
 73
21
 74
0
 42
0.0000001
 43
0.0000001
 44
0.0000000001
 40
0.0
 40
0.0
 40
0.0
 40
0.0
 40
0.0213324671
 40
0.0428933631
 40
0.0648990119
 40
0.0875438599
 40
0.1353192734
 40
0.1872204347
 40
0.2436580398
 40
0.3046053936
 40
0.36969223
 40
0.4382885382
 40
0.5095742758
 40
0.5825983116
 40
0.6563302173
 40
0.7297059321
 40
0.8016829925
 40
0.8712728048
 40
0.9376199017
 40
1.0
 40
1.0
 40
1.0
 40
1.0
 10
70.7043569709
 20
39.5796794496
 30
0.0
 10
70.770086703
 20
39.5417313123
 30
0.0
 10
70.9072909189
 20
39.4738040273
 30
0.0
 10
71.126068858
 20
39.398206618
 30
0.0
 10
71.3570242437
 20
39.348940165
 30
0.0
 10
71.6850601445
 20
39.3181613826
 30
0.0
 10
72.12243272
 20
39.3502690038
 30
0.0
 10
72.6616912271
 20
39.4936144438
 30
0.0
 10
73.21450946
 20
39.7379268724
 30
0.0
 10
73.7696798758
 20
40.0775980887
 30
0.0
 10
74.3159897222
 20
40.5052992266
 30
0.0
 10
74.8420791304
 20
41.011973349
 30
0.0
 10
75.3368832713
 20
41.5868827767
 30
0.0
 10
75.7899016487
 20
42.2178107905
 30
0.0
 10
76.191473551
 20
42.8913078265
 30
0.0
 10
76.5330550259
 20
43.593004711
 30
0.0
 10
76.8073219626
 20
44.307928997
 30
0.0
 10
77.008516532
 20
45.0209491934
 30
0.0
 10
77.1322234919
 20
45.7167970138
 30
0.0
 10
77.1623079212
 20
46.175092985
 30
0.0
 10
77.1623079212
 20
46.3970319254
 30
0.0
  0
SPLINE
  5
27D
100
AcDbEntity
  8
0
100
AcDbSpline
 62
7
  6
BYLAYER
 70
0
 71
3
 72
11
 73
7
 74
0
 42
0.0000001
 43
0.0000001
 44
0.0000000001
 40
0.0
 40
0.0
 40
0.0
 40
0.0
 40
0.2684576913
 40
0.5217167824
 40
0.7638217279
 40
1.0
 40
1.0
 40
1.0
 40
1.0
 10
76.260781089
 20
48.7732332816
 30
0.0
 10
76.210247843
 20
48.9140765918
 30
0.0
 10
76.0930166272
 20
49.1815997519
 30
0.0
 10
75.8606644029
 20
49.5407677787
 30
0.0
 10
75.5800220439
 20
49.8397180951
 30
0.0
 10
75.3618828929
 20
49.9964739645
 30
0.0
 10
75.2478724508
 20
50.0622866915
 30
0.0
  0
SPLINE
  5
27E
100
AcDbEntity
  8
0
100
AcDbSpline
 62
7
  6
BYLAYER
 70
0
 71
3
 72
15
 73
11
 74
0
 42
0.0000001
 43
0.0000001
 44
0.0000000001
 40
0.0
 40
0.0
 40
0.0
 40
0.0
 40
0.1080124628
 40
0.2180610497
 40
0.3319996057
 40
0.4513565223
 40
0.5772772406
 40
0.7104998956
 40
0.8513933629
 40
1.0
 40
1.0
 40
1.0
 40
1.0
 10
65.7124325873
 20
41.7111389
 30
0.0
 10
65.6140563838
 20
41.7679267354
 30
0.0
 10
65.4249320957
 20
41.8999162464
 30
0.0
 10
65.1750064911
 20
42.1458431595
 30
0.0
 10
64.9600975
 20
42.4377634143
 30
0.0
 10
64.7821152614
 20
42.772336956
 30
0.0
 10
64.6425214105
 20
43.1461965539
 30
0.0
 10
64.5423467266
 20
43.5556812919
 30
0.0
 10
64.4823385621
 20
43.9968716318
 30
0.0
 10
64.4697646217
 20
44.3015331042
 30
0.0
 10
64.469763496
 20
44.4578137647
 30
0.0
  0
SPLINE
  5
27F
100
AcDbEntity
  8
0
100
AcDbSpline
 62
7
  6
BYLAYER
 70
0
 71
3
 72
11
 73
7
 74
0
 42
0.0000001
 43
0.0000001
 44
0.0000000001
 40
0.0
 40
0.0
 40
0.0
 40
0.0
 40
0.2383291462
 40
0.4816056093
 40
0.7342901382
 40
1.0
 40
1.0
 40
1.0
 40
1.0
 10
69.247981213
 20
39.6699351274
 30
0.0
 10
69.3513589953
 20
39.6102601218
 30
0.0
 10
69.5716158185
 20
39.5082756572
 30
0.0
 10
69.9289766712
 20
39.414362439
 30
0.0
 10
70.3104144917
 20
39.3793281322
 30
0.0
 10
70.5706117156
 20
39.3948617889
 30
0.0
 10
70.7026515481
 20
39.4114577112
 30
0.0
  0
SPLINE
  5
280
100
AcDbEntity
  8
0
100
AcDbSpline
 62
7
  6
BYLAYER
 70
0
 71
3
 72
16
 73
12
 74
0
 42
0.0000001
 43
0.0000001
 44
0.0000000001
 40
0.0
 40
0.0
 40
0.0
 40
0.0
 40
0.1141440878
 40
0.2373043059
 40
0.3669423424
 40
0.499955757
 40
0.6329671872
 40
0.7626071165
 40
0.8857652339
 40
0.9441534835
 40
1.0
 40
1.0
 40
1.0
 40
1.0
 10
64.4697562991
 20
44.9477066744
 30
0.0
 10
64.4697531472
 20
45.249541988
 30
0.0
 10
64.5250351022
 20
45.8776410283
 30
0.0
 10
64.7454224477
 20
46.825199415
 30
0.0
 10
65.0984783926
 20
47.785013239
 30
0.0
 10
65.5709980396
 20
48.7209640446
 30
0.0
 10
66.145323735
 20
49.5982237512
 30
0.0
 10
66.7998731388
 20
50.383737632
 30
0.0
 10
67.402730134
 20
50.947821596
 30
0.0
 10
67.9050864653
 20
51.325053305
 30
0.0
 10
68.1602201893
 20
51.4875340425
 30
0.0
 10
68.288112371
 20
51.5613721873
 30
0.0
  0
SPLINE
  5
281
100
AcDbEntity
  8
0
100
AcDbSpline
 62
7
  6
BYLAYER
 70
0
 71
3
 72
11
 73
7
 74
0
 42
0.0000001
 43
0.0000001
 44
0.0000000001
 40
0.0
 40
0.0
 40
0.0
 40
0.0
 40
0.242077254
 40
0.4874511396
 40
0.7392578358
 40
1.0
 40
1.0
 40
1.0
 40
1.0
 10
61.0654255069
 20
36.60154577
 30
0.0
 10
61.2304863006
 20
36.506244204
 30
0.0
 10
61.5772616766
 20
36.3381835375
 30
0.0
 10
62.1335931677
 20
36.1609359684
 30
0.0
 10
62.723293783
 20
36.0589007917
 30
0.0
 10
63.1276705508
 20
36.0415556221
 30
0.0
 10
63.3329396692
 20
36.0447061086
 30
0.0
  0
SPLINE
  5
282
100
AcDbEntity
  8
0
100
AcDbSpline
 62
7
  6
BYLAYER
 70
0
 71
3
 72
15
 73
11
 74
0
 42
0.0000001
 43
0.0000001
 44
0.0000000001
 40
0.0
 40
0.0
 40
0.0
 40
0.0
 40
0.10801371
 40
0.2180626228
 40
0.3319995421
 40
0.4513581673
 40
0.5772781252
 40
0.7104927212
 40
0.851412577
 40
1.0
 40
1.0
 40
1.0
 40
1.0
 10
59.651206057
 20
37.4180272797
 30
0.0
 10
59.4560989159
 20
37.530676783
 30
0.0
 10
59.0809573945
 20
37.7924058397
 30
0.0
 10
58.5853151961
 20
38.2802217168
 30
0.0
 10
58.1590376968
 20
38.8591737859
 30
0.0
 10
57.8060725936
 20
39.5227740528
 30
0.0
 10
57.5291967921
 20
40.2642470083
 30
0.0
 10
57.330490227
 20
41.0764366596
 30
0.0
 10
57.21154862
 20
41.9514816943
 30
0.0
 10
57.1865597526
 20
42.5557454681
 30
0.0
 10
57.1865597526
 20
42.8656656703
 30
0.0
  0
SPLINE
  5
283
100
AcDbEntity
  8
0
100
AcDbSpline
 62
7
  6
BYLAYER
 70
0
 71
3
 72
15
 73
11
 74
0
 42
0.0000001
 43
0.0000001
 44
0.0000000001
 40
0.0
 40
0.0
 40
0.0
 40
0.0
 40
0.1079519825
 40
0.2183282289
 40
0.3327504885
 40
0.4525442954
 40
0.5786834543
 40
0.7118036139
 40
0.8522626917
 40
1.0
 40
1.0
 40
1.0
 40
1.0
 10
70.1662905413
 20
58.5014790094
 30
0.0
 10
69.9921984712
 20
58.5901432418
 30
0.0
 10
69.6247502667
 20
58.740841197
 30
0.0
 10
69.0362986182
 20
58.8790749154
 30
0.0
 10
68.4125855296
 20
58.9301503591
 30
0.0
 10
67.759581849
 20
58.8940928207
 30
0.0
 10
67.0829743523
 20
58.7717817336
 30
0.0
 10
66.3884814085
 20
58.5645680865
 30
0.0
 10
65.6821373079
 20
58.2745050972
 30
0.0
 10
65.218667693
 20
58.0336590861
 30
0.0
 10
64.9865013898
 20
57.9010430496
 30
0.0
  0
SPLINE
  5
284
100
AcDbEntity
  8
0
100
AcDbSpline
 62
7
  6
BYLAYER
 70
0
 71
3
 72
11
 73
7
 74
0
 42
0.0000001
 43
0.0000001
 44
0.0000000001
 40
0.0
 40
0.0
 40
0.0
 40
0.0
 40
0.2649886883
 40
0.5211681119
 40
0.7666995274
 40
1.0
 40
1.0
 40
1.0
 40
1.0
 10
60.3540436431
 20
55.817325785
 30
0.0
 10
60.6290108019
 20
56.1365489491
 30
0.0
 10
61.1923733049
 20
56.7454151739
 30
0.0
 10
62.0868854334
 20
57.5754073586
 30
0.0
 10
63.0070404022
 20
58.2980263139
 30
0.0
 10
63.6469106376
 20
58.7131045862
 30
0.0
 10
63.9681519738
 20
58.8985722511
 30
0.0
  0
SPLINE
  5
285
100
AcDbEntity
  8
0
100
AcDbSpline
 62
7
  6
BYLAYER
 70
0
 71
3
 72
15
 73
11
 74
0
 42
0.0000001
 43
0.0000001
 44
0.0000000001
 40
0.0
 40
0.0
 40
0.0
 40
0.0
 40
0.1485874241
 40
0.2895072841
 40
0.4227218809
 40
0.5486418383
 40
0.6680004632
 40
0.7819373814
 40
0.8919862923
 40
1.0
 40
1.0
 40
1.0
 40
1.0
 10
58.6007792029
 20
42.0491841613
 30
0.0
 10
58.6007792029
 20
41.7392639568
 30
0.0
 10
58.6257680746
 20
41.135000172
 30
0.0
 10
58.7447096814
 20
40.2599551246
 30
0.0
 10
58.9434162512
 20
39.4477654644
 30
0.0
 10
59.2202920625
 20
38.7062925128
 30
0.0
 10
59.5732571644
 20
38.0426922502
 30
0.0
 10
59.999534661
 20
37.4637401872
 30
0.0
 10
60.4951768569
 20
36.975924324
 30
0.0
 10
60.870318369
 20
36.7141952692
 30
0.0
 10
61.0654255069
 20
36.60154577
 30
0.0
  0
SPLINE
  5
286
100
AcDbEntity
  8
0
100
AcDbSpline
 62
7
  6
BYLAYER
 70
0
 71
3
 72
15
 73
11
 74
0
 42
0.0000001
 43
0.0000001
 44
0.0000000001
 40
0.0
 40
0.0
 40
0.0
 40
0.0
 40
0.1283526854
 40
0.2590300032
 40
0.3903538882
 40
0.5206210014
 40
0.6481696884
 40
0.771448967
 40
0.889092317
 40
1.0
 40
1.0
 40
1.0
 40
1.0
 10
63.3329396692
 20
53.5178578352
 30
0.0
 10
62.9759147771
 20
53.1110831069
 30
0.0
 10
62.2910879011
 20
52.2581885693
 30
0.0
 10
61.3684879376
 20
50.8929707077
 30
0.0
 10
60.5544586988
 20
49.4509646096
 30
0.0
 10
59.8647689092
 20
47.9600330342
 30
0.0
 10
59.3126497549
 20
46.4488217693
 30
0.0
 10
58.9087152916
 20
44.946219012
 30
0.0
 10
58.6607503358
 20
43.4811992519
 30
0.0
 10
58.6007792029
 20
42.5168551363
 30
0.0
 10
58.6007792029
 20
42.0491841613
 30
0.0
  0
SPLINE
  5
287
100
AcDbEntity
  8
0
100
AcDbSpline
 62
7
  6
BYLAYER
 70
0
 71
3
 72
15
 73
11
 74
0
 42
0.0000001
 43
0.0000001
 44
0.0000000001
 40
0.0
 40
0.0
 40
0.0
 40
0.0
 40
0.1259269967
 40
0.2554561568
 40
0.3866567837
 40
0.5175196549
 40
0.6460507019
 40
0.7703686631
 40
0.8887986862
 40
1.0
 40
1.0
 40
1.0
 40
1.0
 10
58.1163030073
 20
47.8683623109
 30
0.0
 10
58.2520310405
 20
48.3696862362
 30
0.0
 10
58.5787674027
 20
49.3733448251
 30
0.0
 10
59.2101190466
 20
50.8399513278
 30
0.0
 10
59.9777673304
 20
52.2633165721
 30
0.0
 10
60.86423661
 20
53.6109251245
 30
0.0
 10
61.8494009081
 20
54.8522477307
 30
0.0
 10
62.9110670864
 20
55.9591894156
 30
0.0
 10
64.0250555472
 20
56.906608328
 30
0.0
 10
64.8137223225
 20
57.4360973797
 30
0.0
 10
65.2109150496
 20
57.6654153431
 30
0.0
  0
SPLINE
  5
288
100
AcDbEntity
  8
0
100
AcDbSpline
 62
7
  6
BYLAYER
 70
0
 71
3
 72
28
 73
24
 74
0
 42
0.0000001
 43
0.0000001
 44
0.0000000001
 40
0.0
 40
0.0
 40
0.0
 40
0.0
 40
0.0648161166
 40
0.1339927648
 40
0.2065978946
 40
0.2814904719
 40
0.3574027141
 40
0.4330092459
 40
0.5070012853
 40
0.5781587868
 40
0.6454268638
 40
0.7080034738
 40
0.7654444576
 40
0.7922586145
 40
0.8178551141
 40
0.8423380371
 40
0.8658589413
 40
0.8886140148
 40
0.910841739
 40
0.9328112078
 40
0.9548082258
 40
0.9771162035
 40
1.0
 40
1.0
 40
1.0
 40
1.0
 10
62.8790351615
 20
45.5543228329
 30
0.0
 10
62.8817230683
 20
45.8239525799
 30
0.0
 10
62.9272045462
 20
46.3813698196
 30
0.0
 10
63.0985253644
 20
47.2252737971
 30
0.0
 10
63.3709093927
 20
48.0861984658
 30
0.0
 10
63.7373203526
 20
48.941867706
 30
0.0
 10
64.1883278979
 20
49.770326252
 30
0.0
 10
64.7122928154
 20
50.5501851877
 30
0.0
 10
65.295712843
 20
51.2613373603
 30
0.0
 10
65.9235893665
 20
51.8854861607
 30
0.0
 10
66.5800272175
 20
52.4066727967
 30
0.0
 10
67.2483931511
 20
52.8114744503
 30
0.0
 10
67.8147454927
 20
53.048404803
 30
0.0
 10
68.2570636206
 20
53.1657398284
 30
0.0
 10
68.5733912097
 20
53.2170593348
 30
0.0
 10
68.8797979266
 20
53.2332411099
 30
0.0
 10
69.1742781598
 20
53.2140869833
 30
0.0
 10
69.4548247497
 20
53.159541292
 30
0.0
 10
69.7194587353
 20
53.0698837279
 30
0.0
 10
69.9662310905
 20
52.9456351744
 30
0.0
 10
70.1933369291
 20
52.7876939646
 30
0.0
 10
70.3991029873
 20
52.5972845343
 30
0.0
 10
70.5192642519
 20
52.4518943826
 30
0.0
 10
70.5752870478
 20
52.3749243745
 30
0.0
  0
SPLINE
  5
289
100
AcDbEntity
  8
0
100
AcDbSpline
 62
7
  6
BYLAYER
 70
0
 71
3
 72
25
 73
21
 74
0
 42
0.0000001
 43
0.0000001
 44
0.0000000001
 40
0.0
 40
0.0
 40
0.0
 40
0.0
 40
0.0623806075
 40
0.1287228948
 40
0.1983132333
 40
0.2702903335
 40
0.3436670531
 40
0.4173986436
 40
0.4904230685
 40
0.561709866
 40
0.6303075009
 40
0.6953954681
 40
0.7563434036
 40
0.812781024
 40
0.8646819097
 40
0.9124570644
 40
0.9351021153
 40
0.9571073412
 40
0.9786679506
 40
1.0
 40
1.0
 40
1.0
 40
1.0
 10
72.2479268319
 20
49.7651254122
 30
0.0
 10
72.0323655953
 20
49.6406718172
 30
0.0
 10
71.604122673
 20
49.3544775715
 30
0.0
 10
70.9976671995
 20
48.844126374
 30
0.0
 10
70.4179672866
 20
48.2489068879
 30
0.0
 10
69.8773981594
 20
47.5816122225
 30
0.0
 10
69.3874181031
 20
46.8563652266
 30
0.0
 10
68.9584726546
 20
46.0886609012
 30
0.0
 10
68.5997156115
 20
45.2948635677
 30
0.0
 10
68.3187935883
 20
44.4918891576
 30
0.0
 10
68.1216917561
 20
43.6967881405
 30
0.0
 10
68.0126392071
 20
42.9263335541
 30
0.0
 10
67.994062207
 20
42.1966421159
 30
0.0
 10
68.0667889984
 20
41.5227172487
 30
0.0
 10
68.2299694578
 20
40.9185834939
 30
0.0
 10
68.4440570376
 20
40.475789792
 30
0.0
 10
68.6578825235
 20
40.1744338291
 30
0.0
 10
68.8352521338
 20
39.9777536468
 30
0.0
 10
69.0313657395
 20
39.8076762802
 30
0.0
 10
69.1742635556
 20
39.7124887739
 30
0.0
 10
69.247981213
 20
39.6699351274
 30
0.0
  0
SPLINE
  5
28A
100
AcDbEntity
  8
0
100
AcDbSpline
 62
7
  6
BYLAYER
 70
0
 71
3
 72
11
 73
7
 74
0
 42
0.0000001
 43
0.0000001
 44
0.0000000001
 40
0.0
 40
0.0
 40
0.0
 40
0.0
 40
0.2368415221
 40
0.4793082421
 40
0.7323883044
 40
1.0
 40
1.0
 40
1.0
 40
1.0
 10
75.7792536262
 20
48.3698571644
 30
0.0
 10
75.8678812083
 20
48.3186892035
 30
0.0
 10
76.0376419695
 20
48.1974698865
 30
0.0
 10
76.2572533831
 20
47.9672731035
 30
0.0
 10
76.4405860279
 20
47.691371831
 30
0.0
 10
76.5344410811
 20
47.4858353309
 30
0.0
 10
76.5752372494
 20
47.3776376594
 30
0.0
  0
SPLINE
  5
28B
100
AcDbEntity
  8
0
100
AcDbSpline
 62
7
  6
BYLAYER
 70
0
 71
3
 72
20
 73
16
 74
0
 42
0.0000001
 43
0.0000001
 44
0.0000000001
 40
0.0
 40
0.0
 40
0.0
 40
0.0
 40
0.1000448871
 40
0.1553862296
 40
0.2140804702
 40
0.2758343579
 40
0.3402342207
 40
0.4067740879
 40
0.4748769267
 40
0.6131652144
 40
0.7499693693
 40
0.8162635114
 40
0.8803429541
 40
0.9417377323
 40
1.0
 40
1.0
 40
1.0
 40
1.0
 10
76.5752372494
 20
47.3776376594
 30
0.0
 10
76.6726313848
 20
47.1193335315
 30
0.0
 10
76.7596895143
 20
46.6928280057
 30
0.0
 10
76.7808295686
 20
46.1022022365
 30
0.0
 10
76.7490262808
 20
45.6172535857
 30
0.0
 10
76.6694536747
 20
45.1128541415
 30
0.0
 10
76.5433166163
 20
44.5957408092
 30
0.0
 10
76.3723681084
 20
44.0732498644
 30
0.0
 10
76.0865120693
 20
43.3759119631
 30
0.0
 10
75.6359144623
 20
42.5394068623
 30
0.0
 10
75.0786488979
 20
41.7757829322
 30
0.0
 10
74.5807967279
 20
41.2312249803
 30
0.0
 10
74.1940971612
 20
40.8691490627
 30
0.0
 10
73.7958267235
 20
40.55447064
 30
0.0
 10
73.5185283365
 20
40.3740957566
 30
0.0
 10
73.3793023921
 20
40.2937141
 30
0.0
  0
SPLINE
  5
28C
100
AcDbEntity
  8
0
100
AcDbSpline
 62
7
  6
BYLAYER
 70
0
 71
3
 72
15
 73
11
 74
0
 42
0.0000001
 43
0.0000001
 44
0.0000000001
 40
0.0
 40
0.0
 40
0.0
 40
0.0
 40
0.1080114527
 40
0.2180581611
 40
0.3319955129
 40
0.4513558736
 40
0.5772636584
 40
0.7104884176
 40
0.8514448581
 40
1.0
 40
1.0
 40
1.0
 40
1.0
 10
69.9972471642
 20
39.9879200958
 30
0.0
 10
69.9095314404
 20
40.0385613832
 30
0.0
 10
69.7408725423
 20
40.1562188768
 30
0.0
 10
69.5180533723
 20
40.3755366185
 30
0.0
 10
69.3263978335
 20
40.6358137522
 30
0.0
 10
69.1677272987
 20
40.9341523757
 30
0.0
 10
69.0432315548
 20
41.2674946027
 30
0.0
 10
68.9538811359
 20
41.6326698789
 30
0.0
 10
68.900447936
 20
42.0260904123
 30
0.0
 10
68.8891871379
 20
42.2977568453
 30
0.0
 10
68.8891871379
 20
42.4370602335
 30
0.0
  0
SPLINE
  5
28D
100
AcDbEntity
  8
0
100
AcDbSpline
 62
7
  6
BYLAYER
 70
0
 71
3
 72
15
 73
11
 74
0
 42
0.0000001
 43
0.0000001
 44
0.0000000001
 40
0.0
 40
0.0
 40
0.0
 40
0.0
 40
0.1140722435
 40
0.2252012939
 40
0.3369095295
 40
0.4526318311
 40
0.575232389
 40
0.7067027643
 40
0.8482130328
 40
1.0
 40
1.0
 40
1.0
 40
1.0
 10
64.8491695427
 20
42.567216979
 30
0.0
 10
64.7029762421
 20
42.5865686845
 30
0.0
 10
64.4170330599
 20
42.6533478933
 30
0.0
 10
64.0213234527
 20
42.8434805205
 30
0.0
 10
63.6758427668
 20
43.1179810572
 30
0.0
 10
63.3873673423
 20
43.4706819078
 30
0.0
 10
63.160139216
 20
43.8942346926
 30
0.0
 10
62.996710143
 20
44.3810202892
 30
0.0
 10
62.898930658
 20
44.9230014723
 30
0.0
 10
62.8787579442
 20
45.3026397056
 30
0.0
 10
62.8787579442
 20
45.4988644965
 30
0.0
  0
SPLINE
  5
28E
100
AcDbEntity
  8
0
100
AcDbSpline
 62
7
  6
BYLAYER
 70
0
 71
3
 72
25
 73
21
 74
0
 42
0.0000001
 43
0.0000001
 44
0.0000000001
 40
0.0
 40
0.0
 40
0.0
 40
0.0
 40
0.0213324671
 40
0.0428933631
 40
0.0648990119
 40
0.0875438599
 40
0.1353192734
 40
0.1872204347
 40
0.2436580398
 40
0.3046053936
 40
0.36969223
 40
0.4382885382
 40
0.5095742758
 40
0.5825983116
 40
0.6563302173
 40
0.7297059321
 40
0.8016829925
 40
0.8712728048
 40
0.9376199017
 40
1.0
 40
1.0
 40
1.0
 40
1.0
 10
76.0542478133
 20
48.8461719549
 30
0.0
 10
75.9885180812
 20
48.8841200921
 30
0.0
 10
75.8513138653
 20
48.9520473771
 30
0.0
 10
75.6325359262
 20
49.0276447864
 30
0.0
 10
75.4015805405
 20
49.0769112395
 30
0.0
 10
75.0735446397
 20
49.1076900218
 30
0.0
 10
74.6361720642
 20
49.0755824007
 30
0.0
 10
74.0969135571
 20
48.9322369606
 30
0.0
 10
73.5440953242
 20
48.6879245321
 30
0.0
 10
72.9889249084
 20
48.3482533157
 30
0.0
 10
72.442615062
 20
47.9205521778
 30
0.0
 10
71.9165256538
 20
47.4138780554
 30
0.0
 10
71.4217215129
 20
46.8389686278
 30
0.0
 10
70.9687031355
 20
46.2080406139
 30
0.0
 10
70.5671312332
 20
45.5345435779
 30
0.0
 10
70.2255497583
 20
44.8328466934
 30
0.0
 10
69.9512828216
 20
44.1179224075
 30
0.0
 10
69.7500882522
 20
43.404902211
 30
0.0
 10
69.6263812923
 20
42.7090543907
 30
0.0
 10
69.596296863
 20
42.2507584195
 30
0.0
 10
69.596296863
 20
42.028819479
 30
0.0
  0
SPLINE
  5
28F
100
AcDbEntity
  8
0
100
AcDbSpline
 62
7
  6
BYLAYER
 70
0
 71
3
 72
25
 73
21
 74
0
 42
0.0000001
 43
0.0000001
 44
0.0000000001
 40
0.0
 40
0.0
 40
0.0
 40
0.0
 40
0.0623838166
 40
0.1287355562
 40
0.1983316981
 40
0.2703155895
 40
0.3436982711
 40
0.4174365446
 40
0.4904654954
 40
0.5617539329
 40
0.6303501531
 40
0.6954338748
 40
0.7563752366
 40
0.8128045408
 40
0.8646961941
 40
0.9124626919
 40
0.9351040631
 40
0.9571072671
 40
0.9786670492
 40
1.0
 40
1.0
 40
1.0
 40
1.0
 10
72.672192667
 20
49.0302795092
 30
0.0
 10
72.4781470913
 20
48.9182479126
 30
0.0
 10
72.092637345
 20
48.6605957902
 30
0.0
 10
71.5467010213
 20
48.2011517559
 30
0.0
 10
71.0248722897
 20
47.6652750204
 30
0.0
 10
70.5382780641
 20
47.0645340656
 30
0.0
 10
70.097246584
 20
46.411610719
 30
0.0
 10
69.7111761056
 20
45.7204741233
 30
0.0
 10
69.3883217517
 20
45.0058575448
 30
0.0
 10
69.1355683877
 20
44.2830075212
 30
0.0
 10
68.958296265
 20
43.5672817195
 30
0.0
 10
68.8603062194
 20
42.8737824902
 30
0.0
 10
68.8437792875
 20
42.2170194861
 30
0.0
 10
68.909459107
 20
41.6104993121
 30
0.0
 10
69.0565871281
 20
41.0668539144
 30
0.0
 10
69.2495118877
 20
40.668460308
 30
0.0
 10
69.4421775697
 20
40.3973964222
 30
0.0
 10
69.6019583605
 20
40.2205000666
 30
0.0
 10
69.778611956
 20
40.0675560596
 30
0.0
 10
69.9073332754
 20
39.9820136071
 30
0.0
 10
69.9737260947
 20
39.9437661287
 30
0.0
  0
SPLINE
  5
290
100
AcDbEntity
  8
0
100
AcDbSpline
 62
7
  6
BYLAYER
 70
0
 71
3
 72
25
 73
21
 74
0
 42
0.0000001
 43
0.0000001
 44
0.0000000001
 40
0.0
 40
0.0
 40
0.0
 40
0.0
 40
0.0623793744
 40
0.1287254704
 40
0.198315187
 40
0.2702924305
 40
0.3436688239
 40
0.4174017932
 40
0.490427048
 40
0.5617138706
 40
0.6303109129
 40
0.6953980508
 40
0.7563452963
 40
0.812782442
 40
0.864682879
 40
0.912457488
 40
0.935101961
 40
0.9571072451
 40
0.9786678139
 40
1.0
 40
1.0
 40
1.0
 40
1.0
 10
68.8891871379
 20
42.4370602335
 30
0.0
 10
68.8891871379
 20
42.6589966046
 30
0.0
 10
68.9192697645
 20
43.1172865318
 30
0.0
 10
69.0429754306
 20
43.8131280135
 30
0.0
 10
69.2441666873
 20
44.5261457528
 30
0.0
 10
69.5184336998
 20
45.2410730011
 30
0.0
 10
69.860017165
 20
45.9427765563
 30
0.0
 10
70.2615939866
 20
46.6162830045
 30
0.0
 10
70.7146200913
 20
47.2472203209
 30
0.0
 10
71.2094329883
 20
47.8221365615
 30
0.0
 10
71.7355297998
 20
48.328813946
 30
0.0
 10
72.2818443187
 20
48.7565145542
 30
0.0
 10
72.8370160382
 20
49.0961819279
 30
0.0
 10
73.3898319981
 20
49.3404882627
 30
0.0
 10
73.9290850611
 20
49.4838267535
 30
0.0
 10
74.366450956
 20
49.5159302087
 30
0.0
 10
74.6944812599
 20
49.485150795
 30
0.0
 10
74.9254327066
 20
49.435883961
 30
0.0
 10
75.1442069261
 20
49.3602865125
 30
0.0
 10
75.2814092518
 20
49.2923603701
 30
0.0
 10
75.3471381697
 20
49.2544128177
 30
0.0
  0
SPLINE
  5
291
100
AcDbEntity
  8
0
100
AcDbSpline
 62
7
  6
BYLAYER
 70
0
 71
3
 72
9
 73
5
 74
0
 42
0.0000001
 43
0.0000001
 44
0.0000000001
 40
0.0
 40
0.0
 40
0.0
 40
0.0
 40
0.5079068144
 40
1.0
 40
1.0
 40
1.0
 40
1.0
 10
75.9724939349
 20
48.7440743524
 30
0.0
 10
75.8917617402
 20
48.857670185
 30
0.0
 10
75.7104842252
 20
49.0666145131
 30
0.0
 10
75.4876567419
 20
49.2311670343
 30
0.0
 10
75.3706592392
 20
49.2985667848
 30
0.0
  0
SPLINE
  5
292
100
AcDbEntity
  8
0
100
AcDbSpline
 62
7
  6
BYLAYER
 70
0
 71
3
 72
15
 73
11
 74
0
 42
0.0000001
 43
0.0000001
 44
0.0000000001
 40
0.0
 40
0.0
 40
0.0
 40
0.0
 40
0.1080071386
 40
0.2180574163
 40
0.3320022239
 40
0.4513700911
 40
0.5772825563
 40
0.7105072089
 40
0.8514574962
 40
1.0
 40
1.0
 40
1.0
 40
1.0
 10
75.3706592392
 20
49.2985667848
 30
0.0
 10
75.2821357628
 20
49.3495632597
 30
0.0
 10
75.0942140427
 20
49.4373843019
 30
0.0
 10
74.7901812548
 20
49.5211900574
 30
0.0
 10
74.4661158149
 20
49.557152615
 30
0.0
 10
74.1254622443
 20
49.5451459966
 30
0.0
 10
73.7714864648
 20
49.4856714452
 30
0.0
 10
73.4074425976
 20
49.37948056
 30
0.0
 10
73.0368493478
 20
49.2277066149
 30
0.0
 10
72.7938724327
 20
49.1005309354
 30
0.0
 10
72.672192667
 20
49.0302795092
 30
0.0
  0
SPLINE
  5
293
100
AcDbEntity
  8
0
100
AcDbSpline
 62
7
  6
BYLAYER
 70
0
 71
3
 72
15
 73
11
 74
0
 42
0.0000001
 43
0.0000001
 44
0.0000000001
 40
0.0
 40
0.0
 40
0.0
 40
0.0
 40
0.1080134203
 40
0.2180624907
 40
0.332000538
 40
0.4513630161
 40
0.5772734118
 40
0.7104918871
 40
0.8514360076
 40
1.0
 40
1.0
 40
1.0
 40
1.0
 10
75.2478724508
 20
50.0622866915
 30
0.0
 10
75.1494981609
 20
50.1190734224
 30
0.0
 10
74.9406484699
 20
50.2168930217
 30
0.0
 10
74.602700583
 20
50.3103178264
 30
0.0
 10
74.2424466011
 20
50.350524082
 30
0.0
 10
73.8637225786
 20
50.3373134712
 30
0.0
 10
73.4701715702
 20
50.2713190107
 30
0.0
 10
73.0654290303
 20
50.1533281437
 30
0.0
 10
72.6533783392
 20
49.9846418135
 30
0.0
 10
72.383227386
 20
49.8432407573
 30
0.0
 10
72.2479268319
 20
49.7651254122
 30
0.0
  0
SPLINE
  5
294
100
AcDbEntity
  8
0
100
AcDbSpline
 62
7
  6
BYLAYER
 70
0
 71
3
 72
19
 73
15
 74
0
 42
0.0000001
 43
0.0000001
 44
0.0000000001
 40
0.0
 40
0.0
 40
0.0
 40
0.0
 40
0.1515838821
 40
0.2926809631
 40
0.4236504555
 40
0.5457324755
 40
0.6041534489
 40
0.6612407578
 40
0.7173999573
 40
0.7730711822
 40
0.8287155213
 40
0.8847949195
 40
0.9417531433
 40
1.0
 40
1.0
 40
1.0
 40
1.0
 10
64.0110736848
 20
58.9232202379
 30
0.0
 10
64.3449967005
 20
59.1139441004
 30
0.0
 10
65.0105372979
 20
59.4477382613
 30
0.0
 10
66.028206822
 20
59.8036241858
 30
0.0
 10
67.0146758879
 20
59.9907314859
 30
0.0
 10
67.8098541956
 20
60.0017319973
 30
0.0
 10
68.407896941
 20
59.9194384864
 30
0.0
 10
68.8316307095
 20
59.8152978606
 30
0.0
 10
69.2350732261
 20
59.6682989214
 30
0.0
 10
69.6163974998
 20
59.4789273637
 30
0.0
 10
69.9739279823
 20
59.2481320297
 30
0.0
 10
70.3060173186
 20
58.976851208
 30
0.0
 10
70.611243537
 20
58.6664577921
 30
0.0
 10
70.7936013026
 20
58.4372998582
 30
0.0
 10
70.8798268013
 20
58.3173000808
 30
0.0
  0
SPLINE
  5
295
100
AcDbEntity
  8
0
100
AcDbSpline
 62
7
  6
BYLAYER
 70
0
 71
3
 72
15
 73
11
 74
0
 42
0.0000001
 43
0.0000001
 44
0.0000000001
 40
0.0
 40
0.0
 40
0.0
 40
0.0
 40
0.1485544263
 40
0.2895084068
 40
0.4227320823
 40
0.5486401229
 40
0.6680011277
 40
0.781939148
 40
0.8919870293
 40
1.0
 40
1.0
 40
1.0
 40
1.0
 10
69.596296863
 20
42.028819479
 30
0.0
 10
69.596296863
 20
41.889516749
 30
0.0
 10
69.6075562773
 20
41.6178531829
 30
0.0
 10
69.6609899613
 20
41.2244367503
 30
0.0
 10
69.750337684
 20
40.859263955
 30
0.0
 10
69.8748331153
 20
40.5259218525
 30
0.0
 10
70.033501177
 20
40.2275801267
 30
0.0
 10
70.2251587725
 20
39.9673015592
 30
0.0
 10
70.4479785007
 20
39.7479798279
 30
0.0
 10
70.6166400726
 20
39.6303215683
 30
0.0
 10
70.7043569709
 20
39.5796794496
 30
0.0
  0
SPLINE
  5
296
100
AcDbEntity
  8
0
100
AcDbSpline
 62
7
  6
BYLAYER
 70
0
 71
3
 72
21
 73
17
 74
0
 42
0.0000001
 43
0.0000001
 44
0.0000000001
 40
0.0
 40
0.0
 40
0.0
 40
0.0
 40
0.0557320663
 40
0.1139513459
 40
0.1743945337
 40
0.2367918442
 40
0.3008100331
 40
0.3660825986
 40
0.4987648354
 40
0.6316185453
 40
0.6971024255
 40
0.7614098383
 40
0.8241698507
 40
0.8850437128
 40
0.943735305
 40
1.0
 40
1.0
 40
1.0
 40
1.0
 10
64.9460272767
 20
57.8777996113
 30
0.0
 10
64.6941610075
 20
57.732385421
 30
0.0
 10
64.1917600215
 20
57.4128687249
 30
0.0
 10
63.4626530726
 20
56.8669977016
 30
0.0
 10
62.7474457625
 20
56.2484567597
 30
0.0
 10
62.0528699648
 20
55.5631536558
 30
0.0
 10
61.3852690758
 20
54.8173865671
 30
0.0
 10
60.5350072478
 20
53.7460565441
 30
0.0
 10
59.5800770225
 20
52.3032999382
 30
0.0
 10
58.7899091205
 20
50.7629092525
 30
0.0
 10
58.2707623979
 20
49.4937519323
 30
0.0
 10
57.945475273
 20
48.5424005159
 30
0.0
 10
57.685500833
 20
47.5960783006
 30
0.0
 10
57.4932646763
 20
46.6635217285
 30
0.0
 10
57.3705376406
 20
45.7534772412
 30
0.0
 10
57.3350797893
 20
45.1539047592
 30
0.0
 10
57.3300478022
 20
44.860338754
 30
0.0
  0
SPLINE
  5
297
100
AcDbEntity
  8
0
100
AcDbSpline
 62
7
  6
BYLAYER
 70
0
 71
3
 72
15
 73
11
 74
0
 42
0.0000001
 43
0.0000001
 44
0.0000000001
 40
0.0
 40
0.0
 40
0.0
 40
0.0
 40
0.1165504312
 40
0.2401779968
 40
0.368793599
 40
0.499982717
 40
0.6311727769
 40
0.7597931375
 40
0.8834217528
 40
1.0
 40
1.0
 40
1.0
 40
1.0
 10
64.4892364016
 20
44.93802655
 30
0.0
 10
64.5134092071
 20
45.2421825475
 30
0.0
 10
64.6071822289
 20
45.8659440441
 30
0.0
 10
64.8622893928
 20
46.7989990343
 30
0.0
 10
65.2292497746
 20
47.7352576114
 30
0.0
 10
65.6974079976
 20
48.6473796464
 30
0.0
 10
66.2531542672
 20
49.5089547479
 30
0.0
 10
66.8804226886
 20
50.294962602
 30
0.0
 10
67.5608760618
 20
50.9825844419
 30
0.0
 10
68.0541981344
 20
51.3757800737
 30
0.0
 10
68.3055610708
 20
51.5488589901
 30
0.0
  0
SPLINE
  5
298
100
AcDbEntity
  8
0
100
AcDbSpline
 62
7
  6
BYLAYER
 70
0
 71
3
 72
9
 73
5
 74
0
 42
0.0000001
 43
0.0000001
 44
0.0000000001
 40
0.0
 40
0.0
 40
0.0
 40
0.0
 40
0.2543957801
 40
1.0
 40
1.0
 40
1.0
 40
1.0
 10
68.3055610708
 20
51.5488589901
 30
0.0
 10
68.339191645
 20
51.5720157188
 30
0.0
 10
68.4722430474
 20
51.6617930664
 30
0.0
 10
68.6087375757
 20
51.7464925961
 30
0.0
 10
68.7123782061
 20
51.8063291848
 30
0.0
  0
SPLINE
  5
299
100
AcDbEntity
  8
0
100
AcDbSpline
 62
7
  6
BYLAYER
 70
0
 71
3
 72
9
 73
5
 74
0
 42
0.0000001
 43
0.0000001
 44
0.0000000001
 40
0.0
 40
0.0
 40
0.0
 40
0.0
 40
0.5232298393
 40
1.0
 40
1.0
 40
1.0
 40
1.0
 10
73.3793023921
 20
40.2937141
 30
0.0
 10
73.2001347631
 20
40.1902722386
 30
0.0
 10
72.8436447851
 20
40.0154480233
 30
0.0
 10
72.4616888521
 20
39.9030877293
 30
0.0
 10
72.2761721316
 20
39.8696022923
 30
0.0
  0
SPLINE
  5
29A
100
AcDbEntity
  8
0
100
AcDbSpline
 62
7
  6
BYLAYER
 70
0
 71
3
 72
11
 73
7
 74
0
 42
0.0000001
 43
0.0000001
 44
0.0000000001
 40
0.0
 40
0.0
 40
0.0
 40
0.0
 40
0.268417028
 40
0.521678776
 40
0.7637967669
 40
1.0
 40
1.0
 40
1.0
 40
1.0
 10
72.2761721316
 20
39.8696022923
 30
0.0
 10
72.1585133687
 20
39.8483650955
 30
0.0
 10
71.926527986
 20
39.8227556998
 30
0.0
 10
71.5851405498
 20
39.8401616835
 30
0.0
 10
71.2661059628
 20
39.9150054795
 30
0.0
 10
71.0704672316
 20
40.0033895815
 30
0.0
 10
70.979351158
 20
40.05599424
 30
0.0
  0
SPLINE
  5
29B
100
AcDbEntity
  8
0
100
AcDbSpline
 62
7
  6
BYLAYER
 70
0
 71
3
 72
14
 73
10
 74
0
 42
0.0000001
 43
0.0000001
 44
0.0000000001
 40
0.0
 40
0.0
 40
0.0
 40
0.0
 40
0.145293031
 40
0.2844073057
 40
0.5436435527
 40
0.66461846
 40
0.7804296855
 40
0.8918824819
 40
1.0
 40
1.0
 40
1.0
 40
1.0
 10
65.2511157313
 20
57.6885017559
 30
0.0
 10
65.4525312478
 20
57.8035525927
 30
0.0
 10
65.8548917396
 20
58.0151803779
 30
0.0
 10
66.6522255275
 20
58.359115238
 30
0.0
 10
67.4537140004
 20
58.5929035635
 30
0.0
 10
68.2404470007
 20
58.6941722753
 30
0.0
 10
68.7976473218
 20
58.7031648402
 30
0.0
 10
69.3314410806
 20
58.6467389454
 30
0.0
 10
69.673478924
 20
58.5644679974
 30
0.0
 10
69.8381026166
 20
58.5125763821
 30
0.0
  0
SPLINE
  5
29C
100
AcDbEntity
  8
0
100
AcDbSpline
 62
7
  6
BYLAYER
 70
0
 71
3
 72
15
 73
11
 74
0
 42
0.0000001
 43
0.0000001
 44
0.0000000001
 40
0.0
 40
0.0
 40
0.0
 40
0.0
 40
0.1080120324
 40
0.2180610271
 40
0.331999884
 40
0.4513608671
 40
0.5772684174
 40
0.7104911964
 40
0.8514446497
 40
1.0
 40
1.0
 40
1.0
 40
1.0
 10
64.6939218484
 20
43.0497216642
 30
0.0
 10
64.6062060991
 20
43.1003641412
 30
0.0
 10
64.4375445933
 20
43.2180230496
 30
0.0
 10
64.2147260388
 20
43.4373473774
 30
0.0
 10
64.0230644237
 20
43.6976255184
 30
0.0
 10
63.8643994513
 20
43.995969663
 30
0.0
 10
63.7399041199
 20
44.3293104486
 30
0.0
 10
63.650557519
 20
44.6944819612
 30
0.0
 10
63.5971232201
 20
45.0878980563
 30
0.0
 10
63.5858641993
 20
45.359562208
 30
0.0
 10
63.5858641993
 20
45.4988658924
 30
0.0
  0
SPLINE
  5
29D
100
AcDbEntity
  8
0
100
AcDbSpline
 62
7
  6
BYLAYER
 70
0
 71
3
 72
19
 73
15
 74
0
 42
0.0000001
 43
0.0000001
 44
0.0000000001
 40
0.0
 40
0.0
 40
0.0
 40
0.0
 40
0.0479928338
 40
0.0965526035
 40
0.1462140891
 40
0.1974513562
 40
0.2506621994
 40
0.3061560427
 40
0.3641558073
 40
0.4248006289
 40
0.5541166344
 40
0.6939397144
 40
0.8431429024
 40
1.0
 40
1.0
 40
1.0
 40
1.0
 10
72.9652097645
 20
57.2130430119
 30
0.0
 10
72.8115177526
 20
57.3017818668
 30
0.0
 10
72.489857844
 20
57.4596277319
 30
0.0
 10
71.9757696058
 20
57.6317939897
 30
0.0
 10
71.432093526
 20
57.7389783548
 30
0.0
 10
70.8624456968
 20
57.7807603621
 30
0.0
 10
70.2703094269
 20
57.7570488751
 30
0.0
 10
69.6592599309
 20
57.6682548059
 30
0.0
 10
69.0328697326
 20
57.5150619282
 30
0.0
 10
68.1636931458
 20
57.2199806766
 30
0.0
 10
67.060723834
 20
56.6883112373
 30
0.0
 10
65.766525322
 20
55.833968768
 30
0.0
 10
64.5026795679
 20
54.7700434724
 30
0.0
 10
63.7155608299
 20
53.9537955587
 30
0.0
 10
63.3329396692
 20
53.5178578352
 30
0.0
  0
SPLINE
  5
29E
100
AcDbEntity
  8
0
100
AcDbSpline
 62
7
  6
BYLAYER
 70
0
 71
3
 72
9
 73
5
 74
0
 42
0.0000001
 43
0.0000001
 44
0.0000000001
 40
0.0
 40
0.0
 40
0.0
 40
0.0
 40
0.4959066767
 40
1.0
 40
1.0
 40
1.0
 40
1.0
 10
68.9483841243
 20
60.1077616902
 30
0.0
 10
68.7714909662
 20
60.2098896074
 30
0.0
 10
68.3977147512
 20
60.3875594769
 30
0.0
 10
68.0008466841
 20
60.5043441465
 30
0.0
 10
67.7978946402
 20
60.5481693259
 30
0.0
  0
SPLINE
  5
29F
100
AcDbEntity
  8
0
100
AcDbSpline
 62
7
  6
BYLAYER
 70
0
 71
3
 72
25
 73
21
 74
0
 42
0.0000001
 43
0.0000001
 44
0.0000000001
 40
0.0
 40
0.0
 40
0.0
 40
0.0
 40
0.062690264
 40
0.1292827648
 40
0.1990473015
 40
0.2711285204
 40
0.3445416448
 40
0.4182508318
 40
0.4912048099
 40
0.5623856652
 40
0.6308558436
 40
0.6958091574
 40
0.7566287682
 40
0.8129559767
 40
0.8647727724
 40
0.912494033
 40
0.935122401
 40
0.9571173523
 40
0.9786718046
 40
1.0
 40
1.0
 40
1.0
 40
1.0
 10
63.5861177228
 20
45.5495842065
 30
0.0
 10
63.5883305502
 20
45.7715577059
 30
0.0
 10
63.6224591289
 20
46.2293250257
 30
0.0
 10
63.7511369101
 20
46.923467168
 30
0.0
 10
63.9563090212
 20
47.6336067794
 30
0.0
 10
64.233528816
 20
48.3446805981
 30
0.0
 10
64.5770225895
 20
49.0417752837
 30
0.0
 10
64.9795017634
 20
49.7101541657
 30
0.0
 10
65.4324811995
 20
50.3356964913
 30
0.0
 10
65.9263996616
 20
50.9051996544
 30
0.0
 10
66.4508770829
 20
51.4066777218
 30
0.0
 10
66.9949903147
 20
51.8296049817
 30
0.0
 10
67.5475365751
 20
52.1651093965
 30
0.0
 10
68.0974640727
 20
52.4060150075
 30
0.0
 10
68.6337281723
 20
52.546834419
 30
0.0
 10
69.0685348008
 20
52.5776248286
 30
0.0
 10
69.3946618525
 20
52.5463807992
 30
0.0
 10
69.624326014
 20
52.4970270626
 30
0.0
 10
69.8419192773
 20
52.4216129914
 30
0.0
 10
69.9784130745
 20
52.3539837175
 30
0.0
 10
70.0438176083
 20
52.3162225671
 30
0.0
  0
SPLINE
  5
2A0
100
AcDbEntity
  8
0
100
AcDbSpline
 62
7
  6
BYLAYER
 70
0
 71
3
 72
9
 73
5
 74
0
 42
0.0000001
 43
0.0000001
 44
0.0000000001
 40
0.0
 40
0.0
 40
0.0
 40
0.0
 40
0.5126577062
 40
1.0
 40
1.0
 40
1.0
 40
1.0
 10
70.0678747648
 20
58.5126106951
 30
0.0
 10
69.9870866238
 20
58.7522143653
 30
0.0
 10
69.8029332248
 20
59.2112179551
 30
0.0
 10
69.5609926029
 20
59.6430338188
 30
0.0
 10
69.4286204402
 20
59.8436720093
 30
0.0
  0
SPLINE
  5
2A1
100
AcDbEntity
  8
0
100
AcDbSpline
 62
7
  6
BYLAYER
 70
0
 71
3
 72
9
 73
5
 74
0
 42
0.0000001
 43
0.0000001
 44
0.0000000001
 40
0.0
 40
0.0
 40
0.0
 40
0.0
 40
0.4943180602
 40
1.0
 40
1.0
 40
1.0
 40
1.0
 10
19.8958639622
 20
74.6421514238
 30
0.0
 10
20.5443861702
 20
75.5958518345
 30
0.0
 10
21.9916173591
 20
77.4362440286
 30
0.0
 10
23.6720462311
 20
79.0657709302
 30
0.0
 10
24.5701929608
 20
79.8308313623
 30
0.0
  0
SPLINE
  5
2A2
100
AcDbEntity
  8
0
100
AcDbSpline
 62
7
  6
BYLAYER
 70
0
 71
3
 72
11
 73
7
 74
0
 42
0.0000001
 43
0.0000001
 44
0.0000000001
 40
0.0
 40
0.0
 40
0.0
 40
0.0
 40
0.2661909863
 40
0.5235002179
 40
0.768913153
 40
1.0
 40
1.0
 40
1.0
 40
1.0
 10
73.7967625774
 20
68.7524357347
 30
0.0
 10
74.2221888167
 20
67.7462446846
 30
0.0
 10
74.9762656764
 20
65.7311375653
 30
0.0
 10
75.8148354695
 20
62.684402832
 30
0.0
 10
76.3302264059
 20
59.7123965582
 30
0.0
 10
76.4551387279
 20
57.7556172438
 30
0.0
 10
76.4551387279
 20
56.8072504515
 30
0.0
  0
SPLINE
  5
2A3
100
AcDbEntity
  8
0
100
AcDbSpline
 62
7
  6
BYLAYER
 70
0
 71
3
 72
11
 73
7
 74
0
 42
0.0000001
 43
0.0000001
 44
0.0000000001
 40
0.0
 40
0.0
 40
0.0
 40
0.0
 40
0.2637859657
 40
0.5167650929
 40
0.7612852441
 40
1.0
 40
1.0
 40
1.0
 40
1.0
 10
22.3776854346
 20
77.8120368145
 30
0.0
 10
22.1617869618
 20
78.1049134729
 30
0.0
 10
21.7698173128
 20
78.7025412157
 30
0.0
 10
21.3045636602
 20
79.6470556166
 30
0.0
 10
20.9795432991
 20
80.6123479607
 30
0.0
 10
20.8572382105
 20
81.2703437369
 30
0.0
 10
20.8210208574
 20
81.5976167523
 30
0.0
  0
SPLINE
  5
2A4
100
AcDbEntity
  8
0
100
AcDbSpline
 62
7
  6
BYLAYER
 70
0
 71
3
 72
9
 73
5
 74
0
 42
0.0000001
 43
0.0000001
 44
0.0000000001
 40
0.0
 40
0.0
 40
0.0
 40
0.0
 40
0.4921472454
 40
1.0
 40
1.0
 40
1.0
 40
1.0
 10
33.9151067763
 20
85.225682485
 30
0.0
 10
35.1599081154
 20
85.6905023262
 30
0.0
 10
37.7427594323
 20
86.4960523549
 30
0.0
 10
40.3917309151
 20
87.0403728892
 30
0.0
 10
41.745716658
 20
87.2566971018
 30
0.0
  0
SPLINE
  5
2A5
100
AcDbEntity
  8
0
100
AcDbSpline
 62
7
  6
BYLAYER
 70
0
 71
3
 72
11
 73
7
 74
0
 42
0.0000001
 43
0.0000001
 44
0.0000000001
 40
0.0
 40
0.0
 40
0.0
 40
0.0
 40
0.2367765592
 40
0.4844503481
 40
0.7399476795
 40
1.0
 40
1.0
 40
1.0
 40
1.0
 10
33.9151067763
 20
85.225682485
 30
0.0
 10
33.1351058324
 20
85.558020552
 30
0.0
 10
31.5039143981
 20
86.1572872468
 30
0.0
 10
28.9414473604
 20
86.8438849265
 30
0.0
 10
26.2470190041
 20
87.3202244063
 30
0.0
 10
24.4055557824
 20
87.4849948059
 30
0.0
 10
23.4753155584
 20
87.5271783568
 30
0.0
  0
SPLINE
  5
2A6
100
AcDbEntity
  8
0
100
AcDbSpline
 62
7
  6
BYLAYER
 70
0
 71
3
 72
16
 73
12
 74
0
 42
0.0000001
 43
0.0000001
 44
0.0000000001
 40
0.0
 40
0.0
 40
0.0
 40
0.0
 40
0.1536817568
 40
0.3043773653
 40
0.4480361523
 40
0.5815342294
 40
0.7027389082
 40
0.811176051
 40
0.9086512818
 40
0.9547665997
 40
1.0
 40
1.0
 40
1.0
 40
1.0
 10
23.4753155584
 20
87.5271783568
 30
0.0
 10
23.3056553668
 20
87.5348719279
 30
0.0
 10
22.9684007544
 20
87.5303932551
 30
0.0
 10
22.4764045428
 20
87.4650586074
 30
0.0
 10
22.0181107074
 20
87.3429325442
 30
0.0
 10
21.6119036336
 20
87.1686365444
 30
0.0
 10
21.2736664967
 20
86.9481372054
 30
0.0
 10
21.0169958786
 20
86.6889618434
 30
0.0
 10
20.878711885
 20
86.4417940552
 30
0.0
 10
20.8249176508
 20
86.2392649809
 30
0.0
 10
20.8159845025
 20
86.1381018894
 30
0.0
 10
20.815963191
 20
86.0881142183
 30
0.0
  0
SPLINE
  5
2A7
100
AcDbEntity
  8
0
100
AcDbSpline
 62
7
  6
BYLAYER
 70
0
 71
3
 72
23
 73
19
 74
0
 42
0.0000001
 43
0.0000001
 44
0.0000000001
 40
0.0
 40
0.0
 40
0.0
 40
0.0
 40
0.0628666954
 40
0.128984701
 40
0.1972309773
 40
0.2665889628
 40
0.3361486124
 40
0.4051667507
 40
0.4730345748
 40
0.5392743129
 40
0.6035498103
 40
0.665663685
 40
0.7255767036
 40
0.7834178401
 40
0.8394501738
 40
0.8940099869
 40
0.9474356469
 40
1.0
 40
1.0
 40
1.0
 40
1.0
 10
57.3145802863
 20
45.7565098468
 30
0.0
 10
57.3653877624
 20
46.175364258
 30
0.0
 10
57.4871618346
 20
47.0326860056
 30
0.0
 10
57.7231836615
 20
48.3354851736
 30
0.0
 10
58.0194748229
 20
49.6706470554
 30
0.0
 10
58.3778835464
 20
51.0144967996
 30
0.0
 10
58.8013914074
 20
52.3448581514
 30
0.0
 10
59.2936425422
 20
53.64087282
 30
0.0
 10
59.8590619044
 20
54.8825642907
 30
0.0
 10
60.5021337386
 20
56.0501322105
 30
0.0
 10
61.2266370727
 20
57.1233663495
 30
0.0
 10
62.0343292146
 20
58.0814479409
 30
0.0
 10
62.9228564426
 20
58.9037851333
 30
0.0
 10
63.8841927955
 20
59.5716027033
 30
0.0
 10
64.9036941693
 20
60.0705110255
 30
0.0
 10
65.9612625685
 20
60.3928677868
 30
0.0
 10
67.0334337942
 20
60.5380917661
 30
0.0
 10
67.74804682
 20
60.5201285566
 30
0.0
 10
68.098928286
 20
60.4835653618
 30
0.0
  0
SPLINE
  5
2A8
100
AcDbEntity
  8
0
100
AcDbSpline
 62
7
  6
BYLAYER
 70
0
 71
3
 72
9
 73
5
 74
0
 42
0.0000001
 43
0.0000001
 44
0.0000000001
 40
0.0
 40
0.0
 40
0.0
 40
0.0
 40
0.5033066322
 40
1.0
 40
1.0
 40
1.0
 40
1.0
 10
68.2110260401
 20
60.4709315668
 30
0.0
 10
68.6580517748
 20
60.4167445334
 30
0.0
 10
69.5376282769
 20
60.2192363912
 30
0.0
 10
70.3601498148
 20
59.8502298713
 30
0.0
 10
70.7450018215
 20
59.6280507042
 30
0.0
  0
SPLINE
  5
2A9
100
AcDbEntity
  8
0
100
AcDbSpline
 62
7
  6
BYLAYER
 70
0
 71
3
 72
9
 73
5
 74
0
 42
0.0000001
 43
0.0000001
 44
0.0000000001
 40
0.0
 40
0.0
 40
0.0
 40
0.0
 40
0.2455119841
 40
1.0
 40
1.0
 40
1.0
 40
1.0
 10
57.2295060049
 20
44.688546095
 30
0.0
 10
57.2326845214
 20
44.7761794539
 30
0.0
 10
57.2496118163
 20
45.1329693598
 30
0.0
 10
57.2821293445
 20
45.4889858302
 30
0.0
 10
57.3145802863
 20
45.7565098468
 30
0.0
  0
SPLINE
  5
2AA
100
AcDbEntity
  8
0
100
AcDbSpline
 62
7
  6
BYLAYER
 70
0
 71
3
 72
11
 73
7
 74
0
 42
0.0000001
 43
0.0000001
 44
0.0000000001
 40
0.0
 40
0.0
 40
0.0
 40
0.0
 40
0.2583587669
 40
0.5113657815
 40
0.7586784535
 40
1.0
 40
1.0
 40
1.0
 40
1.0
 10
21.3538848712
 20
70.1656526718
 30
0.0
 10
23.7842229691
 20
68.0186710157
 30
0.0
 10
28.6749197478
 20
63.8590309145
 30
0.0
 10
36.1685413229
 20
57.9789103473
 30
0.0
 10
43.7246628332
 20
52.5374706798
 30
0.0
 10
48.8538612011
 20
49.1704494699
 30
0.0
 10
51.4236363949
 20
47.5669799151
 30
0.0
  0
SPLINE
  5
2AB
100
AcDbEntity
  8
0
100
AcDbSpline
 62
7
  6
BYLAYER
 70
0
 71
3
 72
9
 73
5
 74
0
 42
0.0000001
 43
0.0000001
 44
0.0000000001
 40
0.0
 40
0.0
 40
0.0
 40
0.0
 40
0.5000518802
 40
1.0
 40
1.0
 40
1.0
 40
1.0
 10
71.4562466768
 20
59.1520283937
 30
0.0
 10
71.7855018627
 20
58.8982398903
 30
0.0
 10
72.3955479328
 20
58.3242196726
 30
0.0
 10
72.8749164134
 20
57.6364384224
 30
0.0
 10
73.0749175685
 20
57.2720959896
 30
0.0
  0
SPLINE
  5
2AC
100
AcDbEntity
  8
0
100
AcDbSpline
 62
7
  6
BYLAYER
 70
0
 71
3
 72
9
 73
5
 74
0
 42
0.0000001
 43
0.0000001
 44
0.0000000001
 40
0.0
 40
0.0
 40
0.0
 40
0.0
 40
0.4983713359
 40
1.0
 40
1.0
 40
1.0
 40
1.0
 10
73.7967625774
 20
68.7524357347
 30
0.0
 10
72.3114164819
 20
68.2334143895
 30
0.0
 10
69.3646747094
 20
67.0926301295
 30
0.0
 10
66.5054634262
 20
65.746536248
 30
0.0
 10
65.0981048678
 20
65.0202821103
 30
0.0
  0
SPLINE
  5
2AD
100
AcDbEntity
  8
0
100
AcDbSpline
 62
7
  6
BYLAYER
 70
0
 71
3
 72
11
 73
7
 74
0
 42
0.0000001
 43
0.0000001
 44
0.0000000001
 40
0.0
 40
0.0
 40
0.0
 40
0.0
 40
0.2473502311
 40
0.4961703601
 40
0.7468799115
 40
1.0
 40
1.0
 40
1.0
 40
1.0
 10
65.0981048678
 20
65.0202821103
 30
0.0
 10
63.9329705988
 20
64.4190255372
 30
0.0
 10
61.6316139879
 20
63.1420158159
 30
0.0
 10
58.2893259387
 20
61.0159484485
 30
0.0
 10
55.0511099321
 20
58.6820751598
 30
0.0
 10
52.9710451449
 20
57.0048901645
 30
0.0
 10
51.9472540075
 20
56.1376913801
 30
0.0
  0
SPLINE
  5
2AE
100
AcDbEntity
  8
0
100
AcDbSpline
 62
7
  6
BYLAYER
 70
0
 71
3
 72
11
 73
7
 74
0
 42
0.0000001
 43
0.0000001
 44
0.0000000001
 40
0.0
 40
0.0
 40
0.0
 40
0.0
 40
0.231086847
 40
0.4764997821
 40
0.7338090137
 40
1.0
 40
1.0
 40
1.0
 40
1.0
 10
54.605630158
 20
44.1925060969
 30
0.0
 10
54.605630158
 20
45.1408728892
 30
0.0
 10
54.480717836
 20
47.0976522036
 30
0.0
 10
53.9653268996
 20
50.0696584774
 30
0.0
 10
53.1267571065
 20
53.1163932106
 30
0.0
 10
52.3726802468
 20
55.1315003299
 30
0.0
 10
51.9472540075
 20
56.1376913801
 30
0.0
  0
SPLINE
  5
2AF
100
AcDbEntity
  8
0
100
AcDbSpline
 62
7
  6
BYLAYER
 70
0
 71
3
 72
12
 73
8
 74
0
 42
0.0000001
 43
0.0000001
 44
0.0000000001
 40
0.0
 40
0.0
 40
0.0
 40
0.0
 40
0.2895296613
 40
0.5486717894
 40
0.7816305497
 40
0.891837322
 40
1.0
 40
1.0
 40
1.0
 40
1.0
 10
15.8913588696
 20
75.2802221246
 30
0.0
 10
15.7991977453
 20
75.3334301708
 30
0.0
 10
15.6320121753
 20
75.4486172737
 30
0.0
 10
15.4322109519
 20
75.6583840565
 30
0.0
 10
15.3250074752
 20
75.8561336568
 30
0.0
 10
15.2832044849
 20
76.0173484665
 30
0.0
 10
15.2762829734
 20
76.0977790348
 30
0.0
 10
15.2762906152
 20
76.1375347012
 30
0.0
  0
SPLINE
  5
2B0
100
AcDbEntity
  8
0
100
AcDbSpline
 62
7
  6
BYLAYER
 70
0
 71
3
 72
12
 73
8
 74
0
 42
0.0000001
 43
0.0000001
 44
0.0000000001
 40
0.0
 40
0.0
 40
0.0
 40
0.0
 40
0.2499349995
 40
0.5123780015
 40
0.7681095077
 40
0.8880155971
 40
1.0
 40
1.0
 40
1.0
 40
1.0
 10
19.8947046925
 20
74.2897706464
 30
0.0
 10
19.6856926506
 20
74.2151599195
 30
0.0
 10
19.2377887775
 20
74.1142163284
 30
0.0
 10
18.5525944686
 20
74.094592345
 30
0.0
 10
17.9888474664
 20
74.1855587166
 30
0.0
 10
17.5778804736
 20
74.3243433689
 30
0.0
 10
17.3916933558
 20
74.4140232012
 30
0.0
 10
17.3055783199
 20
74.4637406156
 30
0.0
  0
SPLINE
  5
2B1
100
AcDbEntity
  8
0
100
AcDbSpline
 62
7
  6
BYLAYER
 70
0
 71
3
 72
9
 73
5
 74
0
 42
0.0000001
 43
0.0000001
 44
0.0000000001
 40
0.0
 40
0.0
 40
0.0
 40
0.0
 40
0.2372655021
 40
1.0
 40
1.0
 40
1.0
 40
1.0
 10
51.4943476618
 20
42.9677073489
 30
0.0
 10
51.5341426571
 20
42.9447322173
 30
0.0
 10
51.6983097283
 20
42.8417682576
 30
0.0
 10
51.8481581605
 20
42.7167780222
 30
0.0
 10
51.9539689831
 20
42.6137015841
 30
0.0
  0
SPLINE
  5
2B2
100
AcDbEntity
  8
0
100
AcDbSpline
 62
7
  6
BYLAYER
 70
0
 71
3
 72
9
 73
5
 74
0
 42
0.0000001
 43
0.0000001
 44
0.0000000001
 40
0.0
 40
0.0
 40
0.0
 40
0.0
 40
0.2280646719
 40
1.0
 40
1.0
 40
1.0
 40
1.0
 10
50.7198952647
 20
43.2618276969
 30
0.0
 10
50.7678590496
 20
43.2599623902
 30
0.0
 10
50.9775694005
 20
43.2351307298
 30
0.0
 10
51.1768690941
 20
43.1509995388
 30
0.0
 10
51.3175702305
 20
43.0697675375
 30
0.0
  0
SPLINE
  5
2B3
100
AcDbEntity
  8
0
100
AcDbSpline
 62
7
  6
BYLAYER
 70
0
 71
3
 72
9
 73
5
 74
0
 42
0.0000001
 43
0.0000001
 44
0.0000000001
 40
0.0
 40
0.0
 40
0.0
 40
0.0
 40
0.245102003
 40
1.0
 40
1.0
 40
1.0
 40
1.0
 10
57.1950704391
 20
43.4377690089
 30
0.0
 10
57.1877195283
 20
43.5158596047
 30
0.0
 10
57.1616972855
 20
43.8348301406
 30
0.0
 10
57.1512033832
 20
44.1550274193
 30
0.0
 10
57.1512033832
 20
44.3966045534
 30
0.0
  0
SPLINE
  5
2B4
100
AcDbEntity
  8
0
100
AcDbSpline
 62
7
  6
BYLAYER
 70
0
 71
3
 72
9
 73
5
 74
0
 42
0.0000001
 43
0.0000001
 44
0.0000000001
 40
0.0
 40
0.0
 40
0.0
 40
0.0
 40
0.2590607308
 40
1.0
 40
1.0
 40
1.0
 40
1.0
 10
20.9825182734
 20
76.5866102157
 30
0.0
 10
21.0049623451
 20
76.573652418
 30
0.0
 10
21.090589661
 20
76.5219279987
 30
0.0
 10
21.172094974
 20
76.4632155037
 30
0.0
 10
21.228835131
 20
76.4155218183
 30
0.0
  0
SPLINE
  5
2B5
100
AcDbEntity
  8
0
100
AcDbSpline
 62
7
  6
BYLAYER
 70
0
 71
3
 72
11
 73
7
 74
0
 42
0.0000001
 43
0.0000001
 44
0.0000000001
 40
0.0
 40
0.0
 40
0.0
 40
0.0
 40
0.2619773896
 40
0.52303113
 40
0.7721513045
 40
1.0
 40
1.0
 40
1.0
 40
1.0
 10
19.0104981058
 20
76.9086493245
 30
0.0
 10
19.1860945841
 20
76.9328238943
 30
0.0
 10
19.5408368735
 20
76.9542973222
 30
0.0
 10
20.0632505127
 20
76.9101839111
 30
0.0
 10
20.5506647565
 20
76.7930856699
 30
0.0
 10
20.8490098167
 20
76.6636896153
 30
0.0
 10
20.9825182734
 20
76.5866102157
 30
0.0
  0
SPLINE
  5
2B6
100
AcDbEntity
  8
0
100
AcDbSpline
 62
7
  6
BYLAYER
 70
0
 71
3
 72
15
 73
11
 74
0
 42
0.0000001
 43
0.0000001
 44
0.0000000001
 40
0.0
 40
0.0
 40
0.0
 40
0.0
 40
0.1151887522
 40
0.2389585531
 40
0.3687892403
 40
0.501652072
 40
0.6342946269
 40
0.7634430755
 40
0.8861916411
 40
1.0
 40
1.0
 40
1.0
 40
1.0
 10
31.4886007669
 20
85.9992099116
 30
0.0
 10
31.5909432123
 20
86.0551737475
 30
0.0
 10
31.8132226323
 20
86.1534891295
 30
0.0
 10
32.1729479452
 20
86.2571672771
 30
0.0
 10
32.5601882628
 20
86.3196497523
 30
0.0
 10
32.9608882204
 20
86.3386365918
 30
0.0
 10
33.3605532911
 20
86.3134288097
 30
0.0
 10
33.744826599
 20
86.2450112485
 30
0.0
 10
34.0996515451
 20
86.1357426149
 30
0.0
 10
34.3176723488
 20
86.033841283
 30
0.0
 10
34.4174794046
 20
85.9762189561
 30
0.0
  0
SPLINE
  5
2B7
100
AcDbEntity
  8
0
100
AcDbSpline
 62
7
  6
BYLAYER
 70
0
 71
3
 72
19
 73
15
 74
0
 42
0.0000001
 43
0.0000001
 44
0.0000000001
 40
0.0
 40
0.0
 40
0.0
 40
0.0
 40
0.0428412973
 40
0.0874491664
 40
0.1352562986
 40
0.1871944459
 40
0.243671996
 40
0.3046639963
 40
0.3698005888
 40
0.4384475164
 40
0.5827272465
 40
0.729827037
 40
0.8713589966
 40
1.0
 40
1.0
 40
1.0
 40
1.0
 10
15.2762906152
 20
76.1375347012
 30
0.0
 10
15.2763021065
 20
76.1973169277
 30
0.0
 10
15.2922609036
 20
76.3198690122
 30
0.0
 10
15.3625759316
 20
76.4968003465
 30
0.0
 10
15.4765802455
 20
76.6645563162
 30
0.0
 10
15.6311588823
 20
76.8197576268
 30
0.0
 10
15.82267989
 20
76.9597138979
 30
0.0
 10
16.0470794808
 20
77.0817912987
 30
0.0
 10
16.2996933262
 20
77.1835507983
 30
0.0
 10
16.6730645862
 20
77.2911465769
 30
0.0
 10
17.1734227654
 20
77.3613424688
 30
0.0
 10
17.780064268
 20
77.3445746778
 30
0.0
 10
18.3537563209
 20
77.2298277509
 30
0.0
 10
18.705733796
 20
77.0846011002
 30
0.0
 10
18.8611949859
 20
76.9948475709
 30
0.0
  0
ENDSEC
  0
SECTION
  2
OBJECTS
  0
DICTIONARY
  5
C
100
AcDbDictionary
280
0
281
1
  3
ACAD_GROUP
350
D
  3
ACAD_MLINESTYLE
350
17
  3
ACAD_LAYOUT
350
1A
  3
ACAD_PLOTSETTINGS
350
19
  3
ACAD_PLOTSTYLENAME
350
E
  0
DICTIONARY
  5
D
102
{ACAD_REACTORS
330
C
102
}
100
AcDbDictionary
280
0
281
1
  0
ACDBDICTIONARYWDFLT
  5
E
102
{ACAD_REACTORS
330
C
102
}
100
AcDbDictionary
281
1
  3
Normal
350
F
100
AcDbDictionaryWithDefault
340
F
  0
DICTIONARY
  5
17
102
{ACAD_REACTORS
330
C
102
}
100
AcDbDictionary
280
0
281
1
  3
Standard
350
18
  0
DICTIONARY
  5
19
102
{ACAD_REACTORS
330
C
102
}
100
AcDbDictionary
281
1
  0
DICTIONARY
  5
1A
102
{ACAD_REACTORS
330
C
102
}
100
AcDbDictionary
281
1
  3
Model
350
2B8
  3
Layout1
350
2B9
  0
ACDBPLACEHOLDER
  5
F
102
{ACAD_REACTORS
330
E
102
}
  0
MLINESTYLE
  5
18
102
{ACAD_REACTORS
330
17
102
}
100
AcDbMlineStyle
  2
STANDARD
 70
0
  3

 62
256
 51
90.0
 52
90.0
 71
2
 49
0.5
 62
256
  6
BYLAYER
 49
-0.5
 62
256
  6
BYLAYER
  0
LAYOUT
  5
2B8
102
{ACAD_REACTORS
330
1A
102
}
100
AcDbPlotSettings
  1

  2
none_device
  4

  6

 40
0.0
 41
0.0
 42
0.0
 43
0.0
 44
210.0
 45
297.0
 46
0.0
 47
0.0
 48
0.0
 49
0.0
140
0.0
141
0.0
142
1.0
143
1.0
 70
1024
 72
1
 73
0
 74
0
  7

 75
0
147
1.0
148
0.0
149
0.0
100
AcDbLayout
  1
Model
 70
0
 71
0
 10
0.0
 20
0.0
 11
210.0
 21
297.0
 12
0.0
 22
0.0
 32
0.0
 14
0.0
 24
0.0
 34
0.0
 15
0.0
 25
0.0
 35
0.0
146
0.0
 13
0.0
 23
0.0
 33
0.0
 16
1.0
 26
0.0
 36
0.0
 17
0.0
 27
1.0
 37
0.0
 76
0
330
210
345
0
346
0
  0
LAYOUT
  5
2B9
102
{ACAD_REACTORS
330
1A
102
}
100
AcDbPlotSettings
  1

  2
none_device
  4

  6

 40
0.0
 41
0.0
 42
0.0
 43
0.0
 44
210.0
 45
297.0
 46
0.0
 47
0.0
 48
0.0
 49
0.0
140
0.0
141
0.0
142
1.0
143
1.0
 70
0
 72
1
 73
0
 74
0
  7

 75
0
147
1.0
148
0.0
149
0.0
100
AcDbLayout
  1
Layout1
 70
0
 71
1
 10
0.0
 20
0.0
 11
210.0
 21
297.0
 12
0.0
 22
0.0
 32
0.0
 14
0.0
 24
0.0
 34
0.0
 15
0.0
 25
0.0
 35
0.0
146
0.0
 13
0.0
 23
0.0
 33
0.0
 16
1.0
 26
0.0
 36
0.0
 17
0.0
 27
1.0
 37
0.0
 76
0
330
211
345
0
346
0
  0
ENDSEC
  0
EOF
