999
DXF file: C:\Users\sesa63760\Dev\_Creo\CAD\MCADID0004753_3D-CAD\drw0001_2.dxf
999
Pro/ENGINEER 2019471 by Parametric Technology Corporation
  0
SECTION
  2
HEADER
  9
$ACADVER
  1
AC1024
  9
$DWGCODEPAGE
  3
ANSI_1252
  9
$EXTMAX
 10
59.7184370943
 20
84.4589324619
 30
0.0
  9
$EXTMIN
 10
0.0
 20
0.0
 30
0.0
  9
$LIMMIN
 10
0.0
 20
0.0
  9
$LIMMAX
 10
59.7184370943
 20
84.4589324619
  9
$VIEWCTR
 10
29.8592185471
 20
42.2294662309
  9
$VIEWSIZE
 40
84.4589324619
  9
$CLAYER
  8
0
  9
$LTSCALE
 40
5.5054711531
  9
$CELTYPE
  6
BYLAYER
  9
$DIMSCALE
 40
1.0
  9
$DIMASZ
 40
0.7109337749
  9
$DIMEXO
 40
1.0
  9
$DIMDLI
 40
3.8037800694
  9
$DIMEXE
 40
1.0
  9
$DIMCEN
 40
0.9008952796
  9
$DIMLFAC
 40
1.0
  9
$DIMBLK
  1
_FILLED
  9
$DIMALT
 70
0
  9
$DIMALTF
 40
0.0393700787
  9
$DIMTXT
 40
0.9953072849
  9
$DIMTOL
 70
1
  9
$DIMLIM
 70
0
  9
$DIMTFAC
 40
1.0
  9
$DIMTP
 40
0.01
  9
$DIMTM
 40
0.01
  9
$DIMGAP
 40
0.625
  9
$DIMDSEP
 70
46
  9
$AUNITS
 70
0
  9
$PDMODE
 70
3
  9
$PDSIZE
 40
0.3125
  9
$HANDSEED
  5
2F7
  9
$TILEMODE
 70
1
  9
$MEASUREMENT
 70
1
  9
$INSUNITS
 70
4
  0
ENDSEC
  0
SECTION
  2
CLASSES
  0
CLASS
  1
ACDBDICTIONARYWDFLT
  2
AcDbDictionaryWithDefault
  3
AutoCAD 2000
 90
0
 91
1
280
0
281
0
  0
CLASS
  1
ACDBPLACEHOLDER
  2
AcDbPlaceHolder
  3
AutoCAD 2000
 90
0
 91
1
280
0
281
0
  0
CLASS
  1
LAYOUT
  2
AcDbLayout
  3
AutoCAD 2000
 90
0
 91
0
280
0
281
0
  0
ENDSEC
  0
SECTION
  2
TABLES
  0
TABLE
  2
VPORT
  5
8
100
AcDbSymbolTable
 70
2
  0
VPORT
  5
1F4
100
AcDbSymbolTableRecord
100
AcDbViewportTableRecord
  2
*ACTIVE
 70
0
 10
0.0
 20
0.0
 11
1.0
 21
1.0
 12
29.8592185471
 22
42.2294662309
 13
0.0
 23
0.0
 14
1.0
 24
1.0
 15
0.0
 25
0.0
 16
0.0
 26
0.0
 36
1.0
 17
0.0
 27
0.0
 37
0.0
 40
84.4589324619
 41
0.7070707071
 42
50.0
 43
0.0
 44
0.0
 50
0.0
 51
0.0
 71
0
 72
100
 73
1
 74
1
 75
0
 76
0
 77
0
 78
0
  0
ENDTAB
  0
TABLE
  2
LTYPE
  5
5
100
AcDbSymbolTable
 70
6
  0
LTYPE
  5
14
100
AcDbSymbolTableRecord
100
AcDbLinetypeTableRecord
  2
BYBLOCK
 70
0
  3

 72
65
 73
0
 40
0.0
  0
LTYPE
  5
15
100
AcDbSymbolTableRecord
100
AcDbLinetypeTableRecord
  2
BYLAYER
 70
0
  3

 72
65
 73
0
 40
0.0
  0
LTYPE
  5
16
100
AcDbSymbolTableRecord
100
AcDbLinetypeTableRecord
  2
CONTINUOUS
 70
64
  3
Solid line
 72
65
 73
0
 40
0.0
  0
LTYPE
  5
1F5
100
AcDbSymbolTableRecord
100
AcDbLinetypeTableRecord
  2
CENTER
 70
64
  3
____ _ ____ _ ____ _ ____ _ ____ _ ____ _ ____
 72
65
 73
4
 40
0.6
 49
0.375
 74
0
 49
-0.075
 74
0
 49
0.075
 74
0
 49
-0.075
 74
0
  0
LTYPE
  5
1F6
100
AcDbSymbolTableRecord
100
AcDbLinetypeTableRecord
  2
HIDDEN
 70
64
  3
- - - - - - - - - - - - - - - - - - - -
 72
65
 73
2
 40
0.2
 49
0.1
 74
0
 49
-0.1
 74
0
  0
LTYPE
  5
1F7
100
AcDbSymbolTableRecord
100
AcDbLinetypeTableRecord
  2
PHANTOM
 70
64
  3
_____ _ _ _____ _ _ _____ _ _ _____
 72
65
 73
6
 40
0.8
 49
0.45
 74
0
 49
-0.05
 74
0
 49
0.1
 74
0
 49
-0.05
 74
0
 49
0.1
 74
0
 49
-0.05
 74
0
  0
LTYPE
  5
1F8
100
AcDbSymbolTableRecord
100
AcDbLinetypeTableRecord
  2
DOT
 70
64
  3
. . . . . . . . . . . . . . . . . . . .
 72
65
 73
2
 40
0.2
 49
0.1
 74
0
 49
-0.1
 74
0
  0
LTYPE
  5
1F9
100
AcDbSymbolTableRecord
100
AcDbLinetypeTableRecord
  2
DASHED
 70
64
  3
- - - - - - - - - - - - - - - - - - - -
 72
65
 73
2
 40
0.2
 49
0.1
 74
0
 49
-0.1
 74
0
  0
ENDTAB
  0
TABLE
  2
LAYER
  5
2
100
AcDbSymbolTable
 70
36
  0
LAYER
  5
10
100
AcDbSymbolTableRecord
100
AcDbLayerTableRecord
  2
0
 70
0
 62
7
  6
CONTINUOUS
370
-3
390
F
  0
LAYER
  5
1FA
100
AcDbSymbolTableRecord
100
AcDbLayerTableRecord
  2
DEFAULT_1
 70
0
 62
7
  6
CENTER
370
-3
390
F
  0
LAYER
  5
1FB
100
AcDbSymbolTableRecord
100
AcDbLayerTableRecord
  2
DEFAULT_2
 70
0
 62
7
  6
HIDDEN
370
-3
390
F
  0
LAYER
  5
1FC
100
AcDbSymbolTableRecord
100
AcDbLayerTableRecord
  2
DEFAULT_3
 70
0
 62
7
  6
PHANTOM
370
-3
390
F
  0
LAYER
  5
1FD
100
AcDbSymbolTableRecord
100
AcDbLayerTableRecord
  2
00_COMPONENTS
 70
0
 62
7
  6
CONTINUOUS
370
-3
390
F
  0
LAYER
  5
1FE
100
AcDbSymbolTableRecord
100
AcDbLayerTableRecord
  2
01_1_DEFAULT_DATUMS
 70
0
 62
7
  6
CONTINUOUS
370
-3
390
F
  0
LAYER
  5
1FF
100
AcDbSymbolTableRecord
100
AcDbLayerTableRecord
  2
01_PLANES
 70
0
 62
7
  6
CONTINUOUS
370
-3
390
F
  0
LAYER
  5
200
100
AcDbSymbolTableRecord
100
AcDbLayerTableRecord
  2
02_COORD_SYS
 70
0
 62
7
  6
CONTINUOUS
370
-3
390
F
  0
LAYER
  5
201
100
AcDbSymbolTableRecord
100
AcDbLayerTableRecord
  2
03_AXES
 70
0
 62
7
  6
CONTINUOUS
370
-3
390
F
  0
LAYER
  5
202
100
AcDbSymbolTableRecord
100
AcDbLayerTableRecord
  2
04_POINTS
 70
0
 62
7
  6
CONTINUOUS
370
-3
390
F
  0
LAYER
  5
203
100
AcDbSymbolTableRecord
100
AcDbLayerTableRecord
  2
05_CURVES
 70
0
 62
7
  6
CONTINUOUS
370
-3
390
F
  0
LAYER
  5
204
100
AcDbSymbolTableRecord
100
AcDbLayerTableRecord
  2
06_SURFS
 70
0
 62
7
  6
CONTINUOUS
370
-3
390
F
  0
LAYER
  5
205
100
AcDbSymbolTableRecord
100
AcDbLayerTableRecord
  2
07_COSMETICS
 70
0
 62
7
  6
CONTINUOUS
370
-3
390
F
  0
LAYER
  5
206
100
AcDbSymbolTableRecord
100
AcDbLayerTableRecord
  2
10_NOTES
 70
0
 62
7
  6
CONTINUOUS
370
-3
390
F
  0
LAYER
  5
207
100
AcDbSymbolTableRecord
100
AcDbLayerTableRecord
  2
11_NOTES_PUB
 70
0
 62
7
  6
CONTINUOUS
370
-3
390
F
  0
LAYER
  5
208
100
AcDbSymbolTableRecord
100
AcDbLayerTableRecord
  2
13_REF_GTOL
 70
0
 62
7
  6
CONTINUOUS
370
-3
390
F
  0
LAYER
  5
209
100
AcDbSymbolTableRecord
100
AcDbLayerTableRecord
  2
16_MISC
 70
0
 62
7
  6
CONTINUOUS
370
-3
390
F
  0
LAYER
  5
20A
100
AcDbSymbolTableRecord
100
AcDbLayerTableRecord
  2
17_NO_PRINT
 70
0
 62
7
  6
CONTINUOUS
370
-3
390
F
  0
LAYER
  5
20B
100
AcDbSymbolTableRecord
100
AcDbLayerTableRecord
  2
18_DATUM_CAMS_JOINTS
 70
0
 62
7
  6
CONTINUOUS
370
-3
390
F
  0
LAYER
  5
20C
100
AcDbSymbolTableRecord
100
AcDbLayerTableRecord
  2
19_DATUM_FUNCTIONAL
 70
0
 62
7
  6
CONTINUOUS
370
-3
390
F
  0
LAYER
  5
20D
100
AcDbSymbolTableRecord
100
AcDbLayerTableRecord
  2
20_DATUM_KINEMATIC_SCHEME
 70
0
 62
7
  6
CONTINUOUS
370
-3
390
F
  0
ENDTAB
  0
TABLE
  2
STYLE
  5
3
100
AcDbSymbolTable
 70
1
  0
STYLE
  5
11
100
AcDbSymbolTableRecord
100
AcDbTextStyleTableRecord
  2
STANDARD
 70
0
 40
0.0
 41
1.0
 50
0.0
 71
0
 42
0.2
  3
ARIAL.TTF
  4

  0
STYLE
  5
20E
100
AcDbSymbolTableRecord
100
AcDbTextStyleTableRecord
  2
TEXTSTYLE_1
 70
0
 40
0.0
 41
0.8
 50
0.0
 71
0
 42
0.2
  3
gdt
  4

  0
ENDTAB
  0
TABLE
  2
VIEW
  5
6
100
AcDbSymbolTable
 70
0
  0
ENDTAB
  0
TABLE
  2
UCS
  5
7
100
AcDbSymbolTable
 70
0
  0
ENDTAB
  0
TABLE
  2
APPID
  5
9
100
AcDbSymbolTable
 70
1
  0
APPID
  5
20F
100
AcDbSymbolTableRecord
100
AcDbRegAppTableRecord
  2
ACAD
 70
0
  0
ENDTAB
  0
TABLE
  2
BLOCK_RECORD
  5
1
100
AcDbSymbolTable
 70
0
  0
BLOCK_RECORD
  5
210
100
AcDbSymbolTableRecord
100
AcDbBlockTableRecord
  2
*Model_Space
  0
BLOCK_RECORD
  5
211
100
AcDbSymbolTableRecord
100
AcDbBlockTableRecord
  2
*Paper_Space
  0
BLOCK_RECORD
  5
212
100
AcDbSymbolTableRecord
100
AcDbBlockTableRecord
  2
_FILLED
  0
ENDTAB
  0
TABLE
  2
DIMSTYLE
  5
A
100
AcDbSymbolTable
 70
1
100
AcDbDimStyleTable
 71
0
  0
DIMSTYLE
105
213
100
AcDbSymbolTableRecord
100
AcDbDimStyleTableRecord
  2
STANDARD
 70
0
  3

  4

 40
1.0
 41
0.7109337749
 42
1.0
 43
0.38
 44
1.0
 45
0.0
 46
0.0
 47
0.01
 48
0.01
140
0.9953072849
141
0.09
142
0.0
143
25.4
144
1.0
145
0.0
146
1.0
147
0.625
 71
1
 72
0
 73
0
 74
0
 75
0
 76
0
 77
1
 78
8
 79
2
170
0
171
1
172
0
173
0
174
0
175
0
176
0
177
0
178
0
270
2
179
2
271
2
272
2
273
2
274
2
275
0
280
0
281
0
282
0
283
1
284
8
285
0
286
0
287
3
288
0
340
11
278
46
341
212
342
212
343
212
344
212
  0
ENDTAB
  0
ENDSEC
  0
SECTION
  2
BLOCKS
  0
BLOCK
  5
20
100
AcDbEntity
  8
0
100
AcDbBlockBegin
  2
*Model_Space
 70
0
 10
0.0
 20
0.0
 30
0.0
  3
*Model_Space
  1

  0
ENDBLK
  5
21
100
AcDbEntity
  8
0
100
AcDbBlockEnd
  0
BLOCK
  5
1C
100
AcDbEntity
  8
0
100
AcDbBlockBegin
  2
*Paper_Space
 70
0
 10
0.0
 20
0.0
 30
0.0
  3
*Paper_Space
  1

  0
ENDBLK
  5
1D
100
AcDbEntity
  8
0
100
AcDbBlockEnd
  0
BLOCK
  5
214
100
AcDbEntity
  8
0
100
AcDbBlockBegin
  2
_FILLED
 70
64
 10
0.0
 20
0.0
  3
_FILLED
  1

  0
SOLID
  5
215
100
AcDbEntity
  8
0
  6
BYBLOCK
 62
0
100
AcDbTrace
 10
0.0
 20
0.0
 11
-1.0
 21
0.25
 12
-1.0
 22
-0.25
 13
-1.0
 23
-0.25
  0
ENDBLK
  5
216
100
AcDbEntity
  8
0
  6
BYBLOCK
 62
0
100
AcDbBlockEnd
  0
ENDSEC
  0
SECTION
  2
ENTITIES
  0
LINE
  5
217
100
AcDbEntity
  8
0
100
AcDbLine
 62
7
  6
BYLAYER
 10
8.8477261724
 20
44.2933119582
 11
8.8477261724
 21
50.3554897847
  0
LINE
  5
218
100
AcDbEntity
  8
0
100
AcDbLine
 62
7
  6
BYLAYER
 10
9.3477261724
 20
43.727527229
 11
9.3477261724
 21
50.9212745139
  0
LINE
  5
219
100
AcDbEntity
  8
0
100
AcDbLine
 62
7
  6
BYLAYER
 10
15.5477261724
 20
43.200082746
 11
15.5477261724
 21
51.4487189969
  0
LINE
  5
21A
100
AcDbEntity
  8
0
100
AcDbLine
 62
7
  6
BYLAYER
 10
22.0070525081
 20
54.9391545782
 11
22.6477261724
 21
55.2244008715
  0
LINE
  5
21B
100
AcDbEntity
  8
0
100
AcDbLine
 62
7
  6
BYLAYER
 10
23.0977261724
 20
55.2244008715
 11
23.3477261724
 21
55.3244008715
  0
LINE
  5
21C
100
AcDbEntity
  8
0
100
AcDbLine
 62
7
  6
BYLAYER
 10
16.5477261724
 20
42.1272862874
 11
16.5477261724
 21
52.5215154555
  0
LINE
  5
21D
100
AcDbEntity
  8
0
100
AcDbLine
 62
7
  6
BYLAYER
 10
40.497726323
 20
27.8244008715
 11
51.4977260218
 21
27.8244008715
  0
LINE
  5
21E
100
AcDbEntity
  8
0
100
AcDbLine
 62
7
  6
BYLAYER
 10
51.7477261724
 20
28.0744008715
 11
47.0654339976
 21
28.0744008715
  0
LINE
  5
21F
100
AcDbEntity
  8
0
100
AcDbLine
 62
7
  6
BYLAYER
 10
44.9300183472
 20
28.0744008715
 11
40.2477261724
 21
28.0744008715
  0
LINE
  5
220
100
AcDbEntity
  8
0
100
AcDbLine
 62
7
  6
BYLAYER
 10
40.2477261724
 20
29.4744008715
 11
41.0180801006
 21
29.4744008715
  0
LINE
  5
221
100
AcDbEntity
  8
0
100
AcDbLine
 62
7
  6
BYLAYER
 10
50.9773722445
 20
29.4744008715
 11
51.7477261724
 21
29.4744008715
  0
LINE
  5
222
100
AcDbEntity
  8
0
100
AcDbLine
 62
7
  6
BYLAYER
 10
40.4978048593
 20
29.7244008715
 11
41.2227907886
 21
29.7244008715
  0
LINE
  5
223
100
AcDbEntity
  8
0
100
AcDbLine
 62
7
  6
BYLAYER
 10
50.7795357085
 20
29.7244008715
 11
51.4976474855
 21
29.7244008715
  0
LINE
  5
224
100
AcDbEntity
  8
0
100
AcDbLine
 62
7
  6
BYLAYER
 10
41.3589817975
 20
29.9744008796
 11
41.3106663351
 21
29.9744008796
  0
LINE
  5
225
100
AcDbEntity
  8
0
100
AcDbLine
 62
7
  6
BYLAYER
 10
50.6364705473
 20
31.1744008632
 11
50.6847860082
 21
31.1744008632
  0
LINE
  5
226
100
AcDbEntity
  8
0
100
AcDbLine
 62
7
  6
BYLAYER
 10
41.3589817975
 20
31.1744079017
 11
41.3106663351
 21
31.1744098849
  0
LINE
  5
227
100
AcDbEntity
  8
0
100
AcDbLine
 62
7
  6
BYLAYER
 10
50.6364705473
 20
29.9744019032
 11
50.6847860097
 21
29.9743968465
  0
LINE
  5
228
100
AcDbEntity
  8
0
100
AcDbLine
 62
7
  6
BYLAYER
 10
52.3477261724
 20
31.4244008715
 11
39.6477261724
 21
31.4244008715
  0
LINE
  5
229
100
AcDbEntity
  8
0
100
AcDbLine
 62
7
  6
BYLAYER
 10
39.6477261724
 20
32.0244008715
 11
52.3477261724
 21
32.0244008715
  0
LINE
  5
22A
100
AcDbEntity
  8
0
100
AcDbLine
 62
7
  6
BYLAYER
 10
51.9977261724
 20
32.1244008715
 11
39.9977261724
 21
32.1244008715
  0
LINE
  5
22B
100
AcDbEntity
  8
0
100
AcDbLine
 62
7
  6
BYLAYER
 10
21.9477261724
 20
39.8010074192
 11
21.9477261724
 21
40.881123812
  0
LINE
  5
22C
100
AcDbEntity
  8
0
100
AcDbLine
 62
7
  6
BYLAYER
 10
21.9477261724
 20
40.9375442851
 11
21.9477261724
 21
47.0744008715
  0
LINE
  5
22D
100
AcDbEntity
  8
0
100
AcDbLine
 62
7
  6
BYLAYER
 10
21.9477261724
 20
47.5744008715
 11
21.9477261724
 21
53.7112574578
  0
LINE
  5
22E
100
AcDbEntity
  8
0
100
AcDbLine
 62
7
  6
BYLAYER
 10
21.9477261724
 20
53.7676779309
 11
21.9477261724
 21
54.8477943237
  0
LINE
  5
22F
100
AcDbEntity
  8
0
100
AcDbLine
 62
7
  6
BYLAYER
 10
22.0070525081
 20
39.7096471647
 11
22.0070525081
 21
40.6184025862
  0
LINE
  5
230
100
AcDbEntity
  8
0
100
AcDbLine
 62
7
  6
BYLAYER
 10
22.0070525081
 20
40.8472147601
 11
22.0070525081
 21
47.0955889446
  0
LINE
  5
231
100
AcDbEntity
  8
0
100
AcDbLine
 62
7
  6
BYLAYER
 10
22.0070525081
 20
47.5532132679
 11
22.0070525081
 21
53.8015872298
  0
LINE
  5
232
100
AcDbEntity
  8
0
100
AcDbLine
 62
7
  6
BYLAYER
 10
22.0070525081
 20
54.0303993793
 11
22.0070525081
 21
54.9391545782
  0
LINE
  5
233
100
AcDbEntity
  8
0
100
AcDbLine
 62
7
  6
BYLAYER
 10
22.6477261724
 20
39.4244008715
 11
22.6477261724
 21
55.2244008715
  0
LINE
  5
234
100
AcDbEntity
  8
0
100
AcDbLine
 62
7
  6
BYLAYER
 10
23.0977261724
 20
55.2244008715
 11
23.0977261724
 21
39.4244008715
  0
LINE
  5
235
100
AcDbEntity
  8
0
100
AcDbLine
 62
7
  6
BYLAYER
 10
21.9477261724
 20
47.0744008715
 11
22.6477261724
 21
47.3244008715
  0
LINE
  5
236
100
AcDbEntity
  8
0
100
AcDbLine
 62
7
  6
BYLAYER
 10
51.9977261724
 20
33.1244008715
 11
39.9977261724
 21
33.1244008715
  0
LINE
  5
237
100
AcDbEntity
  8
0
100
AcDbLine
 62
7
  6
BYLAYER
 10
52.3477261724
 20
33.2244008715
 11
39.6477261724
 21
33.2244008715
  0
LINE
  5
238
100
AcDbEntity
  8
0
100
AcDbLine
 62
7
  6
BYLAYER
 10
39.6477261724
 20
34.3744008715
 11
52.3477261724
 21
34.3744008715
  0
LINE
  5
239
100
AcDbEntity
  8
0
100
AcDbLine
 62
7
  6
BYLAYER
 10
23.3477261724
 20
38.4744008715
 11
23.3477261724
 21
56.3243977696
  0
LINE
  5
23A
100
AcDbEntity
  8
0
100
AcDbLine
 62
7
  6
BYLAYER
 10
52.6977261724
 20
35.6744008715
 11
39.2977261724
 21
35.6744008715
  0
LINE
  5
23B
100
AcDbEntity
  8
0
100
AcDbLine
 62
7
  6
BYLAYER
 10
53.1712756131
 20
35.8244008715
 11
51.9490335151
 21
35.8244008715
  0
LINE
  5
23C
100
AcDbEntity
  8
0
100
AcDbLine
 62
7
  6
BYLAYER
 10
49.0753780229
 20
35.8244008715
 11
48.0297074577
 21
35.8244008715
  0
LINE
  5
23D
100
AcDbEntity
  8
0
100
AcDbLine
 62
7
  6
BYLAYER
 10
47.4301978955
 20
35.8244008715
 11
46.3080551572
 21
35.8244008715
  0
LINE
  5
23E
100
AcDbEntity
  8
0
100
AcDbLine
 62
7
  6
BYLAYER
 10
45.6873971876
 20
35.8244008715
 11
44.5652544493
 21
35.8244008715
  0
LINE
  5
23F
100
AcDbEntity
  8
0
100
AcDbLine
 62
7
  6
BYLAYER
 10
43.9657448871
 20
35.8244008715
 11
42.9200743219
 21
35.8244008715
  0
LINE
  5
240
100
AcDbEntity
  8
0
100
AcDbLine
 62
7
  6
BYLAYER
 10
40.0464188297
 20
35.8244008715
 11
38.909023169
 21
35.8244008715
  0
LINE
  5
241
100
AcDbEntity
  8
0
100
AcDbLine
 62
7
  6
BYLAYER
 10
53.360894569
 20
36.0244008715
 11
53.3008525206
 21
36.0244008715
  0
LINE
  5
242
100
AcDbEntity
  8
0
100
AcDbLine
 62
7
  6
BYLAYER
 10
52.9191488594
 20
36.0244008715
 11
52.7431144805
 21
36.0244008715
  0
LINE
  5
243
100
AcDbEntity
  8
0
100
AcDbLine
 62
7
  6
BYLAYER
 10
49.0407076992
 20
36.0244008715
 11
48.6157231142
 21
36.0244008715
  0
LINE
  5
244
100
AcDbEntity
  8
0
100
AcDbLine
 62
7
  6
BYLAYER
 10
47.1911856573
 20
36.0244008715
 11
46.735121021
 21
36.0244008715
  0
LINE
  5
245
100
AcDbEntity
  8
0
100
AcDbLine
 62
7
  6
BYLAYER
 10
45.2603313238
 20
36.0244008715
 11
44.8042666875
 21
36.0244008715
  0
LINE
  5
246
100
AcDbEntity
  8
0
100
AcDbLine
 62
7
  6
BYLAYER
 10
43.3797292306
 20
36.0244008715
 11
42.9547446456
 21
36.0244008715
  0
LINE
  5
247
100
AcDbEntity
  8
0
100
AcDbLine
 62
7
  6
BYLAYER
 10
39.2523378643
 20
36.0244008715
 11
39.0763034854
 21
36.0244008715
  0
LINE
  5
248
100
AcDbEntity
  8
0
100
AcDbLine
 62
7
  6
BYLAYER
 10
38.6945998242
 20
36.0244008715
 11
38.6345577758
 21
36.0244008715
  0
LINE
  5
249
100
AcDbEntity
  8
0
100
AcDbLine
 62
7
  6
BYLAYER
 10
22.0070525081
 20
39.7096471647
 11
22.6477261724
 21
39.4244008715
  0
LINE
  5
24A
100
AcDbEntity
  8
0
100
AcDbLine
 62
7
  6
BYLAYER
 10
53.9977261724
 20
37.8244008715
 11
37.9977261724
 21
37.8244008715
  0
LINE
  5
24B
100
AcDbEntity
  8
0
100
AcDbLine
 62
7
  6
BYLAYER
 10
27.8477261724
 20
38.3244008715
 11
37.7477261724
 21
38.3244008715
  0
LINE
  5
24C
100
AcDbEntity
  8
0
100
AcDbLine
 62
7
  6
BYLAYER
 10
23.3477261724
 20
38.4744008715
 11
27.8477261724
 21
38.4744008715
  0
LINE
  5
24D
100
AcDbEntity
  8
0
100
AcDbLine
 62
7
  6
BYLAYER
 10
23.0977261724
 20
39.4244008715
 11
23.3477261724
 21
39.3244008715
  0
LINE
  5
24E
100
AcDbEntity
  8
0
100
AcDbLine
 62
7
  6
BYLAYER
 10
27.8477261724
 20
38.3244498475
 11
27.8477261724
 21
38.4744008715
  0
LINE
  5
24F
100
AcDbEntity
  8
0
100
AcDbLine
 62
7
  6
BYLAYER
 10
23.0977261724
 20
39.4244008715
 11
22.6477261724
 21
39.4244008715
  0
LINE
  5
250
100
AcDbEntity
  8
0
100
AcDbLine
 62
7
  6
BYLAYER
 10
16.5477046935
 20
42.1272862874
 11
21.9477261724
 21
42.1272862874
  0
LINE
  5
251
100
AcDbEntity
  8
0
100
AcDbLine
 62
7
  6
BYLAYER
 10
43.7173193886
 20
42.6886920887
 11
23.3477261724
 21
42.6886920887
  0
LINE
  5
252
100
AcDbEntity
  8
0
100
AcDbLine
 62
7
  6
BYLAYER
 10
45.9977261724
 20
43.718849596
 11
23.3477261724
 21
43.718849596
  0
LINE
  5
253
100
AcDbEntity
  8
0
100
AcDbLine
 62
7
  6
BYLAYER
 10
9.3477165509
 20
43.727527229
 11
15.5477261724
 21
43.727527229
  0
LWPOLYLINE
  5
254
100
AcDbEntity
  8
0
100
AcDbPolyline
 62
7
  6
BYLAYER
 90
5
 70
0
 10
50.7833744164
 20
29.720815979
 10
50.7815939018
 20
29.7219476357
 10
50.7348649419
 20
29.7776455915
 10
50.6911075959
 20
29.9009137125
 10
50.684780247
 20
29.97432338
  0
LWPOLYLINE
  5
255
100
AcDbEntity
  8
0
100
AcDbPolyline
 62
7
  6
BYLAYER
 90
4
 70
0
 10
41.2172385567
 20
31.4244008715
 10
41.2605877939
 20
31.3711554465
 10
41.304342044
 20
31.2479033022
 10
41.3106725437
 20
31.1744538699
  0
LINE
  5
256
100
AcDbEntity
  8
0
100
AcDbLine
 62
7
  6
BYLAYER
 10
22.6477261724
 20
47.3244008715
 11
21.9477261724
 21
47.5744008715
  0
LINE
  5
257
100
AcDbEntity
  8
0
100
AcDbLine
 62
7
  6
BYLAYER
 10
11.3056947693
 20
47.3244008715
 11
11.5656947682
 21
47.3244008715
  0
LWPOLYLINE
  5
258
100
AcDbEntity
  8
0
100
AcDbPolyline
 62
7
  6
BYLAYER
 90
3
 70
0
 10
41.2750238882
 20
31.3304901495
 10
41.303558801
 20
31.2522645053
 10
41.3038239067
 20
31.2493628525
  0
LINE
  5
259
100
AcDbEntity
  8
0
100
AcDbLine
 62
7
  6
BYLAYER
 10
37.9977261724
 20
37.8244008715
 11
37.9977261724
 21
38.0744008714
  0
LINE
  5
25A
100
AcDbEntity
  8
0
100
AcDbLine
 62
7
  6
BYLAYER
 10
38.6345577758
 20
37.8244008715
 11
38.6345577758
 21
36.0244008715
  0
LINE
  5
25B
100
AcDbEntity
  8
0
100
AcDbLine
 62
7
  6
BYLAYER
 10
38.6945998242
 20
36.0244008715
 11
38.6945998242
 21
37.8244008715
  0
LINE
  5
25C
100
AcDbEntity
  8
0
100
AcDbLine
 62
7
  6
BYLAYER
 10
39.0763034854
 20
37.8244008715
 11
39.0763034854
 21
36.0244008715
  0
LINE
  5
25D
100
AcDbEntity
  8
0
100
AcDbLine
 62
7
  6
BYLAYER
 10
39.2523378643
 20
36.0244008715
 11
39.2523378643
 21
37.8244008715
  0
LINE
  5
25E
100
AcDbEntity
  8
0
100
AcDbLine
 62
7
  6
BYLAYER
 10
39.2977261724
 20
35.6744008715
 11
39.2977261724
 21
35.8244008715
  0
LINE
  5
25F
100
AcDbEntity
  8
0
100
AcDbLine
 62
7
  6
BYLAYER
 10
39.6477261724
 20
31.4244008715
 11
39.6477261724
 21
32.0244008715
  0
LINE
  5
260
100
AcDbEntity
  8
0
100
AcDbLine
 62
7
  6
BYLAYER
 10
39.6477261724
 20
33.2244008715
 11
39.6477261724
 21
34.3744008715
  0
LINE
  5
261
100
AcDbEntity
  8
0
100
AcDbLine
 62
7
  6
BYLAYER
 10
15.5477261724
 20
50.9212745139
 11
9.3477165496
 21
50.9212745139
  0
LINE
  5
262
100
AcDbEntity
  8
0
100
AcDbLine
 62
7
  6
BYLAYER
 10
40.0464188297
 20
37.8244008715
 11
40.0464188297
 21
35.8244008715
  0
LINE
  5
263
100
AcDbEntity
  8
0
100
AcDbLine
 62
7
  6
BYLAYER
 10
40.2477261724
 20
29.4744008715
 11
40.2477261724
 21
28.0744008715
  0
LINE
  5
264
100
AcDbEntity
  8
0
100
AcDbLine
 62
7
  6
BYLAYER
 10
40.4977261724
 20
34.3744008715
 11
40.4977261724
 21
35.6744008715
  0
LINE
  5
265
100
AcDbEntity
  8
0
100
AcDbLine
 62
7
  6
BYLAYER
 10
41.3106663351
 20
31.1744098849
 11
41.3106663351
 21
29.9744008796
  0
LINE
  5
266
100
AcDbEntity
  8
0
100
AcDbLine
 62
7
  6
BYLAYER
 10
41.3589817975
 20
31.1744008479
 11
41.3589817975
 21
29.9744008827
  0
LINE
  5
267
100
AcDbEntity
  8
0
100
AcDbLine
 62
7
  6
BYLAYER
 10
21.9477261724
 20
52.5215154555
 11
16.5477046971
 21
52.5215154555
  0
LINE
  5
268
100
AcDbEntity
  8
0
100
AcDbLine
 62
7
  6
BYLAYER
 10
42.9200743219
 20
35.8244008715
 11
42.9200743219
 21
37.8244008715
  0
LINE
  5
269
100
AcDbEntity
  8
0
100
AcDbLine
 62
7
  6
BYLAYER
 10
42.9547446456
 20
37.8244008715
 11
42.9547446456
 21
36.0244008715
  0
LINE
  5
26A
100
AcDbEntity
  8
0
100
AcDbLine
 62
7
  6
BYLAYER
 10
43.3797292306
 20
36.0244008715
 11
43.3797292306
 21
37.8244008715
  0
LWPOLYLINE
  5
26B
100
AcDbEntity
  8
0
100
AcDbPolyline
 62
7
  6
BYLAYER
 90
4
 70
0
 10
41.3106722507
 20
29.974400899
 10
41.3012834792
 20
29.8851321482
 10
41.2552772373
 20
29.7689647377
 10
41.2227907886
 20
29.7290701194
  0
LINE
  5
26C
100
AcDbEntity
  8
0
100
AcDbLine
 62
7
  6
BYLAYER
 10
23.3477261724
 20
53.7120271067
 11
45.9977261724
 21
53.7120271067
  0
LINE
  5
26D
100
AcDbEntity
  8
0
100
AcDbLine
 62
7
  6
BYLAYER
 10
23.0977261724
 20
55.2244008715
 11
22.6477261724
 21
55.2244008715
  0
LINE
  5
26E
100
AcDbEntity
  8
0
100
AcDbLine
 62
7
  6
BYLAYER
 10
43.9657448871
 20
37.8244008715
 11
43.9657448871
 21
35.8244008715
  0
LINE
  5
26F
100
AcDbEntity
  8
0
100
AcDbLine
 62
7
  6
BYLAYER
 10
44.5652544493
 20
35.8244008715
 11
44.5652544493
 21
37.8244008715
  0
LINE
  5
270
100
AcDbEntity
  8
0
100
AcDbLine
 62
7
  6
BYLAYER
 10
44.8042666875
 20
37.8244008715
 11
44.8042666875
 21
36.0244008715
  0
LINE
  5
271
100
AcDbEntity
  8
0
100
AcDbLine
 62
7
  6
BYLAYER
 10
44.9300183472
 20
28.0744008715
 11
44.9300183472
 21
31.4244008715
  0
LINE
  5
272
100
AcDbEntity
  8
0
100
AcDbLine
 62
7
  6
BYLAYER
 10
45.2603313238
 20
36.0244008715
 11
45.2603313238
 21
37.8244008715
  0
LINE
  5
273
100
AcDbEntity
  8
0
100
AcDbLine
 62
7
  6
BYLAYER
 10
23.3477261724
 20
55.6707898161
 11
45.9977261724
 21
55.6707898161
  0
LINE
  5
274
100
AcDbEntity
  8
0
100
AcDbLine
 62
7
  6
BYLAYER
 10
51.9977237909
 20
56.3244008715
 11
23.3477261724
 21
56.3244008715
  0
LINE
  5
275
100
AcDbEntity
  8
0
100
AcDbLine
 62
7
  6
BYLAYER
 10
45.6873971876
 20
37.8244008715
 11
45.6873971876
 21
35.8244008715
  0
LINE
  5
276
100
AcDbEntity
  8
0
100
AcDbLine
 62
7
  6
BYLAYER
 10
45.9977261724
 20
55.6707898161
 11
45.9977261724
 21
43.718849596
  0
LINE
  5
277
100
AcDbEntity
  8
0
100
AcDbLine
 62
7
  6
BYLAYER
 10
46.3080551572
 20
35.8244008715
 11
46.3080551572
 21
37.8244008715
  0
LINE
  5
278
100
AcDbEntity
  8
0
100
AcDbLine
 62
7
  6
BYLAYER
 10
46.735121021
 20
37.8244008715
 11
46.735121021
 21
36.0244008715
  0
LINE
  5
279
100
AcDbEntity
  8
0
100
AcDbLine
 62
7
  6
BYLAYER
 10
47.0654339976
 20
31.4244008715
 11
47.0654339976
 21
28.0744008715
  0
LINE
  5
27A
100
AcDbEntity
  8
0
100
AcDbLine
 62
7
  6
BYLAYER
 10
47.1911856573
 20
36.0244008715
 11
47.1911856573
 21
37.8244008715
  0
LINE
  5
27B
100
AcDbEntity
  8
0
100
AcDbLine
 62
7
  6
BYLAYER
 10
47.4301978955
 20
37.8244008715
 11
47.4301978955
 21
35.8244008715
  0
LINE
  5
27C
100
AcDbEntity
  8
0
100
AcDbLine
 62
7
  6
BYLAYER
 10
48.0297074577
 20
35.8244008715
 11
48.0297074577
 21
37.8244008715
  0
LINE
  5
27D
100
AcDbEntity
  8
0
100
AcDbLine
 62
7
  6
BYLAYER
 10
48.6157231142
 20
37.8244008715
 11
48.6157231142
 21
36.0244008715
  0
LINE
  5
27E
100
AcDbEntity
  8
0
100
AcDbLine
 62
7
  6
BYLAYER
 10
50.7207685494
 20
29.8046393457
 11
50.7123057543
 21
29.8411967187
  0
LINE
  5
27F
100
AcDbEntity
  8
0
100
AcDbLine
 62
7
  6
BYLAYER
 10
49.0407076992
 20
36.0244008715
 11
49.0407076992
 21
37.8244008715
  0
LINE
  5
280
100
AcDbEntity
  8
0
100
AcDbLine
 62
7
  6
BYLAYER
 10
49.0753780229
 20
37.8244008715
 11
49.0753780229
 21
35.8244008715
  0
LINE
  5
281
100
AcDbEntity
  8
0
100
AcDbLine
 62
7
  6
BYLAYER
 10
50.6364705473
 20
29.974400882
 11
50.6364705473
 21
31.1744008623
  0
LINE
  5
282
100
AcDbEntity
  8
0
100
AcDbLine
 62
7
  6
BYLAYER
 10
50.6847860097
 20
29.9743968465
 11
50.6847860097
 21
31.1744008632
  0
LINE
  5
283
100
AcDbEntity
  8
0
100
AcDbLine
 62
7
  6
BYLAYER
 10
51.4977261724
 20
34.3744008715
 11
51.4977261724
 21
35.6744008715
  0
LINE
  5
284
100
AcDbEntity
  8
0
100
AcDbLine
 62
7
  6
BYLAYER
 10
51.7477261724
 20
28.0744008715
 11
51.7477261724
 21
29.4744008715
  0
LINE
  5
285
100
AcDbEntity
  8
0
100
AcDbLine
 62
7
  6
BYLAYER
 10
51.9490335151
 20
35.8244008715
 11
51.9490335151
 21
37.8244008715
  0
LINE
  5
286
100
AcDbEntity
  8
0
100
AcDbLine
 62
7
  6
BYLAYER
 10
52.3477261724
 20
31.4244008715
 11
52.3477261724
 21
32.0244008715
  0
LINE
  5
287
100
AcDbEntity
  8
0
100
AcDbLine
 62
7
  6
BYLAYER
 10
52.3477261724
 20
33.2244008715
 11
52.3477261724
 21
34.3744008715
  0
LWPOLYLINE
  5
288
100
AcDbEntity
  8
0
100
AcDbPolyline
 62
7
  6
BYLAYER
 90
4
 70
0
 10
50.684779635
 20
31.1744008451
 10
50.6941840812
 20
31.2637406931
 10
50.7402068079
 20
31.3798866774
 10
50.7726755634
 20
31.4197442911
  0
LINE
  5
289
100
AcDbEntity
  8
0
100
AcDbLine
 62
7
  6
BYLAYER
 10
52.6977261724
 20
35.6744008715
 11
52.6977261724
 21
35.8244008715
  0
LINE
  5
28A
100
AcDbEntity
  8
0
100
AcDbLine
 62
7
  6
BYLAYER
 10
52.7431144805
 20
37.8244008715
 11
52.7431144805
 21
36.0244008715
  0
LINE
  5
28B
100
AcDbEntity
  8
0
100
AcDbLine
 62
7
  6
BYLAYER
 10
52.9191488594
 20
36.0244008715
 11
52.9191488594
 21
37.8244008715
  0
LINE
  5
28C
100
AcDbEntity
  8
0
100
AcDbLine
 62
7
  6
BYLAYER
 10
53.3008525206
 20
37.8244008715
 11
53.3008525206
 21
36.0244008715
  0
LINE
  5
28D
100
AcDbEntity
  8
0
100
AcDbLine
 62
7
  6
BYLAYER
 10
53.360894569
 20
36.0244008715
 11
53.360894569
 21
37.8244008715
  0
LINE
  5
28E
100
AcDbEntity
  8
0
100
AcDbLine
 62
7
  6
BYLAYER
 10
53.9977261724
 20
37.8244008715
 11
53.9977261724
 21
54.3244008715
  0
ARC
  5
28F
100
AcDbEntity
  8
0
100
AcDbCircle
 62
7
  6
BYLAYER
 10
37.399130529
 20
-17.1116818427
 40
72.7881321807
100
AcDbArc
 50
101.692681671
 51
102.2081563768
  0
ARC
  5
290
100
AcDbEntity
  8
0
100
AcDbCircle
 62
7
  6
BYLAYER
 10
39.4190886971
 20
23.8408423426
 40
40.4677307175
100
AcDbArc
 50
137.9957417791
 51
139.0647385027
  0
ARC
  5
291
100
AcDbEntity
  8
0
100
AcDbCircle
 62
7
  6
BYLAYER
 10
12.3913269629
 20
47.3171699054
 40
1.3903017206
100
AcDbArc
 50
91.8506439052
 51
95.2158597453
  0
ARC
  5
292
100
AcDbEntity
  8
0
100
AcDbCircle
 62
7
  6
BYLAYER
 10
12.3907227137
 20
47.3218303954
 40
1.3856056087
100
AcDbArc
 50
95.2084964167
 51
103.8796207787
  0
ARC
  5
293
100
AcDbEntity
  8
0
100
AcDbCircle
 62
7
  6
BYLAYER
 10
12.3914018947
 20
47.3198566891
 40
1.3807719742
100
AcDbArc
 50
91.8125318987
 51
95.2291300528
  0
ARC
  5
294
100
AcDbEntity
  8
0
100
AcDbCircle
 62
7
  6
BYLAYER
 10
12.3912491674
 20
47.3202780896
 40
1.3803384127
100
AcDbArc
 50
95.2244111312
 51
103.8853388382
  0
ARC
  5
295
100
AcDbEntity
  8
0
100
AcDbCircle
 62
7
  6
BYLAYER
 10
40.7046497204
 20
31.1742566922
 40
0.6543320931
100
AcDbArc
 50
0.0126228141
 51
7.3280047099
  0
ARC
  5
296
100
AcDbEntity
  8
0
100
AcDbCircle
 62
7
  6
BYLAYER
 10
40.7077296309
 20
29.9744505381
 40
0.6512521685
100
AcDbArc
 50
359.5678132185
 51
359.9956314177
  0
ARC
  5
297
100
AcDbEntity
  8
0
100
AcDbCircle
 62
7
  6
BYLAYER
 10
40.7755973127
 20
29.9523551241
 40
0.5795902218
100
AcDbArc
 50
332.5652072336
 51
335.4720702761
  0
ARC
  5
298
100
AcDbEntity
  8
0
100
AcDbCircle
 62
7
  6
BYLAYER
 10
39.9977261724
 20
32.6244008715
 40
0.5
100
AcDbArc
 50
90.0
 51
270.0
  0
ARC
  5
299
100
AcDbEntity
  8
0
100
AcDbCircle
 62
7
  6
BYLAYER
 10
37.7476305302
 20
38.0743049171
 40
0.2501044793
100
AcDbArc
 50
0.0219822914
 51
89.9780891243
  0
ARC
  5
29A
100
AcDbEntity
  8
0
100
AcDbCircle
 62
7
  6
BYLAYER
 10
40.4977261724
 20
29.4744008715
 40
0.25
100
AcDbArc
 50
90.0
 51
180.0
  0
ARC
  5
29B
100
AcDbEntity
  8
0
100
AcDbCircle
 62
7
  6
BYLAYER
 10
40.1477261724
 20
32.2744008715
 40
0.25
100
AcDbArc
 50
270.000036775
 51
328.3436263358
  0
ARC
  5
29C
100
AcDbEntity
  8
0
100
AcDbCircle
 62
7
  6
BYLAYER
 10
40.4977261724
 20
28.0744008715
 40
0.25
100
AcDbArc
 50
180.0
 51
270.0000345253
  0
ARC
  5
29D
100
AcDbEntity
  8
0
100
AcDbCircle
 62
7
  6
BYLAYER
 10
40.1477261724
 20
32.9744008715
 40
0.25
100
AcDbArc
 50
31.6563789643
 51
89.9999873184
  0
ARC
  5
29E
100
AcDbEntity
  8
0
100
AcDbCircle
 62
7
  6
BYLAYER
 10
22.0477261724
 20
39.8010017105
 40
0.1
100
AcDbArc
 50
180.0
 51
245.9999999989
  0
ARC
  5
29F
100
AcDbEntity
  8
0
100
AcDbCircle
 62
7
  6
BYLAYER
 10
37.1768595159
 20
110.7103134691
 40
71.7147050089
100
AcDbArc
 50
257.7879717289
 51
258.3111756423
  0
ARC
  5
2A0
100
AcDbEntity
  8
0
100
AcDbCircle
 62
7
  6
BYLAYER
 10
39.820298915
 20
71.1628091001
 40
41.0033186208
100
AcDbArc
 50
220.9425221597
 51
221.9975549871
  0
ARC
  5
2A1
100
AcDbEntity
  8
0
100
AcDbCircle
 62
7
  6
BYLAYER
 10
12.3477261724
 20
47.3244008715
 40
5.8
100
AcDbArc
 50
52.6638954552
 51
307.3365687351
  0
ARC
  5
2A2
100
AcDbEntity
  8
0
100
AcDbCircle
 62
7
  6
BYLAYER
 10
12.3477261724
 20
47.3244008715
 40
5.6
100
AcDbArc
 50
52.8089148306
 51
307.1896386483
  0
ARC
  5
2A3
100
AcDbEntity
  8
0
100
AcDbCircle
 62
7
  6
BYLAYER
 10
12.3901121807
 20
47.3369347299
 40
1.3711160222
100
AcDbArc
 50
116.685867041
 51
122.1875270333
  0
ARC
  5
2A4
100
AcDbEntity
  8
0
100
AcDbCircle
 62
7
  6
BYLAYER
 10
12.3889092244
 20
47.3394761329
 40
1.3614629853
100
AcDbArc
 50
116.6886864437
 51
122.2017451983
  0
ARC
  5
2A5
100
AcDbEntity
  8
0
100
AcDbCircle
 62
7
  6
BYLAYER
 10
12.3819768412
 20
47.3485764728
 40
1.3569300502
100
AcDbArc
 50
122.1586644989
 51
135.0914779311
  0
ARC
  5
2A6
100
AcDbEntity
  8
0
100
AcDbCircle
 62
7
  6
BYLAYER
 10
12.3830972666
 20
47.3517744841
 40
1.354706636
100
AcDbArc
 50
103.8703276444
 51
116.7026497647
  0
ARC
  5
2A7
100
AcDbEntity
  8
0
100
AcDbCircle
 62
7
  6
BYLAYER
 10
12.384183127
 20
47.3459560421
 40
1.3534613987
100
AcDbArc
 50
122.1786332928
 51
135.0784999184
  0
ARC
  5
2A8
100
AcDbEntity
  8
0
100
AcDbCircle
 62
7
  6
BYLAYER
 10
12.3827662348
 20
47.3519168272
 40
1.3475886469
100
AcDbArc
 50
103.8580261379
 51
116.6929011592
  0
ARC
  5
2A9
100
AcDbEntity
  8
0
100
AcDbCircle
 62
7
  6
BYLAYER
 10
12.3712135049
 20
47.3612225074
 40
1.3403799595
100
AcDbArc
 50
135.1495138804
 51
143.6946436876
  0
ARC
  5
2AA
100
AcDbEntity
  8
0
100
AcDbCircle
 62
7
  6
BYLAYER
 10
12.3652252535
 20
47.3660626317
 40
1.3258400633
100
AcDbArc
 50
135.1152371502
 51
143.7100600849
  0
ARC
  5
2AB
100
AcDbEntity
  8
0
100
AcDbCircle
 62
7
  6
BYLAYER
 10
12.3439837243
 20
47.3682588746
 40
1.3129834293
100
AcDbArc
 50
196.6819525302
 51
203.1305910826
  0
ARC
  5
2AC
100
AcDbEntity
  8
0
100
AcDbCircle
 62
7
  6
BYLAYER
 10
12.3426853465
 20
47.3679012524
 40
1.3116370381
100
AcDbArc
 50
193.9296678927
 51
196.6832691168
  0
ARC
  5
2AD
100
AcDbEntity
  8
0
100
AcDbCircle
 62
7
  6
BYLAYER
 10
12.3432364507
 20
47.3682813277
 40
1.3054228531
100
AcDbArc
 50
196.6923662647
 51
203.1409271189
  0
ARC
  5
2AE
100
AcDbEntity
  8
0
100
AcDbCircle
 62
7
  6
BYLAYER
 10
12.333640427
 20
47.3657736599
 40
1.30234594
100
AcDbArc
 50
188.1356281103
 51
193.9346113191
  0
ARC
  5
2AF
100
AcDbEntity
  8
0
100
AcDbCircle
 62
7
  6
BYLAYER
 10
12.3392769694
 20
47.3670925742
 40
1.3012887722
100
AcDbArc
 50
193.9302327756
 51
196.6923060759
  0
ARC
  5
2B0
100
AcDbEntity
  8
0
100
AcDbCircle
 62
7
  6
BYLAYER
 10
12.3477261724
 20
47.3244008715
 40
1.3
100
AcDbArc
 50
201.2878847044
 51
192.013984631
  0
ARC
  5
2B1
100
AcDbEntity
  8
0
100
AcDbCircle
 62
7
  6
BYLAYER
 10
12.3253412149
 20
47.3639187009
 40
1.2869988243
100
AcDbArc
 50
188.1061270115
 51
193.9424473471
  0
ARC
  5
2B2
100
AcDbEntity
  8
0
100
AcDbCircle
 62
7
  6
BYLAYER
 10
12.3477261724
 20
47.3244008715
 40
1.265
100
AcDbArc
 50
235.0125048232
 51
250.3247814898
  0
ARC
  5
2B3
100
AcDbEntity
  8
0
100
AcDbCircle
 62
7
  6
BYLAYER
 10
22.0477261724
 20
54.8478000324
 40
0.1
100
AcDbArc
 50
114.0000000011
 51
180.0
  0
ARC
  5
2B4
100
AcDbEntity
  8
0
100
AcDbCircle
 62
7
  6
BYLAYER
 10
73.2497876794
 20
-35.5429727372
 40
102.9964473036
100
AcDbArc
 50
119.4260032362
 51
119.8360251272
  0
ARC
  5
2B5
100
AcDbEntity
  8
0
100
AcDbCircle
 62
7
  6
BYLAYER
 10
51.2909492779
 20
31.174244406
 40
0.6544787493
100
AcDbArc
 50
172.6189104596
 51
179.9863031682
  0
ARC
  5
2B6
100
AcDbEntity
  8
0
100
AcDbCircle
 62
7
  6
BYLAYER
 10
51.2877263795
 20
29.9744500768
 40
0.6512558341
100
AcDbArc
 50
180.0043280243
 51
180.4321782666
  0
ARC
  5
2B7
100
AcDbEntity
  8
0
100
AcDbCircle
 62
7
  6
BYLAYER
 10
51.2161973419
 20
29.9506303837
 40
0.5755466054
100
AcDbArc
 50
204.5236861239
 51
208.7754395729
  0
ARC
  5
2B8
100
AcDbEntity
  8
0
100
AcDbCircle
 62
7
  6
BYLAYER
 10
51.9977261724
 20
32.6244008715
 40
0.5
100
AcDbArc
 50
270.0
 51
90.0
  0
ARC
  5
2B9
100
AcDbEntity
  8
0
100
AcDbCircle
 62
7
  6
BYLAYER
 10
51.4977261724
 20
29.4744008715
 40
0.25
100
AcDbArc
 50
0.0
 51
90.0
  0
ARC
  5
2BA
100
AcDbEntity
  8
0
100
AcDbCircle
 62
7
  6
BYLAYER
 10
51.8477261724
 20
32.2744008715
 40
0.25
100
AcDbArc
 50
211.6563736642
 51
269.999963225
  0
ARC
  5
2BB
100
AcDbEntity
  8
0
100
AcDbCircle
 62
7
  6
BYLAYER
 10
51.8477261724
 20
32.9744008715
 40
0.25
100
AcDbArc
 50
90.0000126816
 51
148.3436210357
  0
ARC
  5
2BC
100
AcDbEntity
  8
0
100
AcDbCircle
 62
7
  6
BYLAYER
 10
51.4977261724
 20
28.0744008715
 40
0.25
100
AcDbArc
 50
269.9999654747
 51
360.0
  0
ARC
  5
2BD
100
AcDbEntity
  8
0
100
AcDbCircle
 62
7
  6
BYLAYER
 10
73.2484851816
 20
130.1894823971
 40
102.9938142698
100
AcDbArc
 50
240.1639806754
 51
240.5740024424
  0
ARC
  5
2BE
100
AcDbEntity
  8
0
100
AcDbCircle
 62
7
  6
BYLAYER
 10
89.9849762452
 20
111.5912198471
 40
101.0854608095
100
AcDbArc
 50
222.5760845014
 51
223.4073132397
  0
ARC
  5
2BF
100
AcDbEntity
  8
0
100
AcDbCircle
 62
7
  6
BYLAYER
 10
51.9977236595
 20
54.3243997816
 40
2.000000393
100
AcDbArc
 50
0.0000312281
 51
89.9998643948
  0
SPLINE
  5
2C0
100
AcDbEntity
  8
0
100
AcDbSpline
 62
7
  6
BYLAYER
 70
0
 71
3
 72
9
 73
5
 74
0
 42
0.0000001
 43
0.0000001
 44
0.0000000001
 40
0.0
 40
0.0
 40
0.0
 40
0.0
 40
0.4275207257
 40
1.0
 40
1.0
 40
1.0
 40
1.0
 10
11.2965554486
 20
48.1507897955
 30
0.0
 10
11.2090351357
 20
48.0316938677
 30
0.0
 10
11.0514058012
 20
47.7206020636
 30
0.0
 10
11.0239868705
 20
47.3735321625
 30
0.0
 10
11.0512013305
 20
47.1824427279
 30
0.0
  0
SPLINE
  5
2C1
100
AcDbEntity
  8
0
100
AcDbSpline
 62
7
  6
BYLAYER
 70
0
 71
3
 72
15
 73
11
 74
0
 42
0.0000001
 43
0.0000001
 44
0.0000000001
 40
0.0
 40
0.0
 40
0.0
 40
0.0
 40
0.0927869313
 40
0.2279833409
 40
0.3631797506
 40
0.4983761603
 40
0.63357257
 40
0.7687689796
 40
0.9039653893
 40
1.0
 40
1.0
 40
1.0
 40
1.0
 10
11.5657581815
 20
47.3244042769
 30
0.0
 10
11.5614279828
 20
47.4050373188
 30
0.0
 10
11.5812673304
 20
47.6064579404
 30
0.0
 10
11.7350482792
 20
47.9024737417
 30
0.0
 10
12.0409937001
 20
48.1301283919
 30
0.0
 10
12.4243136041
 20
48.2030067586
 30
0.0
 10
12.8095189959
 20
48.0989169186
 30
0.0
 10
13.1173119265
 20
47.831316821
 30
0.0
 10
13.2651039156
 20
47.4850831976
 30
0.0
 10
13.2686137599
 20
47.2462183949
 30
0.0
 10
13.2543763826
 20
47.1486119601
 30
0.0
  0
SPLINE
  5
2C2
100
AcDbEntity
  8
0
100
AcDbSpline
 62
7
  6
BYLAYER
 70
0
 71
3
 72
15
 73
11
 74
0
 42
0.0000001
 43
0.0000001
 44
0.0000000001
 40
0.0
 40
0.0
 40
0.0
 40
0.0
 40
0.0368812285
 40
0.1803187089
 40
0.3237561893
 40
0.4671936697
 40
0.6106311501
 40
0.7540686304
 40
0.8975061108
 40
1.0
 40
1.0
 40
1.0
 40
1.0
 10
12.3477289425
 20
48.6999378164
 30
0.0
 10
12.4008509648
 20
48.7016178525
 30
0.0
 10
12.6614770151
 20
48.6948183297
 30
0.0
 10
13.1222176822
 20
48.5477064922
 30
0.0
 10
13.5945264585
 20
48.0986917934
 30
0.0
 10
13.8269834517
 20
47.4804230679
 30
0.0
 10
13.7658852586
 20
46.8138507126
 30
0.0
 10
13.4157816769
 20
46.2329936453
 30
0.0
 10
12.8948701215
 20
45.8936757664
 30
0.0
 10
12.5096770374
 20
45.8201229141
 30
0.0
 10
12.3477229753
 20
45.8154493201
 30
0.0
  0
SPLINE
  5
2C3
100
AcDbEntity
  8
0
100
AcDbSpline
 62
7
  6
BYLAYER
 70
0
 71
3
 72
15
 73
11
 74
0
 42
0.0000001
 43
0.0000001
 44
0.0000000001
 40
0.0
 40
0.0
 40
0.0
 40
0.0
 40
0.0905343828
 40
0.2224501075
 40
0.3543658322
 40
0.4862815569
 40
0.6181972816
 40
0.7501130064
 40
0.8820287311
 40
1.0
 40
1.0
 40
1.0
 40
1.0
 10
11.3057791238
 20
47.3244042582
 30
0.0
 10
11.3014657127
 20
47.4318403787
 30
0.0
 10
11.3314793515
 20
47.6991211638
 30
0.0
 10
11.5400805298
 20
48.0877349385
 30
0.0
 10
11.946174055
 20
48.3818082031
 30
0.0
 10
12.4485722976
 20
48.4708597234
 30
0.0
 10
12.9480129034
 20
48.329466436
 30
0.0
 10
13.3423910871
 20
47.9785344279
 30
0.0
 10
13.5403954517
 20
47.5000492331
 30
0.0
 10
13.5280417852
 20
47.1577696706
 30
0.0
 10
13.4904230414
 20
47.0027414411
 30
0.0
  0
SPLINE
  5
2C4
100
AcDbEntity
  8
0
100
AcDbSpline
 62
7
  6
BYLAYER
 70
0
 71
3
 72
10
 73
6
 74
0
 42
0.0000001
 43
0.0000001
 44
0.0000000001
 40
0.0
 40
0.0
 40
0.0
 40
0.0
 40
0.0243938339
 40
0.6056238926
 40
1.0
 40
1.0
 40
1.0
 40
1.0
 10
11.0444014918
 20
47.1814697923
 30
0.0
 10
11.0432324204
 20
47.1896545196
 30
0.0
 10
11.0161481131
 20
47.3931975705
 30
0.0
 10
11.0515696807
 20
47.7418961061
 30
0.0
 10
11.2098704437
 20
48.0444187043
 30
0.0
 10
11.291037574
 20
48.154846092
 30
0.0
  0
LINE
  5
2C5
100
AcDbEntity
  8
0
100
AcDbLine
 62
7
  6
BYLAYER
 10
12.3464282624
 20
48.7067464528
 11
12.3477297161
 21
48.70678788
  0
SPLINE
  5
2C6
100
AcDbEntity
  8
0
100
AcDbSpline
 62
7
  6
BYLAYER
 70
0
 71
3
 72
16
 73
12
 74
0
 42
0.0000001
 43
0.0000001
 44
0.0000000001
 40
0.0
 40
0.0
 40
0.0
 40
0.0
 40
0.0385294218
 40
0.1715427059
 40
0.3045559901
 40
0.4375692742
 40
0.5705825584
 40
0.7035958425
 40
0.8366091267
 40
0.9696224108
 40
1.0
 40
1.0
 40
1.0
 40
1.0
 10
13.2543763826
 20
47.1486119601
 30
0.0
 10
13.2485705455
 20
47.1088091896
 30
0.0
 10
13.2111013086
 20
46.9327807932
 30
0.0
 10
13.0522170824
 20
46.6418196977
 30
0.0
 10
12.6913538618
 20
46.3845186307
 30
0.0
 10
12.2456716984
 20
46.3089888409
 30
0.0
 10
11.8032102943
 20
46.4379578469
 30
0.0
 10
11.4547911094
 20
46.7529712614
 30
0.0
 10
11.2753889371
 20
47.1966209482
 30
0.0
 10
11.2996735253
 20
47.5578344536
 30
0.0
 10
11.3666842099
 20
47.7430470385
 30
0.0
 10
11.3809118809
 20
47.7768221476
 30
0.0
  0
SPLINE
  5
2C7
100
AcDbEntity
  8
0
100
AcDbSpline
 62
7
  6
BYLAYER
 70
0
 71
3
 72
15
 73
11
 74
0
 42
0.0000001
 43
0.0000001
 44
0.0000000001
 40
0.0
 40
0.0
 40
0.0
 40
0.0
 40
0.1010327471
 40
0.2319686511
 40
0.3629045551
 40
0.4938404591
 40
0.624776363
 40
0.755712267
 40
0.886648171
 40
1.0
 40
1.0
 40
1.0
 40
1.0
 10
11.3809118809
 20
47.7768221476
 30
0.0
 10
11.4289824139
 20
47.890936924
 30
0.0
 10
11.5857172302
 20
48.1356547162
 30
0.0
 10
11.9705850257
 20
48.399488492
 30
0.0
 10
12.478749232
 20
48.4760899604
 30
0.0
 10
12.9778851715
 20
48.3207664602
 30
0.0
 10
13.3657635473
 20
47.957266255
 30
0.0
 10
13.5594620449
 20
47.4527472646
 30
0.0
 10
13.515094496
 20
46.9299498675
 30
0.0
 10
13.3478333211
 20
46.6287025528
 30
0.0
 10
13.2458813307
 20
46.5081544503
 30
0.0
  0
SPLINE
  5
2C8
100
AcDbEntity
  8
0
100
AcDbSpline
 62
7
  6
BYLAYER
 70
0
 71
3
 72
13
 73
9
 74
0
 42
0.0000001
 43
0.0000001
 44
0.0000000001
 40
0.0
 40
0.0
 40
0.0
 40
0.0
 40
0.0297757505
 40
0.2514942556
 40
0.4732127607
 40
0.6949312657
 40
0.9166497708
 40
1.0
 40
1.0
 40
1.0
 40
1.0
 10
13.2458813307
 20
46.5081544503
 30
0.0
 10
13.2300656932
 20
46.4894540297
 30
0.0
 10
13.0915348843
 20
46.3354144489
 30
0.0
 10
12.7549774963
 20
46.1131202534
 30
0.0
 10
12.1842409568
 20
46.0370311214
 30
0.0
 10
11.6290404113
 20
46.220173979
 30
0.0
 10
11.2915404011
 20
46.5472910219
 30
0.0
 10
11.1654064112
 20
46.7849342196
 30
0.0
 10
11.1365485494
 20
46.8524820004
 30
0.0
  0
SPLINE
  5
2C9
100
AcDbEntity
  8
0
100
AcDbSpline
 62
7
  6
BYLAYER
 70
0
 71
3
 72
14
 73
10
 74
0
 42
0.0000001
 43
0.0000001
 44
0.0000000001
 40
0.0
 40
0.0
 40
0.0
 40
0.0
 40
0.0190849386
 40
0.1996300628
 40
0.380175187
 40
0.5607203113
 40
0.7412654355
 40
0.9218105597
 40
1.0
 40
1.0
 40
1.0
 40
1.0
 10
13.4904230414
 20
47.0027414411
 30
0.0
 10
13.4859764255
 20
46.9844167735
 30
0.0
 10
13.434818978
 20
46.7936981331
 30
0.0
 10
13.2448045789
 20
46.4540866261
 30
0.0
 10
12.7829540287
 20
46.1316489822
 30
0.0
 10
12.2179968161
 20
46.0414673454
 30
0.0
 10
11.6617855777
 20
46.2091944339
 30
0.0
 10
11.3098543956
 20
46.5331529811
 30
0.0
 10
11.1759277574
 20
46.7778569517
 30
0.0
 10
11.1428466003
 20
46.8552579047
 30
0.0
  0
SPLINE
  5
2CA
100
AcDbEntity
  8
0
100
AcDbSpline
 62
7
  6
BYLAYER
 70
0
 71
3
 72
9
 73
5
 74
0
 42
0.0000001
 43
0.0000001
 44
0.0000000001
 40
0.0
 40
0.0
 40
0.0
 40
0.0
 40
0.5000001688
 40
1.0
 40
1.0
 40
1.0
 40
1.0
 10
16.5477046971
 20
52.5215154555
 30
0.0
 10
16.3798353981
 20
52.343862854
 30
0.0
 10
16.04512236
 20
51.9875879012
 30
0.0
 10
15.7128712028
 20
51.629009292
 30
0.0
 10
15.5477261724
 20
51.4488216492
 30
0.0
  0
SPLINE
  5
2CB
100
AcDbEntity
  8
0
100
AcDbSpline
 62
7
  6
BYLAYER
 70
0
 71
3
 72
25
 73
21
 74
0
 42
0.0000001
 43
0.0000001
 44
0.0000000001
 40
0.0
 40
0.0
 40
0.0
 40
0.0
 40
0.0316413889
 40
0.0632034978
 40
0.0946334095
 40
0.1259083473
 40
0.187966772
 40
0.2498031775
 40
0.3117928181
 40
0.3742062779
 40
0.4999999967
 40
0.6257937433
 40
0.6882071971
 40
0.7501968094
 40
0.8120331941
 40
0.8740916209
 40
0.9053665645
 40
0.9367964978
 40
0.9683586178
 40
1.0
 40
1.0
 40
1.0
 40
1.0
 10
14.6627261724
 20
47.3244008715
 30
0.0
 10
14.6627261724
 20
47.2552652005
 30
0.0
 10
14.6529061352
 20
47.1169693662
 30
0.0
 10
14.6094862207
 20
46.9141745495
 30
0.0
 10
14.5394952946
 20
46.7198057969
 30
0.0
 10
14.4150853718
 20
46.4765625702
 30
0.0
 10
14.2079151827
 20
46.2043040209
 30
0.0
 10
13.8995391481
 20
45.9363991417
 30
0.0
 10
13.5479390541
 20
45.7275321887
 30
0.0
 10
13.0371458984
 20
45.5273556657
 30
0.0
 10
12.3477261357
 20
45.426434296
 30
0.0
 10
11.6583063771
 20
45.5273556666
 30
0.0
 10
11.1475132489
 20
45.7275322195
 30
0.0
 10
10.7959132621
 20
45.9363991112
 30
0.0
 10
10.4875372837
 20
46.2043038941
 30
0.0
 10
10.2803670792
 20
46.4765623976
 30
0.0
 10
10.1559571076
 20
46.7198056715
 30
0.0
 10
10.085966136
 20
46.9141744982
 30
0.0
 10
10.0425462113
 20
47.1169693715
 30
0.0
 10
10.0327261724
 20
47.2552652151
 30
0.0
 10
10.0327261724
 20
47.3244008715
 30
0.0
  0
SPLINE
  5
2CC
100
AcDbEntity
  8
0
100
AcDbSpline
 62
7
  6
BYLAYER
 70
0
 71
3
 72
25
 73
21
 74
0
 42
0.0000001
 43
0.0000001
 44
0.0000000001
 40
0.0
 40
0.0
 40
0.0
 40
0.0
 40
0.0316413886
 40
0.0632034974
 40
0.0946334091
 40
0.125908347
 40
0.1879667717
 40
0.2498031773
 40
0.3117928181
 40
0.374206278
 40
0.4999999967
 40
0.6257937433
 40
0.6882071973
 40
0.7501968094
 40
0.812033194
 40
0.8740916208
 40
0.9053665645
 40
0.936796498
 40
0.9683586181
 40
1.0
 40
1.0
 40
1.0
 40
1.0
 10
10.0327261724
 20
47.3244008715
 30
0.0
 10
10.0327261724
 20
47.3935365418
 30
0.0
 10
10.0425462094
 20
47.5318323753
 30
0.0
 10
10.0859661236
 20
47.7346271911
 30
0.0
 10
10.1559570491
 20
47.9289959438
 30
0.0
 10
10.2803669718
 20
48.1722391707
 30
0.0
 10
10.4875371608
 20
48.4444977207
 30
0.0
 10
10.7959131958
 20
48.7124026007
 30
0.0
 10
11.1475132905
 20
48.9212695542
 30
0.0
 10
11.6583064467
 20
49.1214460772
 30
0.0
 10
12.3477262096
 20
49.222367447
 30
0.0
 10
13.0371459682
 20
49.1214460762
 30
0.0
 10
13.5479390964
 20
48.9212695232
 30
0.0
 10
13.8995390828
 20
48.7124026316
 30
0.0
 10
14.2079150609
 20
48.4444978491
 30
0.0
 10
14.4150852653
 20
48.1722393457
 30
0.0
 10
14.5394952374
 20
47.9289960712
 30
0.0
 10
14.609486209
 20
47.7346272436
 30
0.0
 10
14.6529061336
 20
47.5318323704
 30
0.0
 10
14.6627261724
 20
47.3935365272
 30
0.0
 10
14.6627261724
 20
47.3244008715
 30
0.0
  0
SPLINE
  5
2CD
100
AcDbEntity
  8
0
100
AcDbSpline
 62
7
  6
BYLAYER
 70
0
 71
3
 72
11
 73
7
 74
0
 42
0.0000001
 43
0.0000001
 44
0.0000000001
 40
0.0
 40
0.0
 40
0.0
 40
0.0
 40
0.2333426736
 40
0.4810194242
 40
0.7388432976
 40
1.0
 40
1.0
 40
1.0
 40
1.0
 10
21.9477261724
 20
53.7112574578
 30
0.0
 10
21.9477261724
 20
53.7200188943
 30
0.0
 10
21.95096257
 20
53.7381538584
 30
0.0
 10
21.963559624
 20
53.7632208248
 30
0.0
 10
21.9826537598
 20
53.7851135751
 30
0.0
 10
21.99854339
 20
53.7967053849
 30
0.0
 10
22.0070491426
 20
53.8015844804
 30
0.0
  0
SPLINE
  5
2CE
100
AcDbEntity
  8
0
100
AcDbSpline
 62
7
  6
BYLAYER
 70
0
 71
3
 72
11
 73
7
 74
0
 42
0.0000001
 43
0.0000001
 44
0.0000000001
 40
0.0
 40
0.0
 40
0.0
 40
0.0
 40
0.2611362341
 40
0.5189824116
 40
0.7666787818
 40
1.0
 40
1.0
 40
1.0
 40
1.0
 10
22.0070656785
 20
40.8472040226
 30
0.0
 10
21.9985588964
 20
40.8520837086
 30
0.0
 10
21.982663597
 20
40.8636745543
 30
0.0
 10
21.9635652254
 20
40.8855722122
 30
0.0
 10
21.9509599078
 20
40.9106425871
 30
0.0
 10
21.9477261724
 20
40.9287819071
 30
0.0
 10
21.9477261724
 20
40.9375442851
 30
0.0
  0
SPLINE
  5
2CF
100
AcDbEntity
  8
0
100
AcDbSpline
 62
7
  6
BYLAYER
 70
0
 71
3
 72
11
 73
7
 74
0
 42
0.0000001
 43
0.0000001
 44
0.0000000001
 40
0.0
 40
0.0
 40
0.0
 40
0.0
 40
0.2703185467
 40
0.5272762569
 40
0.7684602118
 40
1.0
 40
1.0
 40
1.0
 40
1.0
 10
38.6345577758
 20
36.0244008715
 30
0.0
 10
38.6345577758
 20
35.9969923985
 30
0.0
 10
38.6451596138
 20
35.9429185035
 30
0.0
 10
38.6893228272
 20
35.8763566072
 30
0.0
 10
38.7522639233
 20
35.8340049451
 30
0.0
 10
38.8007002543
 20
35.8244008715
 30
0.0
 10
38.8241768233
 20
35.8244008715
 30
0.0
  0
SPLINE
  5
2D0
100
AcDbEntity
  8
0
100
AcDbSpline
 62
7
  6
BYLAYER
 70
0
 71
3
 72
13
 73
9
 74
0
 42
0.0000001
 43
0.0000001
 44
0.0000000001
 40
0.0
 40
0.0
 40
0.0
 40
0.0
 40
0.2951415808
 40
0.4335022353
 40
0.5625842907
 40
0.7924994926
 40
0.8980275033
 40
1.0
 40
1.0
 40
1.0
 40
1.0
 10
39.0763034854
 20
36.0244008715
 30
0.0
 10
39.0763034854
 20
35.9971801074
 30
0.0
 10
39.0824805503
 20
35.9567549064
 30
0.0
 10
39.102939924
 20
35.9088339473
 30
0.0
 10
39.1280370399
 20
35.8702621252
 30
0.0
 10
39.1615495702
 20
35.841201528
 30
0.0
 10
39.199576802
 20
35.8267924118
 30
0.0
 10
39.2187910364
 20
35.8244008715
 30
0.0
 10
39.2281959101
 20
35.8244008715
 30
0.0
  0
SPLINE
  5
2D1
100
AcDbEntity
  8
0
100
AcDbSpline
 62
7
  6
BYLAYER
 70
0
 71
3
 72
13
 73
9
 74
0
 42
0.0000001
 43
0.0000001
 44
0.0000000001
 40
0.0
 40
0.0
 40
0.0
 40
0.0
 40
0.1019540816
 40
0.207456634
 40
0.4374095596
 40
0.5665604731
 40
0.7049583223
 40
1.0
 40
1.0
 40
1.0
 40
1.0
 10
52.7672566154
 20
35.8244008715
 30
0.0
 10
52.7766598006
 20
35.8244008715
 30
0.0
 10
52.795870448
 20
35.8267886644
 30
0.0
 10
52.8338968006
 20
35.8411979679
 30
0.0
 10
52.8674211069
 20
35.87025872
 30
0.0
 10
52.89251451
 20
35.9088491766
 30
0.0
 10
52.9129773306
 20
35.9567687937
 30
0.0
 10
52.9191488594
 20
35.9971892926
 30
0.0
 10
52.9191488594
 20
36.0244008715
 30
0.0
  0
SPLINE
  5
2D2
100
AcDbEntity
  8
0
100
AcDbSpline
 62
7
  6
BYLAYER
 70
0
 71
3
 72
11
 73
7
 74
0
 42
0.0000001
 43
0.0000001
 44
0.0000000001
 40
0.0
 40
0.0
 40
0.0
 40
0.0
 40
0.2314914985
 40
0.4727175824
 40
0.7297742334
 40
1.0
 40
1.0
 40
1.0
 40
1.0
 10
53.171275747
 20
35.8244008715
 30
0.0
 10
53.1947474587
 20
35.8244008715
 30
0.0
 10
53.2431829801
 20
35.8340014574
 30
0.0
 10
53.3061359635
 20
35.8763555053
 30
0.0
 10
53.3502947486
 20
35.942928538
 30
0.0
 10
53.360894569
 20
35.9970017604
 30
0.0
 10
53.360894569
 20
36.0244008715
 30
0.0
  0
SPLINE
  5
2D3
100
AcDbEntity
  8
0
100
AcDbSpline
 62
7
  6
BYLAYER
 70
0
 71
3
 72
14
 73
10
 74
0
 42
0.0000001
 43
0.0000001
 44
0.0000000001
 40
0.0
 40
0.0
 40
0.0
 40
0.0
 40
0.1391861137
 40
0.2805805218
 40
0.420183901
 40
0.5545075048
 40
0.7957917953
 40
0.9024921199
 40
1.0
 40
1.0
 40
1.0
 40
1.0
 10
41.01808407
 20
29.4744008715
 30
0.0
 10
41.0180836803
 20
29.4909612743
 30
0.0
 10
41.021059619
 20
29.5244016101
 30
0.0
 10
41.0339093426
 20
29.5729861982
 30
0.0
 10
41.055556245
 20
29.6177647929
 30
0.0
 10
41.092024354
 20
29.6673657027
 30
0.0
 10
41.1394945948
 20
29.702850279
 30
0.0
 10
41.1898539809
 20
29.7202316835
 30
0.0
 10
41.2140826887
 20
29.7236410357
 30
0.0
 10
41.2256711097
 20
29.7241920763
 30
0.0
  0
SPLINE
  5
2D4
100
AcDbEntity
  8
0
100
AcDbSpline
 62
7
  6
BYLAYER
 70
0
 71
3
 72
11
 73
7
 74
0
 42
0.0000001
 43
0.0000001
 44
0.0000000001
 40
0.0
 40
0.0
 40
0.0
 40
0.0
 40
0.257453835
 40
0.5044264579
 40
0.7484980978
 40
1.0
 40
1.0
 40
1.0
 40
1.0
 10
22.0070656789
 20
54.0304050398
 30
0.0
 10
21.998804638
 20
54.0286166884
 30
0.0
 10
21.9829744518
 20
54.0228692325
 30
0.0
 10
21.9632928196
 20
54.007366418
 30
0.0
 10
21.9505121072
 20
53.9859609935
 30
0.0
 10
21.9477261724
 20
53.9695144475
 30
0.0
 10
21.9477261724
 20
53.9612574578
 30
0.0
  0
SPLINE
  5
2D5
100
AcDbEntity
  8
0
100
AcDbSpline
 62
7
  6
BYLAYER
 70
0
 71
3
 72
9
 73
5
 74
0
 42
0.0000001
 43
0.0000001
 44
0.0000000001
 40
0.0
 40
0.0
 40
0.0
 40
0.0
 40
0.5190891053
 40
1.0
 40
1.0
 40
1.0
 40
1.0
 10
50.6364890722
 20
29.9695377438
 30
0.0
 10
50.6368352187
 20
29.9236380774
 30
0.0
 10
50.6468441318
 20
29.8350222184
 30
0.0
 10
50.6749138502
 20
29.7504245886
 30
0.0
 10
50.6925709347
 20
29.7117386076
 30
0.0
  0
SPLINE
  5
2D6
100
AcDbEntity
  8
0
100
AcDbSpline
 62
7
  6
BYLAYER
 70
0
 71
3
 72
11
 73
7
 74
0
 42
0.0000001
 43
0.0000001
 44
0.0000000001
 40
0.0
 40
0.0
 40
0.0
 40
0.0
 40
0.3038757773
 40
0.5673953081
 40
0.7960829776
 40
1.0
 40
1.0
 40
1.0
 40
1.0
 10
50.7117231979
 20
29.6735749145
 30
0.0
 10
50.7286248963
 20
29.6428367715
 30
0.0
 10
50.7656995325
 20
29.5881853297
 30
0.0
 10
50.8328230131
 20
29.5242983281
 30
0.0
 10
50.9036671036
 20
29.4843688067
 30
0.0
 10
50.9538326852
 20
29.4743922939
 30
0.0
 10
50.9773722445
 20
29.4744008715
 30
0.0
  0
SPLINE
  5
2D7
100
AcDbEntity
  8
0
100
AcDbSpline
 62
7
  6
BYLAYER
 70
0
 71
3
 72
15
 73
11
 74
0
 42
0.0000001
 43
0.0000001
 44
0.0000000001
 40
0.0
 40
0.0
 40
0.0
 40
0.0
 40
0.1372991475
 40
0.2768732118
 40
0.4150622456
 40
0.5487670853
 40
0.674878874
 40
0.7924038101
 40
0.9007084735
 40
1.0
 40
1.0
 40
1.0
 40
1.0
 10
50.9773696645
 20
29.4744008715
 30
0.0
 10
50.9773700029
 20
29.4901827846
 30
0.0
 10
50.974662085
 20
29.5220563781
 30
0.0
 10
50.9629726492
 20
29.5685468115
 30
0.0
 10
50.9432446816
 20
29.6118188073
 30
0.0
 10
50.9170896034
 20
29.6496633818
 30
0.0
 10
50.8859230536
 20
29.6802242985
 30
0.0
 10
50.8519097404
 20
29.7025800783
 30
0.0
 10
50.8171970262
 20
29.7169936502
 30
0.0
 10
50.7936804238
 20
29.7218720855
 30
0.0
 10
50.7823417571
 20
29.7231735132
 30
0.0
  0
SPLINE
  5
2D8
100
AcDbEntity
  8
0
100
AcDbSpline
 62
7
  6
BYLAYER
 70
0
 71
3
 72
11
 73
7
 74
0
 42
0.0000001
 43
0.0000001
 44
0.0000000001
 40
0.0
 40
0.0
 40
0.0
 40
0.0
 40
0.2515201901
 40
0.4955792554
 40
0.7425312788
 40
1.0
 40
1.0
 40
1.0
 40
1.0
 10
21.9477261724
 20
40.6875442851
 30
0.0
 10
21.9477261724
 20
40.6792883757
 30
0.0
 10
21.9505151422
 20
40.6628460337
 30
0.0
 10
21.9632871967
 20
40.6414424343
 30
0.0
 10
21.982964113
 20
40.6259426948
 30
0.0
 10
21.9987893055
 20
40.6201921285
 30
0.0
 10
22.0070491426
 20
40.6184040376
 30
0.0
  0
SPLINE
  5
2D9
100
AcDbEntity
  8
0
100
AcDbSpline
 62
7
  6
BYLAYER
 70
0
 71
3
 72
9
 73
5
 74
0
 42
0.0000001
 43
0.0000001
 44
0.0000000001
 40
0.0
 40
0.0
 40
0.0
 40
0.0
 40
0.2609424042
 40
1.0
 40
1.0
 40
1.0
 40
1.0
 10
50.64189379
 20
31.2583241709
 30
0.0
 10
50.6438232006
 20
31.2731949153
 30
0.0
 10
50.653195514
 20
31.329907899
 30
0.0
 10
50.6702574278
 20
31.3853612074
 30
0.0
 10
50.6869810905
 20
31.4244008715
 30
0.0
  0
SPLINE
  5
2DA
100
AcDbEntity
  8
0
100
AcDbSpline
 62
7
  6
BYLAYER
 70
0
 71
3
 72
39
 73
35
 74
0
 42
0.0000001
 43
0.0000001
 44
0.0000000001
 40
0.0
 40
0.0
 40
0.0
 40
0.0
 40
0.0078005152
 40
0.0156126775
 40
0.0234278182
 40
0.0312428467
 40
0.0468607901
 40
0.0624848312
 40
0.0781104281
 40
0.0937365066
 40
0.1249847866
 40
0.156235499
 40
0.1874871083
 40
0.218739137
 40
0.2499913549
 40
0.3124938385
 40
0.3749974141
 40
0.4999996811
 40
0.6250021727
 40
0.687505851
 40
0.7500083961
 40
0.7812606376
 40
0.8125126807
 40
0.8437642953
 40
0.8750150157
 40
0.9062633038
 40
0.9218893895
 40
0.9375149973
 40
0.9531390454
 40
0.9687570225
 40
0.9765720573
 40
0.9843872521
 40
0.992199356
 40
1.0
 40
1.0
 40
1.0
 40
1.0
 10
44.9300183472
 20
28.0744008715
 30
0.0
 10
44.9300183472
 20
28.0685706283
 30
0.0
 10
44.9323369777
 20
28.0568226176
 30
0.0
 10
44.9410752876
 20
28.0414328547
 30
0.0
 10
44.9527768164
 20
28.0282791274
 30
0.0
 10
44.9706564115
 20
28.0131736139
 30
0.0
 10
44.9955756614
 20
27.9977249161
 30
0.0
 10
45.0272353012
 20
27.9826579803
 30
0.0
 10
45.059923893
 20
27.9699791815
 30
0.0
 10
45.1043341945
 20
27.9554442921
 30
0.0
 10
45.1608819564
 20
27.9406857742
 30
0.0
 10
45.2295458005
 20
27.9266178424
 30
0.0
 10
45.2987032965
 20
27.9152358696
 30
0.0
 10
45.3681654849
 20
27.9059296985
 30
0.0
 10
45.4610485824
 20
27.8957515125
 30
0.0
 10
45.577493075
 20
27.8864503696
 30
0.0
 10
45.7641257443
 20
27.8768958653
 30
0.0
 10
45.9977256304
 20
27.8727371734
 30
0.0
 10
46.2313255868
 20
27.8768958924
 30
0.0
 10
46.4179585601
 20
27.8864501834
 30
0.0
 10
46.534403183
 20
27.8957514618
 30
0.0
 10
46.6272863588
 20
27.9059296079
 30
0.0
 10
46.6967485813
 20
27.9152357751
 30
0.0
 10
46.7659060901
 20
27.9266177919
 30
0.0
 10
46.8345699663
 20
27.9406856453
 30
0.0
 10
46.8911177467
 20
27.9554441652
 30
0.0
 10
46.9355280752
 20
27.9699790307
 30
0.0
 10
46.9682167027
 20
27.9826577944
 30
0.0
 10
46.999876364
 20
27.9977247696
 30
0.0
 10
47.024795691
 20
28.0131734086
 30
0.0
 10
47.0426753472
 20
28.0282789638
 30
0.0
 10
47.0543768805
 20
28.041432681
 30
0.0
 10
47.0631153594
 20
28.0568224536
 30
0.0
 10
47.0654339976
 20
28.0685705321
 30
0.0
 10
47.0654339976
 20
28.0744008715
 30
0.0
  0
SPLINE
  5
2DB
100
AcDbEntity
  8
0
100
AcDbSpline
 62
7
  6
BYLAYER
 70
0
 71
3
 72
9
 73
5
 74
0
 42
0.0000001
 43
0.0000001
 44
0.0000000001
 40
0.0
 40
0.0
 40
0.0
 40
0.0
 40
0.2383026063
 40
1.0
 40
1.0
 40
1.0
 40
1.0
 10
41.3084712422
 20
31.4244008715
 30
0.0
 10
41.3138823971
 20
31.4117690867
 30
0.0
 10
41.3347573029
 20
31.3579937539
 30
0.0
 10
41.3480268508
 20
31.3012807451
 30
0.0
 10
41.3536373717
 20
31.2577163621
 30
0.0
  0
SPLINE
  5
2DC
100
AcDbEntity
  8
0
100
AcDbSpline
 62
7
  6
BYLAYER
 70
0
 71
3
 72
9
 73
5
 74
0
 42
0.0000001
 43
0.0000001
 44
0.0000000001
 40
0.0
 40
0.0
 40
0.0
 40
0.0
 40
0.5190888634
 40
1.0
 40
1.0
 40
1.0
 40
1.0
 10
41.358963272
 20
29.969538136
 30
0.0
 10
41.358617129
 20
29.9236398049
 30
0.0
 10
41.3486088788
 20
29.8350264902
 30
0.0
 10
41.3205408064
 20
29.7504310445
 30
0.0
 10
41.3028847415
 20
29.7117459125
 30
0.0
  0
SPLINE
  5
2DD
100
AcDbEntity
  8
0
100
AcDbSpline
 62
7
  6
BYLAYER
 70
0
 71
3
 72
11
 73
7
 74
0
 42
0.0000001
 43
0.0000001
 44
0.0000000001
 40
0.0
 40
0.0
 40
0.0
 40
0.0
 40
0.3055099782
 40
0.569536559
 40
0.7975917414
 40
1.0
 40
1.0
 40
1.0
 40
1.0
 10
41.2900043642
 20
29.6853154067
 30
0.0
 10
41.2731272733
 20
29.6528227676
 30
0.0
 10
41.2357024221
 20
29.5950345373
 30
0.0
 10
41.1670179435
 20
29.5273710358
 30
0.0
 10
41.0941630291
 20
29.4850285806
 30
0.0
 10
41.0423380267
 20
29.4743920405
 30
0.0
 10
41.0180801006
 20
29.4744008715
 30
0.0
  0
SPLINE
  5
2DE
100
AcDbEntity
  8
0
100
AcDbSpline
 62
7
  6
BYLAYER
 70
0
 71
3
 72
40
 73
36
 74
0
 42
0.0000001
 43
0.0000001
 44
0.0000000001
 40
0.0
 40
0.0
 40
0.0
 40
0.0
 40
0.1946194177
 40
0.2895774414
 40
0.381753515
 40
0.4702775177
 40
0.5543030465
 40
0.6330407724
 40
0.7057485135
 40
0.7717285288
 40
0.801995542
 40
0.8303441461
 40
0.8567055788
 40
0.8810144801
 40
0.9032059204
 40
0.9232233902
 40
0.9410167237
 40
0.9565359961
 40
0.9697387659
 40
0.9754613001
 40
0.9805926487
 40
0.9851288453
 40
0.9890659442
 40
0.9924010591
 40
0.9951327875
 40
0.9962719782
 40
0.9972598379
 40
0.9980962051
 40
0.9987809183
 40
0.9993138159
 40
0.9996947363
 40
0.9998281547
 40
0.9999235182
 40
0.9999808066
 40
1.0
 40
1.0
 40
1.0
 40
1.0
 10
45.9977261724
 20
53.7120271067
 30
0.0
 10
46.5187172671
 20
53.7120286897
 30
0.0
 10
47.2939758052
 20
53.7237606333
 30
0.0
 10
48.3152241966
 20
53.7621062444
 30
0.0
 10
49.0521845386
 20
53.8004391107
 30
0.0
 10
49.7593373441
 20
53.8470066007
 30
0.0
 10
50.4299525337
 20
53.9000251685
 30
0.0
 10
51.0577006515
 20
53.9573967781
 30
0.0
 10
51.636702529
 20
54.0169204829
 30
0.0
 10
52.0861284849
 20
54.0677853624
 30
0.0
 10
52.4172797852
 20
54.1076329021
 30
0.0
 10
52.6430148548
 20
54.1357709294
 30
0.0
 10
52.8528167783
 20
54.162770949
 30
0.0
 10
53.0461777055
 20
54.1883804512
 30
0.0
 10
53.2226243839
 20
54.2123456819
 30
0.0
 10
53.3817217579
 20
54.2344433777
 30
0.0
 10
53.523072871
 20
54.2544744758
 30
0.0
 10
53.6463200306
 20
54.2722368519
 30
0.0
 10
53.7375582644
 20
54.285569854
 30
0.0
 10
53.8012673088
 20
54.2949716413
 30
0.0
 10
53.8420198671
 20
54.3010192698
 30
0.0
 10
53.8780408507
 20
54.3063907229
 30
0.0
 10
53.909303475
 20
54.3110695893
 30
0.0
 10
53.9357872623
 20
54.3150435317
 30
0.0
 10
53.9548629592
 20
54.3179136357
 30
0.0
 10
53.9677242721
 20
54.3198533354
 30
0.0
 10
53.9755685259
 20
54.321037569
 30
0.0
 10
53.9822087391
 20
54.322043192
 30
0.0
 10
53.9876468666
 20
54.3228635541
 30
0.0
 10
53.9918732375
 20
54.3235140084
 30
0.0
 10
53.9946539237
 20
54.3239182648
 30
0.0
 10
53.9962551389
 20
54.3241875755
 30
0.0
 10
53.9970323608
 20
54.3242650768
 30
0.0
 10
53.9974512983
 20
54.3244025271
 30
0.0
 10
53.9976907662
 20
54.3243636381
 30
0.0
 10
53.9977261724
 20
54.3244008715
 30
0.0
  0
SPLINE
  5
2DF
100
AcDbEntity
  8
0
100
AcDbSpline
 62
7
  6
BYLAYER
 70
0
 71
3
 72
33
 73
29
 74
0
 42
0.0000001
 43
0.0000001
 44
0.0000000001
 40
0.0
 40
0.0
 40
0.0
 40
0.0
 40
0.1957024888
 40
0.2910999411
 40
0.383603307
 40
0.4723096218
 40
0.5563915678
 40
0.6350551715
 40
0.7075870702
 40
0.7733088181
 40
0.831622336
 40
0.8819677295
 40
0.9040037292
 40
0.9238733434
 40
0.9415232264
 40
0.9569133746
 40
0.9700070418
 40
0.9807673689
 40
0.9852615007
 40
0.9891615322
 40
0.9924659359
 40
0.9951731829
 40
0.9972817437
 40
0.9987900878
 40
0.9993187002
 40
0.999696684
 40
0.9999238478
 40
1.0
 40
1.0
 40
1.0
 40
1.0
 10
45.9977261724
 20
55.6707889632
 30
0.0
 10
46.3921842219
 20
55.6707892607
 30
0.0
 10
46.9790317751
 20
55.6835292646
 30
0.0
 10
47.7511339053
 20
55.7252302591
 30
0.0
 10
48.3071627416
 20
55.7666753056
 30
0.0
 10
48.8395430615
 20
55.8170042558
 30
0.0
 10
49.3431800413
 20
55.874019511
 30
0.0
 10
49.8134178945
 20
55.9355573905
 30
0.0
 10
50.2460031328
 20
55.9991541541
 30
0.0
 10
50.6371362033
 20
56.0623980826
 30
0.0
 10
50.9833754784
 20
56.1229245283
 30
0.0
 10
51.2423644752
 20
56.1711110941
 30
0.0
 10
51.4249140494
 20
56.2064659347
 30
0.0
 10
51.5426676559
 20
56.2297851998
 30
0.0
 10
51.6472065723
 20
56.250874348
 30
0.0
 10
51.738296473
 20
56.269562888
 30
0.0
 10
51.8157358606
 20
56.2856888945
 30
0.0
 10
51.8716457554
 20
56.2974743599
 30
0.0
 10
51.9094138248
 20
56.3054827487
 30
0.0
 10
51.9324773052
 20
56.3103895731
 30
0.0
 10
51.9520146059
 20
56.3145621215
 30
0.0
 10
51.9680193926
 20
56.3179881757
 30
0.0
 10
51.9804793125
 20
56.32067478
 30
0.0
 10
51.9886518215
 20
56.3224218215
 30
0.0
 10
51.9934029114
 20
56.3234716027
 30
0.0
 10
51.9956466809
 20
56.3239224339
 30
0.0
 10
51.9969700845
 20
56.3242731631
 30
0.0
 10
51.9975866554
 20
56.3243419226
 30
0.0
 10
51.9977286291
 20
56.3244002611
 30
0.0
  0
SPLINE
  5
2E0
100
AcDbEntity
  8
0
100
AcDbSpline
 62
7
  6
BYLAYER
 70
0
 71
3
 72
12
 73
8
 74
0
 42
0.0000001
 43
0.0000001
 44
0.0000000001
 40
0.0
 40
0.0
 40
0.0
 40
0.0
 40
0.2447562181
 40
0.4921242496
 40
0.6179288584
 40
0.7449531596
 40
1.0
 40
1.0
 40
1.0
 40
1.0
 10
38.9090231318
 20
35.8244008715
 30
0.0
 10
38.8825904372
 20
35.8244008715
 30
0.0
 10
38.8290066698
 20
35.8336158021
 30
0.0
 10
38.7699629567
 20
35.8680987513
 30
0.0
 10
38.7329145765
 20
35.9078868664
 30
0.0
 10
38.7041474451
 20
35.9549108334
 30
0.0
 10
38.6945998242
 20
35.9968568307
 30
0.0
 10
38.6945998242
 20
36.0244008715
 30
0.0
  0
SPLINE
  5
2E1
100
AcDbEntity
  8
0
100
AcDbSpline
 62
7
  6
BYLAYER
 70
0
 71
3
 72
11
 73
7
 74
0
 42
0.0000001
 43
0.0000001
 44
0.0000000001
 40
0.0
 40
0.0
 40
0.0
 40
0.0
 40
0.2501069283
 40
0.500306341
 40
0.7502908388
 40
1.0
 40
1.0
 40
1.0
 40
1.0
 10
39.47695296
 20
35.8244008715
 30
0.0
 10
39.4493004536
 20
35.8244008715
 30
0.0
 10
39.3935365305
 20
35.8335257662
 30
0.0
 10
39.3194163604
 20
35.8745525486
 30
0.0
 10
39.2657707151
 20
35.9407895071
 30
0.0
 10
39.2523378643
 20
35.9967923433
 30
0.0
 10
39.2523378643
 20
36.0244008715
 30
0.0
  0
SPLINE
  5
2E2
100
AcDbEntity
  8
0
100
AcDbSpline
 62
7
  6
BYLAYER
 70
0
 71
3
 72
11
 73
7
 74
0
 42
0.0000001
 43
0.0000001
 44
0.0000000001
 40
0.0
 40
0.0
 40
0.0
 40
0.0
 40
0.2163650653
 40
0.4509224646
 40
0.7140410422
 40
1.0
 40
1.0
 40
1.0
 40
1.0
 10
43.5454906184
 20
35.8244008715
 30
0.0
 10
43.524852939
 20
35.8244008715
 30
0.0
 10
43.4813234529
 20
35.8345185616
 30
0.0
 10
43.4263429289
 20
35.8778459428
 30
0.0
 10
43.3886230207
 20
35.9442697495
 30
0.0
 10
43.3797292306
 20
35.9971250759
 30
0.0
 10
43.3797292306
 20
36.0244008715
 30
0.0
  0
SPLINE
  5
2E3
100
AcDbEntity
  8
0
100
AcDbSpline
 62
7
  6
BYLAYER
 70
0
 71
3
 72
18
 73
14
 74
0
 42
0.0000001
 43
0.0000001
 44
0.0000000001
 40
0.0
 40
0.0
 40
0.0
 40
0.0
 40
0.2057385363
 40
0.4014917238
 40
0.5766300492
 40
0.7251732949
 40
0.8430308369
 40
0.8898658902
 40
0.9283836258
 40
0.9584957043
 40
0.9802467551
 40
0.993795259
 40
1.0
 40
1.0
 40
1.0
 40
1.0
 10
42.9547446456
 20
36.0244008715
 30
0.0
 10
42.9547446456
 20
36.0106249919
 30
0.0
 10
42.9546061402
 20
35.9837415828
 30
0.0
 10
42.9540176154
 20
35.9451355326
 30
0.0
 10
42.9530755193
 20
35.9103660183
 30
0.0
 10
42.9518584384
 20
35.8808278252
 30
0.0
 10
42.950594751
 20
35.8598841717
 30
0.0
 10
42.9494462763
 20
35.8463338928
 30
0.0
 10
42.9486088315
 20
35.8386288621
 30
0.0
 10
42.9477985504
 20
35.8326786541
 30
0.0
 10
42.9468903848
 20
35.8282739685
 30
0.0
 10
42.9462195147
 20
35.8257981751
 30
0.0
 10
42.9453531907
 20
35.8244008715
 30
0.0
 10
42.9449377325
 20
35.8244008715
 30
0.0
  0
SPLINE
  5
2E4
100
AcDbEntity
  8
0
100
AcDbSpline
 62
7
  6
BYLAYER
 70
0
 71
3
 72
9
 73
5
 74
0
 42
0.0000001
 43
0.0000001
 44
0.0000000001
 40
0.0
 40
0.0
 40
0.0
 40
0.0
 40
0.2535648504
 40
1.0
 40
1.0
 40
1.0
 40
1.0
 10
43.786414185
 20
42.5599383805
 30
0.0
 10
43.6713860091
 20
42.5032038149
 30
0.0
 10
43.2229204835
 20
42.2689018436
 30
0.0
 10
42.7937611843
 20
41.9992310847
 30
0.0
 10
42.4808819233
 20
41.7879004028
 30
0.0
  0
SPLINE
  5
2E5
100
AcDbEntity
  8
0
100
AcDbSpline
 62
7
  6
BYLAYER
 70
0
 71
3
 72
26
 73
22
 74
0
 42
0.0000001
 43
0.0000001
 44
0.0000000001
 40
0.0
 40
0.0
 40
0.0
 40
0.0
 40
0.1906283595
 40
0.3713370188
 40
0.538902667
 40
0.6164908096
 40
0.6891526218
 40
0.7561682037
 40
0.8167842288
 40
0.870154868
 40
0.9154125521
 40
0.9347386866
 40
0.9517293949
 40
0.9662845622
 40
0.9783067701
 40
0.9877316183
 40
0.9945167469
 40
0.9969063037
 40
0.9986201951
 40
0.9996531757
 40
1.0
 40
1.0
 40
1.0
 40
1.0
 10
42.4808819233
 20
41.7879004028
 30
0.0
 10
42.1740980052
 20
41.5806867497
 30
0.0
 10
41.5902491354
 20
41.1566118629
 30
0.0
 10
40.7699193751
 20
40.5064979974
 30
0.0
 10
40.13586448
 20
39.975362019
 30
0.0
 10
39.6683267454
 20
39.5724219237
 30
0.0
 10
39.3507497041
 20
39.2946087904
 30
0.0
 10
39.059594413
 20
39.0366673961
 30
0.0
 10
38.7976354776
 20
38.8022741889
 30
0.0
 10
38.5680279409
 20
38.5950982802
 30
0.0
 10
38.3984478128
 20
38.4410955901
 30
0.0
 10
38.2813815973
 20
38.3343589166
 30
0.0
 10
38.208451966
 20
38.2677119369
 30
0.0
 10
38.1460495266
 20
38.2105722242
 30
0.0
 10
38.09451239
 20
38.1633236747
 30
0.0
 10
38.0541238419
 20
38.1262445698
 30
0.0
 10
38.0275142723
 20
38.1018174367
 30
0.0
 10
38.011963675
 20
38.0874885895
 30
0.0
 10
38.0045986432
 20
38.0807598619
 30
0.0
 10
38.0002214889
 20
38.0766457394
 30
0.0
 10
37.998205614
 20
38.0748771293
 30
0.0
 10
37.997728944
 20
38.0744012608
 30
0.0
  0
SPLINE
  5
2E6
100
AcDbEntity
  8
0
100
AcDbSpline
 62
7
  6
BYLAYER
 70
0
 71
3
 72
9
 73
5
 74
0
 42
0.0000001
 43
0.0000001
 44
0.0000000001
 40
0.0
 40
0.0
 40
0.0
 40
0.0
 40
0.5039293207
 40
1.0
 40
1.0
 40
1.0
 40
1.0
 10
45.9977249944
 20
43.7188517833
 30
0.0
 10
45.6284877599
 20
43.5199872187
 30
0.0
 10
44.8957791103
 20
43.1253740579
 30
0.0
 10
44.1566297146
 20
42.7426437623
 30
0.0
 10
43.7864222138
 20
42.5599234096
 30
0.0
  0
SPLINE
  5
2E7
100
AcDbEntity
  8
0
100
AcDbSpline
 62
7
  6
BYLAYER
 70
0
 71
3
 72
14
 73
10
 74
0
 42
0.0000001
 43
0.0000001
 44
0.0000000001
 40
0.0
 40
0.0
 40
0.0
 40
0.0
 40
0.0882500907
 40
0.182389866
 40
0.2867434705
 40
0.4041423943
 40
0.5360847876
 40
0.6817074571
 40
1.0
 40
1.0
 40
1.0
 40
1.0
 10
45.3811319022
 20
35.8244008715
 30
0.0
 10
45.3736216199
 20
35.8244008715
 30
0.0
 10
45.3580132361
 20
35.8268765825
 30
0.0
 10
45.3357912968
 20
35.8376519276
 30
0.0
 10
45.3151615602
 20
35.8552705071
 30
0.0
 10
45.2967612103
 20
35.8793215972
 30
0.0
 10
45.281300744
 20
35.9093424661
 30
0.0
 10
45.2650643022
 20
35.9575191023
 30
0.0
 10
45.2603313238
 20
35.9973134561
 30
0.0
 10
45.2603313238
 20
36.0244008715
 30
0.0
  0
SPLINE
  5
2E8
100
AcDbEntity
  8
0
100
AcDbSpline
 62
7
  6
BYLAYER
 70
0
 71
3
 72
15
 73
11
 74
0
 42
0.0000001
 43
0.0000001
 44
0.0000000001
 40
0.0
 40
0.0
 40
0.0
 40
0.0
 40
0.1854817856
 40
0.3628589373
 40
0.5234599941
 40
0.6628203835
 40
0.7784541257
 40
0.8706239647
 40
0.9420176292
 40
1.0
 40
1.0
 40
1.0
 40
1.0
 10
44.8042666875
 20
36.0244008715
 30
0.0
 10
44.8042666875
 20
36.0106164675
 30
0.0
 10
44.8033066797
 20
35.9836414145
 30
0.0
 10
44.7992264194
 20
35.9449197396
 30
0.0
 10
44.7926807422
 20
35.9100098213
 30
0.0
 10
44.7841884957
 20
35.8802588511
 30
0.0
 10
44.7741462312
 20
35.8563986631
 30
0.0
 10
44.7629231053
 20
35.8387922702
 30
0.0
 10
44.75062141
 20
35.8274029229
 30
0.0
 10
44.7409682964
 20
35.8244008715
 30
0.0
 10
44.7366592349
 20
35.8244008715
 30
0.0
  0
SPLINE
  5
2E9
100
AcDbEntity
  8
0
100
AcDbSpline
 62
7
  6
BYLAYER
 70
0
 71
3
 72
15
 73
11
 74
0
 42
0.0000001
 43
0.0000001
 44
0.0000000001
 40
0.0
 40
0.0
 40
0.0
 40
0.0
 40
0.0579695135
 40
0.1293425285
 40
0.2215119821
 40
0.3371711634
 40
0.4766180935
 40
0.6372629688
 40
0.8145563996
 40
1.0
 40
1.0
 40
1.0
 40
1.0
 10
47.2587930665
 20
35.8244008715
 30
0.0
 10
47.2544849405
 20
35.8244008715
 30
0.0
 10
47.2448334564
 20
35.827398797
 30
0.0
 10
47.2325330268
 20
35.8387868671
 30
0.0
 10
47.2213090116
 20
35.8563927454
 30
0.0
 10
47.2112613425
 20
35.8802601198
 30
0.0
 10
47.2027712483
 20
35.910023998
 30
0.0
 10
47.1962238465
 20
35.9449370178
 30
0.0
 10
47.1921412117
 20
35.9836529703
 30
0.0
 10
47.1911856573
 20
36.0106192411
 30
0.0
 10
47.1911856573
 20
36.0244008715
 30
0.0
  0
SPLINE
  5
2EA
100
AcDbEntity
  8
0
100
AcDbSpline
 62
7
  6
BYLAYER
 70
0
 71
3
 72
13
 73
9
 74
0
 42
0.0000001
 43
0.0000001
 44
0.0000000001
 40
0.0
 40
0.0
 40
0.0
 40
0.0
 40
0.3186603597
 40
0.5955200357
 40
0.712985572
 40
0.8174209778
 40
0.9116614279
 40
1.0
 40
1.0
 40
1.0
 40
1.0
 10
46.735121021
 20
36.0244008715
 30
0.0
 10
46.735121021
 20
35.9973043404
 30
0.0
 10
46.729052327
 20
35.946471069
 30
0.0
 10
46.7061929715
 20
35.8891810748
 30
0.0
 10
46.6802999447
 20
35.8552742973
 30
0.0
 10
46.659666798
 20
35.8376577493
 30
0.0
 10
46.6374436179
 20
35.8268802507
 30
0.0
 10
46.621832027
 20
35.8244008715
 30
0.0
 10
46.6143203651
 20
35.8244008715
 30
0.0
  0
SPLINE
  5
2EB
100
AcDbEntity
  8
0
100
AcDbSpline
 62
7
  6
BYLAYER
 70
0
 71
3
 72
18
 73
14
 74
0
 42
0.0000001
 43
0.0000001
 44
0.0000000001
 40
0.0
 40
0.0
 40
0.0
 40
0.0
 40
0.0062012691
 40
0.0197395841
 40
0.0414792068
 40
0.0715836878
 40
0.1100997164
 40
0.1569332179
 40
0.2748148218
 40
0.4234549837
 40
0.5986418779
 40
0.7943027245
 40
1.0
 40
1.0
 40
1.0
 40
1.0
 10
49.0505146061
 20
35.8244008715
 30
0.0
 10
49.0500993797
 20
35.8244008715
 30
0.0
 10
49.0492328738
 20
35.8257963528
 30
0.0
 10
49.0485622612
 20
35.8282710891
 30
0.0
 10
49.0476542212
 20
35.8326735166
 30
0.0
 10
49.0468441733
 20
35.8386224811
 30
0.0
 10
49.0460067872
 20
35.8463267568
 30
0.0
 10
49.0448578786
 20
35.8598784337
 30
0.0
 10
49.0435935337
 20
35.8808300878
 30
0.0
 10
49.0423767913
 20
35.9103797049
 30
0.0
 10
49.0414344227
 20
35.945152816
 30
0.0
 10
49.0408455593
 20
35.9837532283
 30
0.0
 10
49.0407076992
 20
36.0106277343
 30
0.0
 10
49.0407076992
 20
36.0244008715
 30
0.0
  0
SPLINE
  5
2EC
100
AcDbEntity
  8
0
100
AcDbSpline
 62
7
  6
BYLAYER
 70
0
 71
3
 72
11
 73
7
 74
0
 42
0.0000001
 43
0.0000001
 44
0.0000000001
 40
0.0
 40
0.0
 40
0.0
 40
0.0
 40
0.2860570519
 40
0.5490697178
 40
0.7835890621
 40
1.0
 40
1.0
 40
1.0
 40
1.0
 10
48.6157231142
 20
36.0244008715
 30
0.0
 10
48.6157231142
 20
35.9971157768
 30
0.0
 10
48.6068274757
 20
35.944260285
 30
0.0
 10
48.5691036362
 20
35.877845499
 30
0.0
 10
48.5141336777
 20
35.8345227719
 30
0.0
 10
48.4706036315
 20
35.8244008715
 30
0.0
 10
48.4499616201
 20
35.8244008715
 30
0.0
  0
SPLINE
  5
2ED
100
AcDbEntity
  8
0
100
AcDbSpline
 62
7
  6
BYLAYER
 70
0
 71
3
 72
40
 73
36
 74
0
 42
0.0000001
 43
0.0000001
 44
0.0000000001
 40
0.0
 40
0.0
 40
0.0
 40
0.0
 40
0.0000434734
 40
0.0000851524
 40
0.0001644527
 40
0.0002886646
 40
0.0004590851
 40
0.0006759243
 40
0.0012482581
 40
0.0020036332
 40
0.0029393319
 40
0.004052445
 40
0.0053399904
 40
0.0084263296
 40
0.0121742343
 40
0.0165608169
 40
0.0215749916
 40
0.0334696127
 40
0.0478251279
 40
0.0646074829
 40
0.0837478667
 40
0.1051332231
 40
0.1286476048
 40
0.1541767212
 40
0.1816203914
 40
0.2418781124
 40
0.308638911
 40
0.3811011003
 40
0.4585972974
 40
0.5405384801
 40
0.6264043502
 40
0.7157026034
 40
0.8079666657
 40
0.9028156135
 40
1.0
 40
1.0
 40
1.0
 40
1.0
 10
37.7477261724
 20
38.3244008715
 30
0.0
 10
37.7476459705
 20
38.3244008715
 30
0.0
 10
37.7474428147
 20
38.3244369223
 30
0.0
 10
37.7474924802
 20
38.324803634
 30
0.0
 10
37.7477469558
 20
38.3251560203
 30
0.0
 10
37.7481806094
 20
38.3257048809
 30
0.0
 10
37.7488312729
 20
38.3263843038
 30
0.0
 10
37.7500943639
 20
38.3276272533
 30
0.0
 10
37.7522050075
 20
38.3295411943
 30
0.0
 10
37.7553525518
 20
38.3322856987
 30
0.0
 10
37.7592928674
 20
38.335637825
 30
0.0
 10
37.7640046686
 20
38.3395981868
 30
0.0
 10
37.7717732335
 20
38.3460880319
 30
0.0
 10
37.7832818723
 20
38.3556826242
 30
0.0
 10
37.7991338854
 20
38.3689957354
 30
0.0
 10
37.8176050777
 20
38.3847196176
 30
0.0
 10
37.8473914913
 20
38.4103365609
 30
0.0
 10
37.8909626696
 20
38.4481296176
 30
0.0
 10
37.9508946546
 20
38.50019386
 30
0.0
 10
38.0210351187
 20
38.5608896928
 30
0.0
 10
38.1011585075
 20
38.6298679829
 30
0.0
 10
38.1908206228
 20
38.7068018625
 30
0.0
 10
38.2895409488
 20
38.7912784196
 30
0.0
 10
38.3968414131
 20
38.8829185314
 30
0.0
 10
38.5558813786
 20
39.0183539239
 30
0.0
 10
38.7734503396
 20
39.2023822716
 30
0.0
 10
39.0556419452
 20
39.438606297
 30
0.0
 10
39.3634211349
 20
39.6938024287
 30
0.0
 10
39.6944933054
 20
39.9647715582
 30
0.0
 10
40.0470330081
 20
40.2485343428
 30
0.0
 10
40.4197904668
 20
40.5418662567
 30
0.0
 10
40.811448719
 20
40.8419101092
 30
0.0
 10
41.2202714775
 20
41.1467335474
 30
0.0
 10
41.6457392878
 20
41.4534773701
 30
0.0
 10
41.9377811172
 20
41.6541157093
 30
0.0
 10
42.0870207598
 20
41.7534769867
 30
0.0
  0
SPLINE
  5
2EE
100
AcDbEntity
  8
0
100
AcDbSpline
 62
7
  6
BYLAYER
 70
0
 71
3
 72
10
 73
6
 74
0
 42
0.0000001
 43
0.0000001
 44
0.0000000001
 40
0.0
 40
0.0
 40
0.0
 40
0.0
 40
0.2446070957
 40
0.4931559641
 40
1.0
 40
1.0
 40
1.0
 40
1.0
 10
42.0870207598
 20
41.7534769867
 30
0.0
 10
42.2146729089
 20
41.8384656692
 30
0.0
 10
42.4742383044
 20
42.0065609736
 30
0.0
 10
43.0111960461
 20
42.3303328288
 30
0.0
 10
43.430521944
 20
42.5518630539
 30
0.0
 10
43.7173193886
 20
42.6886920887
 30
0.0
  0
SPLINE
  5
2EF
100
AcDbEntity
  8
0
100
AcDbSpline
 62
7
  6
BYLAYER
 70
0
 71
3
 72
9
 73
5
 74
0
 42
0.0000001
 43
0.0000001
 44
0.0000000001
 40
0.0
 40
0.0
 40
0.0
 40
0.0
 40
0.4948684162
 40
1.0
 40
1.0
 40
1.0
 40
1.0
 10
43.7864220548
 20
42.559922692
 30
0.0
 10
43.7766681976
 20
42.5819881142
 30
0.0
 10
43.7552313693
 20
42.6258177616
 30
0.0
 10
43.7307606336
 20
42.6680625692
 30
0.0
 10
43.7173192641
 20
42.68869608
 30
0.0
  0
SPLINE
  5
2F0
100
AcDbEntity
  8
0
100
AcDbSpline
 62
7
  6
BYLAYER
 70
0
 71
3
 72
11
 73
7
 74
0
 42
0.0000001
 43
0.0000001
 44
0.0000000001
 40
0.0
 40
0.0
 40
0.0
 40
0.0
 40
0.2497984991
 40
0.4996860173
 40
0.7498425247
 40
1.0
 40
1.0
 40
1.0
 40
1.0
 10
52.7431144805
 20
36.0244008715
 30
0.0
 10
52.7431144805
 20
35.9967825286
 30
0.0
 10
52.7296772208
 20
35.9407798252
 30
0.0
 10
52.6760312007
 20
35.8745535147
 30
0.0
 10
52.6019221249
 20
35.8335299638
 30
0.0
 10
52.5461575519
 20
35.8244008715
 30
0.0
 10
52.5184995197
 20
35.8244008715
 30
0.0
  0
SPLINE
  5
2F1
100
AcDbEntity
  8
0
100
AcDbSpline
 62
7
  6
BYLAYER
 70
0
 71
3
 72
9
 73
5
 74
0
 42
0.0000001
 43
0.0000001
 44
0.0000000001
 40
0.0
 40
0.0
 40
0.0
 40
0.0
 40
0.4966969326
 40
1.0
 40
1.0
 40
1.0
 40
1.0
 10
43.7173193886
 20
42.6886920887
 30
0.0
 10
44.0985594344
 20
42.8508840934
 30
0.0
 10
44.8603754872
 20
43.1908583657
 30
0.0
 10
45.6169397197
 20
43.5420779881
 30
0.0
 10
45.9977261724
 20
43.718849596
 30
0.0
  0
SPLINE
  5
2F2
100
AcDbEntity
  8
0
100
AcDbSpline
 62
7
  6
BYLAYER
 70
0
 71
3
 72
12
 73
8
 74
0
 42
0.0000001
 43
0.0000001
 44
0.0000000001
 40
0.0
 40
0.0
 40
0.0
 40
0.0
 40
0.2551372527
 40
0.3821267726
 40
0.5078690133
 40
0.755194542
 40
1.0
 40
1.0
 40
1.0
 40
1.0
 10
53.3008525206
 20
36.0244008715
 30
0.0
 10
53.3008525206
 20
35.9968470813
 30
0.0
 10
53.2912960008
 20
35.9548971905
 30
0.0
 10
53.2625346859
 20
35.9078702568
 30
0.0
 10
53.2254845751
 20
35.8681041915
 30
0.0
 10
53.1664530375
 20
35.8336189769
 30
0.0
 10
53.1128673398
 20
35.8244008715
 30
0.0
 10
53.0864293417
 20
35.8244008715
 30
0.0
  0
ELLIPSE
  5
2F3
100
AcDbEntity
  8
0
100
AcDbEllipse
 62
7
  6
BYLAYER
 10
22.6477261724
 20
47.3244008715
 30
0.0
 11
20.4047686873
 21
4.0147354537
 31
0.0
 40
0.2987966333
 41
4.6194136361
 42
4.6203850136
  0
ELLIPSE
  5
2F4
100
AcDbEntity
  8
0
100
AcDbEllipse
 62
7
  6
BYLAYER
 10
22.6477261724
 20
47.3244008715
 30
0.0
 11
20.4047686873
 21
-4.0147354537
 31
0.0
 40
0.2987966333
 41
7.9459875797
 42
7.9469569783
  0
ENDSEC
  0
SECTION
  2
OBJECTS
  0
DICTIONARY
  5
C
100
AcDbDictionary
280
0
281
1
  3
ACAD_GROUP
350
D
  3
ACAD_MLINESTYLE
350
17
  3
ACAD_LAYOUT
350
1A
  3
ACAD_PLOTSETTINGS
350
19
  3
ACAD_PLOTSTYLENAME
350
E
  0
DICTIONARY
  5
D
102
{ACAD_REACTORS
330
C
102
}
100
AcDbDictionary
280
0
281
1
  0
ACDBDICTIONARYWDFLT
  5
E
102
{ACAD_REACTORS
330
C
102
}
100
AcDbDictionary
281
1
  3
Normal
350
F
100
AcDbDictionaryWithDefault
340
F
  0
DICTIONARY
  5
17
102
{ACAD_REACTORS
330
C
102
}
100
AcDbDictionary
280
0
281
1
  3
Standard
350
18
  0
DICTIONARY
  5
19
102
{ACAD_REACTORS
330
C
102
}
100
AcDbDictionary
281
1
  0
DICTIONARY
  5
1A
102
{ACAD_REACTORS
330
C
102
}
100
AcDbDictionary
281
1
  3
Model
350
2F5
  3
Layout1
350
2F6
  0
ACDBPLACEHOLDER
  5
F
102
{ACAD_REACTORS
330
E
102
}
  0
MLINESTYLE
  5
18
102
{ACAD_REACTORS
330
17
102
}
100
AcDbMlineStyle
  2
STANDARD
 70
0
  3

 62
256
 51
90.0
 52
90.0
 71
2
 49
0.5
 62
256
  6
BYLAYER
 49
-0.5
 62
256
  6
BYLAYER
  0
LAYOUT
  5
2F5
102
{ACAD_REACTORS
330
1A
102
}
100
AcDbPlotSettings
  1

  2
none_device
  4

  6

 40
0.0
 41
0.0
 42
0.0
 43
0.0
 44
210.0
 45
297.0
 46
0.0
 47
0.0
 48
0.0
 49
0.0
140
0.0
141
0.0
142
1.0
143
1.0
 70
1024
 72
1
 73
0
 74
0
  7

 75
0
147
1.0
148
0.0
149
0.0
100
AcDbLayout
  1
Model
 70
0
 71
0
 10
0.0
 20
0.0
 11
210.0
 21
297.0
 12
0.0
 22
0.0
 32
0.0
 14
0.0
 24
0.0
 34
0.0
 15
0.0
 25
0.0
 35
0.0
146
0.0
 13
0.0
 23
0.0
 33
0.0
 16
1.0
 26
0.0
 36
0.0
 17
0.0
 27
1.0
 37
0.0
 76
0
330
210
345
0
346
0
  0
LAYOUT
  5
2F6
102
{ACAD_REACTORS
330
1A
102
}
100
AcDbPlotSettings
  1

  2
none_device
  4

  6

 40
0.0
 41
0.0
 42
0.0
 43
0.0
 44
210.0
 45
297.0
 46
0.0
 47
0.0
 48
0.0
 49
0.0
140
0.0
141
0.0
142
1.0
143
1.0
 70
0
 72
1
 73
0
 74
0
  7

 75
0
147
1.0
148
0.0
149
0.0
100
AcDbLayout
  1
Layout1
 70
0
 71
1
 10
0.0
 20
0.0
 11
210.0
 21
297.0
 12
0.0
 22
0.0
 32
0.0
 14
0.0
 24
0.0
 34
0.0
 15
0.0
 25
0.0
 35
0.0
146
0.0
 13
0.0
 23
0.0
 33
0.0
 16
1.0
 26
0.0
 36
0.0
 17
0.0
 27
1.0
 37
0.0
 76
0
330
211
345
0
346
0
  0
ENDSEC
  0
EOF
