999
DXF file: C:\Users\sesa63760\Dev\_Creo\CAD\MCADID0003613_3D-CAD\drw0001_1.dxf
999
Pro/ENGINEER 2019471 by Parametric Technology Corporation
  0
SECTION
  2
HEADER
  9
$ACADVER
  1
AC1024
  9
$DWGCODEPAGE
  3
ANSI_1252
  9
$EXTMAX
 10
89.5857470471
 20
126.6998422523
 30
0.0
  9
$EXTMIN
 10
0.0
 20
0.0
 30
0.0
  9
$LIMMIN
 10
0.0
 20
0.0
  9
$LIMMAX
 10
89.5857470471
 20
126.6998422523
  9
$VIEWCTR
 10
44.7928735235
 20
63.3499211261
  9
$VIEWSIZE
 40
126.6998422523
  9
$CLAYER
  8
0
  9
$LTSCALE
 40
8.2589526801
  9
$CELTYPE
  6
BYLAYER
  9
$DIMSCALE
 40
1.0
  9
$DIMASZ
 40
1.0664969887
  9
$DIMEXO
 40
1.0
  9
$DIMDLI
 40
5.7061854881
  9
$DIMEXE
 40
1.0
  9
$DIMCEN
 40
1.351464984
  9
$DIMLFAC
 40
1.0
  9
$DIMBLK
  1
_FILLED
  9
$DIMALT
 70
0
  9
$DIMALTF
 40
0.0393700787
  9
$DIMTXT
 40
1.4930957841
  9
$DIMTOL
 70
1
  9
$DIMLIM
 70
0
  9
$DIMTFAC
 40
1.0
  9
$DIMTP
 40
0.01
  9
$DIMTM
 40
0.01
  9
$DIMGAP
 40
0.625
  9
$DIMDSEP
 70
46
  9
$AUNITS
 70
0
  9
$PDMODE
 70
3
  9
$PDSIZE
 40
0.3125
  9
$HANDSEED
  5
27E
  9
$TILEMODE
 70
1
  9
$MEASUREMENT
 70
1
  9
$INSUNITS
 70
4
  0
ENDSEC
  0
SECTION
  2
CLASSES
  0
CLASS
  1
ACDBDICTIONARYWDFLT
  2
AcDbDictionaryWithDefault
  3
AutoCAD 2000
 90
0
 91
1
280
0
281
0
  0
CLASS
  1
ACDBPLACEHOLDER
  2
AcDbPlaceHolder
  3
AutoCAD 2000
 90
0
 91
1
280
0
281
0
  0
CLASS
  1
LAYOUT
  2
AcDbLayout
  3
AutoCAD 2000
 90
0
 91
0
280
0
281
0
  0
ENDSEC
  0
SECTION
  2
TABLES
  0
TABLE
  2
VPORT
  5
8
100
AcDbSymbolTable
 70
2
  0
VPORT
  5
1F4
100
AcDbSymbolTableRecord
100
AcDbViewportTableRecord
  2
*ACTIVE
 70
0
 10
0.0
 20
0.0
 11
1.0
 21
1.0
 12
44.7928735235
 22
63.3499211261
 13
0.0
 23
0.0
 14
1.0
 24
1.0
 15
0.0
 25
0.0
 16
0.0
 26
0.0
 36
1.0
 17
0.0
 27
0.0
 37
0.0
 40
126.6998422523
 41
0.7070707071
 42
50.0
 43
0.0
 44
0.0
 50
0.0
 51
0.0
 71
0
 72
100
 73
1
 74
1
 75
0
 76
0
 77
0
 78
0
  0
ENDTAB
  0
TABLE
  2
LTYPE
  5
5
100
AcDbSymbolTable
 70
6
  0
LTYPE
  5
14
100
AcDbSymbolTableRecord
100
AcDbLinetypeTableRecord
  2
BYBLOCK
 70
0
  3

 72
65
 73
0
 40
0.0
  0
LTYPE
  5
15
100
AcDbSymbolTableRecord
100
AcDbLinetypeTableRecord
  2
BYLAYER
 70
0
  3

 72
65
 73
0
 40
0.0
  0
LTYPE
  5
16
100
AcDbSymbolTableRecord
100
AcDbLinetypeTableRecord
  2
CONTINUOUS
 70
64
  3
Solid line
 72
65
 73
0
 40
0.0
  0
LTYPE
  5
1F5
100
AcDbSymbolTableRecord
100
AcDbLinetypeTableRecord
  2
CENTER
 70
64
  3
____ _ ____ _ ____ _ ____ _ ____ _ ____ _ ____
 72
65
 73
4
 40
0.6
 49
0.375
 74
0
 49
-0.075
 74
0
 49
0.075
 74
0
 49
-0.075
 74
0
  0
LTYPE
  5
1F6
100
AcDbSymbolTableRecord
100
AcDbLinetypeTableRecord
  2
HIDDEN
 70
64
  3
- - - - - - - - - - - - - - - - - - - -
 72
65
 73
2
 40
0.2
 49
0.1
 74
0
 49
-0.1
 74
0
  0
LTYPE
  5
1F7
100
AcDbSymbolTableRecord
100
AcDbLinetypeTableRecord
  2
PHANTOM
 70
64
  3
_____ _ _ _____ _ _ _____ _ _ _____
 72
65
 73
6
 40
0.8
 49
0.45
 74
0
 49
-0.05
 74
0
 49
0.1
 74
0
 49
-0.05
 74
0
 49
0.1
 74
0
 49
-0.05
 74
0
  0
LTYPE
  5
1F8
100
AcDbSymbolTableRecord
100
AcDbLinetypeTableRecord
  2
DOT
 70
64
  3
. . . . . . . . . . . . . . . . . . . .
 72
65
 73
2
 40
0.2
 49
0.1
 74
0
 49
-0.1
 74
0
  0
LTYPE
  5
1F9
100
AcDbSymbolTableRecord
100
AcDbLinetypeTableRecord
  2
DASHED
 70
64
  3
- - - - - - - - - - - - - - - - - - - -
 72
65
 73
2
 40
0.2
 49
0.1
 74
0
 49
-0.1
 74
0
  0
ENDTAB
  0
TABLE
  2
LAYER
  5
2
100
AcDbSymbolTable
 70
36
  0
LAYER
  5
10
100
AcDbSymbolTableRecord
100
AcDbLayerTableRecord
  2
0
 70
0
 62
7
  6
CONTINUOUS
370
-3
390
F
  0
LAYER
  5
1FA
100
AcDbSymbolTableRecord
100
AcDbLayerTableRecord
  2
DEFAULT_1
 70
0
 62
7
  6
CENTER
370
-3
390
F
  0
LAYER
  5
1FB
100
AcDbSymbolTableRecord
100
AcDbLayerTableRecord
  2
DEFAULT_2
 70
0
 62
7
  6
HIDDEN
370
-3
390
F
  0
LAYER
  5
1FC
100
AcDbSymbolTableRecord
100
AcDbLayerTableRecord
  2
DEFAULT_3
 70
0
 62
7
  6
PHANTOM
370
-3
390
F
  0
LAYER
  5
1FD
100
AcDbSymbolTableRecord
100
AcDbLayerTableRecord
  2
00_COMPONENTS
 70
0
 62
7
  6
CONTINUOUS
370
-3
390
F
  0
LAYER
  5
1FE
100
AcDbSymbolTableRecord
100
AcDbLayerTableRecord
  2
01_1_DEFAULT_DATUMS
 70
0
 62
7
  6
CONTINUOUS
370
-3
390
F
  0
LAYER
  5
1FF
100
AcDbSymbolTableRecord
100
AcDbLayerTableRecord
  2
01_PLANES
 70
0
 62
7
  6
CONTINUOUS
370
-3
390
F
  0
LAYER
  5
200
100
AcDbSymbolTableRecord
100
AcDbLayerTableRecord
  2
02_COORD_SYS
 70
0
 62
7
  6
CONTINUOUS
370
-3
390
F
  0
LAYER
  5
201
100
AcDbSymbolTableRecord
100
AcDbLayerTableRecord
  2
03_AXES
 70
0
 62
7
  6
CONTINUOUS
370
-3
390
F
  0
LAYER
  5
202
100
AcDbSymbolTableRecord
100
AcDbLayerTableRecord
  2
04_POINTS
 70
0
 62
7
  6
CONTINUOUS
370
-3
390
F
  0
LAYER
  5
203
100
AcDbSymbolTableRecord
100
AcDbLayerTableRecord
  2
05_CURVES
 70
0
 62
7
  6
CONTINUOUS
370
-3
390
F
  0
LAYER
  5
204
100
AcDbSymbolTableRecord
100
AcDbLayerTableRecord
  2
06_SURFS
 70
0
 62
7
  6
CONTINUOUS
370
-3
390
F
  0
LAYER
  5
205
100
AcDbSymbolTableRecord
100
AcDbLayerTableRecord
  2
07_COSMETICS
 70
0
 62
7
  6
CONTINUOUS
370
-3
390
F
  0
LAYER
  5
206
100
AcDbSymbolTableRecord
100
AcDbLayerTableRecord
  2
10_NOTES
 70
0
 62
7
  6
CONTINUOUS
370
-3
390
F
  0
LAYER
  5
207
100
AcDbSymbolTableRecord
100
AcDbLayerTableRecord
  2
11_NOTES_PUB
 70
0
 62
7
  6
CONTINUOUS
370
-3
390
F
  0
LAYER
  5
208
100
AcDbSymbolTableRecord
100
AcDbLayerTableRecord
  2
13_REF_GTOL
 70
0
 62
7
  6
CONTINUOUS
370
-3
390
F
  0
LAYER
  5
209
100
AcDbSymbolTableRecord
100
AcDbLayerTableRecord
  2
16_MISC
 70
0
 62
7
  6
CONTINUOUS
370
-3
390
F
  0
LAYER
  5
20A
100
AcDbSymbolTableRecord
100
AcDbLayerTableRecord
  2
17_NO_PRINT
 70
0
 62
7
  6
CONTINUOUS
370
-3
390
F
  0
LAYER
  5
20B
100
AcDbSymbolTableRecord
100
AcDbLayerTableRecord
  2
18_DATUM_CAMS_JOINTS
 70
0
 62
7
  6
CONTINUOUS
370
-3
390
F
  0
LAYER
  5
20C
100
AcDbSymbolTableRecord
100
AcDbLayerTableRecord
  2
19_DATUM_FUNCTIONAL
 70
0
 62
7
  6
CONTINUOUS
370
-3
390
F
  0
LAYER
  5
20D
100
AcDbSymbolTableRecord
100
AcDbLayerTableRecord
  2
20_DATUM_KINEMATIC_SCHEME
 70
0
 62
7
  6
CONTINUOUS
370
-3
390
F
  0
ENDTAB
  0
TABLE
  2
STYLE
  5
3
100
AcDbSymbolTable
 70
1
  0
STYLE
  5
11
100
AcDbSymbolTableRecord
100
AcDbTextStyleTableRecord
  2
STANDARD
 70
0
 40
0.0
 41
1.0
 50
0.0
 71
0
 42
0.2
  3
ARIAL.TTF
  4

  0
STYLE
  5
20E
100
AcDbSymbolTableRecord
100
AcDbTextStyleTableRecord
  2
TEXTSTYLE_1
 70
0
 40
0.0
 41
0.8
 50
0.0
 71
0
 42
0.2
  3
gdt
  4

  0
ENDTAB
  0
TABLE
  2
VIEW
  5
6
100
AcDbSymbolTable
 70
0
  0
ENDTAB
  0
TABLE
  2
UCS
  5
7
100
AcDbSymbolTable
 70
0
  0
ENDTAB
  0
TABLE
  2
APPID
  5
9
100
AcDbSymbolTable
 70
1
  0
APPID
  5
20F
100
AcDbSymbolTableRecord
100
AcDbRegAppTableRecord
  2
ACAD
 70
0
  0
ENDTAB
  0
TABLE
  2
BLOCK_RECORD
  5
1
100
AcDbSymbolTable
 70
0
  0
BLOCK_RECORD
  5
210
100
AcDbSymbolTableRecord
100
AcDbBlockTableRecord
  2
*Model_Space
  0
BLOCK_RECORD
  5
211
100
AcDbSymbolTableRecord
100
AcDbBlockTableRecord
  2
*Paper_Space
  0
BLOCK_RECORD
  5
212
100
AcDbSymbolTableRecord
100
AcDbBlockTableRecord
  2
_FILLED
  0
ENDTAB
  0
TABLE
  2
DIMSTYLE
  5
A
100
AcDbSymbolTable
 70
1
100
AcDbDimStyleTable
 71
0
  0
DIMSTYLE
105
213
100
AcDbSymbolTableRecord
100
AcDbDimStyleTableRecord
  2
STANDARD
 70
0
  3

  4

 40
1.0
 41
1.0664969887
 42
1.0
 43
0.38
 44
1.0
 45
0.0
 46
0.0
 47
0.01
 48
0.01
140
1.4930957841
141
0.09
142
0.0
143
25.4
144
1.0
145
0.0
146
1.0
147
0.625
 71
1
 72
0
 73
0
 74
0
 75
0
 76
0
 77
1
 78
8
 79
2
170
0
171
1
172
0
173
0
174
0
175
0
176
0
177
0
178
0
270
2
179
2
271
2
272
2
273
2
274
2
275
0
280
0
281
0
282
0
283
1
284
8
285
0
286
0
287
3
288
0
340
11
278
46
341
212
342
212
343
212
344
212
  0
ENDTAB
  0
ENDSEC
  0
SECTION
  2
BLOCKS
  0
BLOCK
  5
20
100
AcDbEntity
  8
0
100
AcDbBlockBegin
  2
*Model_Space
 70
0
 10
0.0
 20
0.0
 30
0.0
  3
*Model_Space
  1

  0
ENDBLK
  5
21
100
AcDbEntity
  8
0
100
AcDbBlockEnd
  0
BLOCK
  5
1C
100
AcDbEntity
  8
0
100
AcDbBlockBegin
  2
*Paper_Space
 70
0
 10
0.0
 20
0.0
 30
0.0
  3
*Paper_Space
  1

  0
ENDBLK
  5
1D
100
AcDbEntity
  8
0
100
AcDbBlockEnd
  0
BLOCK
  5
214
100
AcDbEntity
  8
0
100
AcDbBlockBegin
  2
_FILLED
 70
64
 10
0.0
 20
0.0
  3
_FILLED
  1

  0
SOLID
  5
215
100
AcDbEntity
  8
0
  6
BYBLOCK
 62
0
100
AcDbTrace
 10
0.0
 20
0.0
 11
-1.0
 21
0.25
 12
-1.0
 22
-0.25
 13
-1.0
 23
-0.25
  0
ENDBLK
  5
216
100
AcDbEntity
  8
0
  6
BYBLOCK
 62
0
100
AcDbBlockEnd
  0
ENDSEC
  0
SECTION
  2
ENTITIES
  0
LINE
  5
217
100
AcDbEntity
  8
0
100
AcDbLine
 62
7
  6
BYLAYER
 10
26.4904205001
 20
86.6857920593
 11
27.0645052082
 21
87.0172494966
  0
LINE
  5
218
100
AcDbEntity
  8
0
100
AcDbLine
 62
7
  6
BYLAYER
 10
16.4579428701
 20
69.3088381522
 11
16.4579476504
 21
68.6459489473
  0
LINE
  5
219
100
AcDbEntity
  8
0
100
AcDbLine
 62
7
  6
BYLAYER
 10
30.3034776801
 20
49.7177247267
 11
27.2737884992
 21
51.4668770197
  0
LINE
  5
21A
100
AcDbEntity
  8
0
100
AcDbLine
 62
7
  6
BYLAYER
 10
23.2323804286
 20
53.8001322719
 11
20.2026912478
 21
55.5492845649
  0
LINE
  5
21B
100
AcDbEntity
  8
0
100
AcDbLine
 62
7
  6
BYLAYER
 10
43.4406608363
 20
48.8184565034
 11
43.7064761885
 21
48.824109349
  0
LINE
  5
21C
100
AcDbEntity
  8
0
100
AcDbLine
 62
7
  6
BYLAYER
 10
53.2853694225
 20
42.3110225827
 11
62.4777958494
 21
37.003892774
  0
LINE
  5
21D
100
AcDbEntity
  8
0
100
AcDbLine
 62
7
  6
BYLAYER
 10
14.8002651518
 20
65.4673724325
 11
17.7918422194
 21
63.7402236806
  0
LINE
  5
21E
100
AcDbEntity
  8
0
100
AcDbLine
 62
7
  6
BYLAYER
 10
42.02398957
 20
49.7501033835
 11
43.4382090203
 21
48.9336218744
  0
LINE
  5
21F
100
AcDbEntity
  8
0
100
AcDbLine
 62
7
  6
BYLAYER
 10
30.3034776801
 20
66.6884087783
 11
27.2737884992
 21
68.4375610714
  0
LINE
  5
220
100
AcDbEntity
  8
0
100
AcDbLine
 62
7
  6
BYLAYER
 10
23.2323804286
 20
70.7708163236
 11
20.2026912478
 21
72.5199686166
  0
LINE
  5
221
100
AcDbEntity
  8
0
100
AcDbLine
 62
7
  6
BYLAYER
 10
28.9881494215
 20
90.0420647808
 11
31.977665934
 21
88.316105664
  0
LINE
  5
222
100
AcDbEntity
  8
0
100
AcDbLine
 62
7
  6
BYLAYER
 10
56.2118738397
 20
74.3247957318
 11
57.62609329
 21
73.5083142227
  0
LINE
  5
223
100
AcDbEntity
  8
0
100
AcDbLine
 62
7
  6
BYLAYER
 10
43.0313467499
 20
82.5221455739
 11
40.0016575691
 21
84.2712978669
  0
LINE
  5
224
100
AcDbEntity
  8
0
100
AcDbLine
 62
7
  6
BYLAYER
 10
35.9602494985
 20
86.6045531191
 11
32.9305603176
 21
88.3537054121
  0
LINE
  5
225
100
AcDbEntity
  8
0
100
AcDbLine
 62
7
  6
BYLAYER
 10
68.2851149171
 20
68.2919316334
 11
77.477541344
 21
62.9848018246
  0
LWPOLYLINE
  5
226
100
AcDbEntity
  8
0
100
AcDbPolyline
 62
7
  6
BYLAYER
 90
3
 70
0
 10
57.8741396342
 20
73.3163912728
 10
56.8363876164
 20
74.7927759547
 10
56.043719744
 20
75.3593445455
  0
LINE
  5
227
100
AcDbEntity
  8
0
100
AcDbLine
 62
7
  6
BYLAYER
 10
55.7592158198
 20
81.3851983177
 11
52.7295266389
 21
83.1343506107
  0
LINE
  5
228
100
AcDbEntity
  8
0
100
AcDbLine
 62
7
  6
BYLAYER
 10
48.6881185683
 20
85.4676058629
 11
45.6584293875
 21
87.2167581559
  0
LINE
  5
229
100
AcDbEntity
  8
0
100
AcDbLine
 62
7
  6
BYLAYER
 10
32.9209488875
 20
88.3622053084
 11
32.9404975654
 21
88.3585069594
  0
LINE
  5
22A
100
AcDbEntity
  8
0
100
AcDbLine
 62
7
  6
BYLAYER
 10
32.9096259822
 20
88.3359247835
 11
32.9309288075
 21
88.3363778107
  0
ARC
  5
22B
100
AcDbEntity
  8
0
100
AcDbCircle
 62
7
  6
BYLAYER
 10
1.0017913377
 20
101.8736035798
 40
67.8720033804
100
AcDbArc
 50
308.2611897598
 51
308.5676598823
  0
ARC
  5
22C
100
AcDbEntity
  8
0
100
AcDbCircle
 62
7
  6
BYLAYER
 10
-14.9493814694
 20
71.5232473022
 40
65.1473448939
100
AcDbArc
 50
10.8995044027
 51
12.3594111685
  0
ARC
  5
22D
100
AcDbEntity
  8
0
100
AcDbCircle
 62
7
  6
BYLAYER
 10
31.8988543824
 20
82.9051750829
 40
5.551923007
100
AcDbArc
 50
78.1452657716
 51
79.1861678864
  0
SPLINE
  5
22E
100
AcDbEntity
  8
0
100
AcDbSpline
 62
7
  6
BYLAYER
 70
0
 71
3
 72
11
 73
7
 74
0
 42
0.0000001
 43
0.0000001
 44
0.0000000001
 40
0.0
 40
0.0
 40
0.0
 40
0.0
 40
0.249704847
 40
0.5018231207
 40
0.7530211797
 40
1.0
 40
1.0
 40
1.0
 40
1.0
 10
28.0107706179
 20
70.0496962979
 30
0.0
 10
28.2704745038
 20
70.6976600827
 30
0.0
 10
28.8482012301
 20
71.9781597603
 30
0.0
 10
29.8685408488
 20
73.8220275641
 30
0.0
 10
31.0306809116
 20
75.5708500298
 30
0.0
 10
31.8960191497
 20
76.6646094361
 30
0.0
 10
32.3478182523
 20
77.1867196252
 30
0.0
  0
SPLINE
  5
22F
100
AcDbEntity
  8
0
100
AcDbSpline
 62
7
  6
BYLAYER
 70
0
 71
3
 72
9
 73
5
 74
0
 42
0.0000001
 43
0.0000001
 44
0.0000000001
 40
0.0
 40
0.0
 40
0.0
 40
0.0
 40
0.5082527606
 40
1.0
 40
1.0
 40
1.0
 40
1.0
 10
32.3478182523
 20
77.1867196252
 30
0.0
 10
32.703409936
 20
77.5976501476
 30
0.0
 10
33.431385473
 20
78.3821410892
 30
0.0
 10
34.2157521789
 20
79.1105424998
 30
0.0
 10
34.6153267196
 20
79.4522742821
 30
0.0
  0
SPLINE
  5
230
100
AcDbEntity
  8
0
100
AcDbSpline
 62
7
  6
BYLAYER
 70
0
 71
3
 72
9
 73
5
 74
0
 42
0.0000001
 43
0.0000001
 44
0.0000000001
 40
0.0
 40
0.0
 40
0.0
 40
0.0
 40
0.5111748014
 40
1.0
 40
1.0
 40
1.0
 40
1.0
 10
23.2323804286
 20
53.8001322719
 30
0.0
 10
23.8688807026
 20
53.6656202856
 30
0.0
 10
25.1159885579
 20
53.4115068154
 30
0.0
 10
26.3679421126
 20
53.1820604761
 30
0.0
 10
26.9812952728
 20
53.0780200547
 30
0.0
  0
SPLINE
  5
231
100
AcDbEntity
  8
0
100
AcDbSpline
 62
7
  6
BYLAYER
 70
0
 71
3
 72
11
 73
7
 74
0
 42
0.0000001
 43
0.0000001
 44
0.0000000001
 40
0.0
 40
0.0
 40
0.0
 40
0.0
 40
0.2238686444
 40
0.4673674335
 40
0.7272282874
 40
1.0
 40
1.0
 40
1.0
 40
1.0
 10
38.1576779737
 20
88.441558467
 30
0.0
 10
38.7228694975
 20
88.3910713863
 30
0.0
 10
39.9002934161
 20
88.2566578
 30
0.0
 10
41.7229251649
 20
87.979395662
 30
0.0
 10
43.6588837697
 20
87.6286895917
 30
0.0
 10
44.9819728275
 20
87.3597141283
 30
0.0
 10
45.6584293875
 20
87.2167581559
 30
0.0
  0
SPLINE
  5
232
100
AcDbEntity
  8
0
100
AcDbSpline
 62
7
  6
BYLAYER
 70
0
 71
3
 72
11
 73
7
 74
0
 42
0.0000001
 43
0.0000001
 44
0.0000000001
 40
0.0
 40
0.0
 40
0.0
 40
0.0
 40
0.2100625315
 40
0.444062914
 40
0.7063986533
 40
1.0
 40
1.0
 40
1.0
 40
1.0
 10
32.9305603176
 20
88.3537054121
 30
0.0
 10
33.2931623849
 20
88.4097929083
 30
0.0
 10
34.0639742378
 20
88.5020316924
 30
0.0
 10
35.2969846307
 20
88.5666468131
 30
0.0
 10
36.6775005711
 20
88.5521427421
 30
0.0
 10
37.646881133
 20
88.4871866128
 30
0.0
 10
38.1576779737
 20
88.441558467
 30
0.0
  0
SPLINE
  5
233
100
AcDbEntity
  8
0
100
AcDbSpline
 62
7
  6
BYLAYER
 70
0
 71
3
 72
11
 73
7
 74
0
 42
0.0000001
 43
0.0000001
 44
0.0000000001
 40
0.0
 40
0.0
 40
0.0
 40
0.0
 40
0.247670327
 40
0.4973373623
 40
0.7483031512
 40
1.0
 40
1.0
 40
1.0
 40
1.0
 10
25.4298089038
 20
81.0931636973
 30
0.0
 10
25.9708602497
 20
81.7662429501
 30
0.0
 10
27.1052865412
 20
83.0799783253
 30
0.0
 10
28.938634571
 20
84.9387562031
 30
0.0
 10
30.8857380054
 20
86.6984346135
 30
0.0
 10
32.2414645045
 20
87.8102302722
 30
0.0
 10
32.9305603176
 20
88.3537054121
 30
0.0
  0
SPLINE
  5
234
100
AcDbEntity
  8
0
100
AcDbSpline
 62
7
  6
BYLAYER
 70
0
 71
3
 72
11
 73
7
 74
0
 42
0.0000001
 43
0.0000001
 44
0.0000000001
 40
0.0
 40
0.0
 40
0.0
 40
0.0
 40
0.2602536681
 40
0.5147427021
 40
0.7618353688
 40
1.0
 40
1.0
 40
1.0
 40
1.0
 10
20.2026912478
 20
55.5492845649
 30
0.0
 10
20.0318153793
 20
56.3314430754
 30
0.0
 10
19.7190219268
 20
57.8841517543
 30
0.0
 10
19.3548208478
 20
60.2001844133
 30
0.0
 10
19.1217740949
 20
62.4651185118
 30
0.0
 10
19.0658743689
 20
63.9582984259
 30
0.0
 10
19.0658743689
 20
64.6909532737
 30
0.0
  0
SPLINE
  5
235
100
AcDbEntity
  8
0
100
AcDbSpline
 62
7
  6
BYLAYER
 70
0
 71
3
 72
11
 73
7
 74
0
 42
0.0000001
 43
0.0000001
 44
0.0000000001
 40
0.0
 40
0.0
 40
0.0
 40
0.0
 40
0.2655478913
 40
0.5198361305
 40
0.7640838454
 40
1.0
 40
1.0
 40
1.0
 40
1.0
 10
19.0658743689
 20
64.6909532737
 30
0.0
 10
19.0658743689
 20
65.393517973
 30
0.0
 10
19.1153154613
 20
66.7695305794
 30
0.0
 10
19.3441209882
 20
68.7800158333
 30
0.0
 10
19.7067866282
 20
70.6906718159
 30
0.0
 10
20.0276469168
 20
71.9208488084
 30
0.0
 10
20.2026912478
 20
72.5199686166
 30
0.0
  0
SPLINE
  5
236
100
AcDbEntity
  8
0
100
AcDbSpline
 62
7
  6
BYLAYER
 70
0
 71
3
 72
11
 73
7
 74
0
 42
0.0000001
 43
0.0000001
 44
0.0000000001
 40
0.0
 40
0.0
 40
0.0
 40
0.0
 40
0.2454667374
 40
0.4938230563
 40
0.7453379156
 40
1.0
 40
1.0
 40
1.0
 40
1.0
 10
20.2026912478
 20
72.5199686166
 30
0.0
 10
20.5493739889
 20
73.2669699142
 30
0.0
 10
21.2802108479
 20
74.7546567216
 30
0.0
 10
22.5028850814
 20
76.937529648
 30
0.0
 10
23.876324736
 20
79.0660892866
 30
0.0
 10
24.8945229313
 20
80.4272566901
 30
0.0
 10
25.4298089038
 20
81.0931636973
 30
0.0
  0
SPLINE
  5
237
100
AcDbEntity
  8
0
100
AcDbSpline
 62
7
  6
BYLAYER
 70
0
 71
3
 72
11
 73
7
 74
0
 42
0.0000001
 43
0.0000001
 44
0.0000000001
 40
0.0
 40
0.0
 40
0.0
 40
0.0
 40
0.247670327
 40
0.4973373623
 40
0.7483031512
 40
1.0
 40
1.0
 40
1.0
 40
1.0
 10
30.7331318424
 20
78.0313580384
 30
0.0
 10
30.1920804965
 20
77.3582787855
 30
0.0
 10
29.0576542051
 20
76.0445434104
 30
0.0
 10
27.2243061752
 20
74.1857655325
 30
0.0
 10
25.2772027409
 20
72.4260871221
 30
0.0
 10
23.9214762417
 20
71.3142914634
 30
0.0
 10
23.2323804286
 20
70.7708163236
 30
0.0
  0
SPLINE
  5
238
100
AcDbEntity
  8
0
100
AcDbSpline
 62
7
  6
BYLAYER
 70
0
 71
3
 72
11
 73
7
 74
0
 42
0.0000001
 43
0.0000001
 44
0.0000000001
 40
0.0
 40
0.0
 40
0.0
 40
0.0
 40
0.2602536681
 40
0.5147427021
 40
0.7618353688
 40
1.0
 40
1.0
 40
1.0
 40
1.0
 10
23.2323804286
 20
70.7708163236
 30
0.0
 10
23.4032562971
 20
69.9886578131
 30
0.0
 10
23.7160497495
 20
68.4359491341
 30
0.0
 10
24.0802508286
 20
66.1199164752
 30
0.0
 10
24.3132975815
 20
63.8549823767
 30
0.0
 10
24.3691973075
 20
62.3618024626
 30
0.0
 10
24.3691973075
 20
61.6291476148
 30
0.0
  0
SPLINE
  5
239
100
AcDbEntity
  8
0
100
AcDbSpline
 62
7
  6
BYLAYER
 70
0
 71
3
 72
11
 73
7
 74
0
 42
0.0000001
 43
0.0000001
 44
0.0000000001
 40
0.0
 40
0.0
 40
0.0
 40
0.0
 40
0.2454667374
 40
0.4938230563
 40
0.7453379156
 40
1.0
 40
1.0
 40
1.0
 40
1.0
 10
35.9602494985
 20
86.6045531191
 30
0.0
 10
35.6135667573
 20
85.8575518214
 30
0.0
 10
34.8827298984
 20
84.369865014
 30
0.0
 10
33.6600556648
 20
82.1869920876
 30
0.0
 10
32.2866160103
 20
80.0584324491
 30
0.0
 10
31.268417815
 20
78.6972650455
 30
0.0
 10
30.7331318424
 20
78.0313580384
 30
0.0
  0
SPLINE
  5
23A
100
AcDbEntity
  8
0
100
AcDbSpline
 62
7
  6
BYLAYER
 70
0
 71
3
 72
11
 73
7
 74
0
 42
0.0000001
 43
0.0000001
 44
0.0000000001
 40
0.0
 40
0.0
 40
0.0
 40
0.0
 40
0.2238686444
 40
0.4673674335
 40
0.7272282874
 40
1.0
 40
1.0
 40
1.0
 40
1.0
 10
43.4610009123
 20
85.379752808
 30
0.0
 10
42.8958093885
 20
85.4302398887
 30
0.0
 10
41.7183854699
 20
85.564653475
 30
0.0
 10
39.895753721
 20
85.841915613
 30
0.0
 10
37.9597951162
 20
86.1926216833
 30
0.0
 10
36.6367060584
 20
86.4615971467
 30
0.0
 10
35.9602494985
 20
86.6045531191
 30
0.0
  0
SPLINE
  5
23B
100
AcDbEntity
  8
0
100
AcDbSpline
 62
7
  6
BYLAYER
 70
0
 71
3
 72
14
 73
10
 74
0
 42
0.0000001
 43
0.0000001
 44
0.0000000001
 40
0.0
 40
0.0
 40
0.0
 40
0.0
 40
0.1437959293
 40
0.2819959488
 40
0.5411216385
 40
0.6626493107
 40
0.7792249755
 40
0.8914254298
 40
1.0
 40
1.0
 40
1.0
 40
1.0
 10
24.3691973075
 20
61.6291476148
 30
0.0
 10
24.3691973075
 20
61.2683337984
 30
0.0
 10
24.3917852023
 20
60.5603772208
 30
0.0
 10
24.5299786842
 20
59.209058692
 30
0.0
 10
24.8073230302
 20
57.9295895331
 30
0.0
 10
25.2376187406
 20
56.7567594507
 30
0.0
 10
25.6209729107
 20
55.9639799403
 30
0.0
 10
26.0695743863
 20
55.2442201817
 30
0.0
 10
26.4156888894
 20
54.8096969992
 30
0.0
 10
26.598263678
 20
54.6074894672
 30
0.0
  0
SPLINE
  5
23C
100
AcDbEntity
  8
0
100
AcDbSpline
 62
7
  6
BYLAYER
 70
0
 71
3
 72
15
 73
11
 74
0
 42
0.0000001
 43
0.0000001
 44
0.0000000001
 40
0.0
 40
0.0
 40
0.0
 40
0.0
 40
0.129847411
 40
0.2611866596
 40
0.3925260486
 40
0.5223738886
 40
0.6492905064
 40
0.7719421396
 40
0.8891589506
 40
1.0
 40
1.0
 40
1.0
 40
1.0
 10
30.7331318424
 20
78.0313580384
 30
0.0
 10
30.2476941615
 20
77.4274633543
 30
0.0
 10
29.3192451016
 20
76.1733592272
 30
0.0
 10
28.0715778571
 20
74.1885882343
 30
0.0
 10
26.9764948578
 20
72.1155441923
 30
0.0
 10
26.052638225
 20
69.9894325066
 30
0.0
 10
25.3155898638
 20
67.8461571102
 30
0.0
 10
24.7778095996
 20
65.7217303162
 30
0.0
 10
24.448418363
 20
63.6521707498
 30
0.0
 10
24.3691973075
 20
62.2905495225
 30
0.0
 10
24.3691973075
 20
61.6291476148
 30
0.0
  0
SPLINE
  5
23D
100
AcDbEntity
  8
0
100
AcDbSpline
 62
7
  6
BYLAYER
 70
0
 71
3
 72
11
 73
7
 74
0
 42
0.0000001
 43
0.0000001
 44
0.0000000001
 40
0.0
 40
0.0
 40
0.0
 40
0.0
 40
0.232065918
 40
0.4774810713
 40
0.7342754496
 40
1.0
 40
1.0
 40
1.0
 40
1.0
 10
37.0970663773
 20
83.6745858928
 30
0.0
 10
36.5242812946
 20
83.3438902451
 30
0.0
 10
35.3847089517
 20
82.5944847598
 30
0.0
 10
33.7571134125
 20
81.2744325686
 30
0.0
 10
32.1862791996
 20
79.7465855636
 30
0.0
 10
31.207609877
 20
78.6216186919
 30
0.0
 10
30.7331318424
 20
78.0313580384
 30
0.0
  0
SPLINE
  5
23E
100
AcDbEntity
  8
0
100
AcDbSpline
 62
7
  6
BYLAYER
 70
0
 71
3
 72
11
 73
7
 74
0
 42
0.0000001
 43
0.0000001
 44
0.0000000001
 40
0.0
 40
0.0
 40
0.0
 40
0.0
 40
0.2234035249
 40
0.4632869182
 40
0.7219272534
 40
1.0
 40
1.0
 40
1.0
 40
1.0
 10
43.4610009123
 20
85.379752808
 30
0.0
 10
42.9652292333
 20
85.4240387955
 30
0.0
 10
41.925830574
 20
85.4094482636
 30
0.0
 10
40.3397162498
 20
85.1051158975
 30
0.0
 10
38.7031522916
 20
84.5266075933
 30
0.0
 10
37.633612701
 20
83.9843592081
 30
0.0
 10
37.0970663773
 20
83.6745858928
 30
0.0
  0
SPLINE
  5
23F
100
AcDbEntity
  8
0
100
AcDbSpline
 62
7
  6
BYLAYER
 70
0
 71
3
 72
11
 73
7
 74
0
 42
0.0000001
 43
0.0000001
 44
0.0000000001
 40
0.0
 40
0.0
 40
0.0
 40
0.0
 40
0.245551426
 40
0.4921665819
 40
0.7428071155
 40
1.0
 40
1.0
 40
1.0
 40
1.0
 10
46.5375090569
 20
84.2854657266
 30
0.0
 10
46.316131431
 20
84.4403488018
 30
0.0
 10
45.8508919383
 20
84.7212783291
 30
0.0
 10
45.0983482091
 20
85.0461862648
 30
0.0
 10
44.2971724348
 20
85.2720301671
 30
0.0
 10
43.7428668754
 20
85.3545744587
 30
0.0
 10
43.4610009123
 20
85.379752808
 30
0.0
  0
SPLINE
  5
240
100
AcDbEntity
  8
0
100
AcDbSpline
 62
7
  6
BYLAYER
 70
0
 71
3
 72
23
 73
19
 74
0
 42
0.0000001
 43
0.0000001
 44
0.0000000001
 40
0.0
 40
0.0
 40
0.0
 40
0.0
 40
0.0500358723
 40
0.1033924766
 40
0.1600104603
 40
0.219682831
 40
0.2820838893
 40
0.3467941647
 40
0.4133219798
 40
0.4811227754
 40
0.5496170172
 40
0.6182068118
 40
0.686291427
 40
0.7532832225
 40
0.8186263907
 40
0.8818059628
 40
0.9423894508
 40
1.0
 40
1.0
 40
1.0
 40
1.0
 10
47.3306118815
 20
78.1052906124
 30
0.0
 10
47.4408181084
 20
77.7017888427
 30
0.0
 10
47.6115039627
 20
76.8517484998
 30
0.0
 10
47.7210325521
 20
75.5161586463
 30
0.0
 10
47.6915995098
 20
74.0960108131
 30
0.0
 10
47.5237584268
 20
72.6097901869
 30
0.0
 10
47.2198458293
 20
71.0765185622
 30
0.0
 10
46.7838446724
 20
69.516048689
 30
0.0
 10
46.2214427834
 20
67.9486324796
 30
0.0
 10
45.5399828423
 20
66.3946699639
 30
0.0
 10
44.7483555902
 20
64.8744146148
 30
0.0
 10
43.8568858034
 20
63.4076990827
 30
0.0
 10
42.8772020849
 20
62.0136669309
 30
0.0
 10
41.8220694475
 20
60.7104877945
 30
0.0
 10
40.7052388439
 20
59.5151928106
 30
0.0
 10
39.5411705449
 20
58.44317839
 30
0.0
 10
38.3450619618
 20
57.5086555671
 30
0.0
 10
37.5141470598
 20
56.9708063344
 30
0.0
 10
37.0970663773
 20
56.7300061275
 30
0.0
  0
SPLINE
  5
241
100
AcDbEntity
  8
0
100
AcDbSpline
 62
7
  6
BYLAYER
 70
0
 71
3
 72
9
 73
5
 74
0
 42
0.0000001
 43
0.0000001
 44
0.0000000001
 40
0.0
 40
0.0
 40
0.0
 40
0.0
 40
0.5182712944
 40
1.0
 40
1.0
 40
1.0
 40
1.0
 10
37.0970663773
 20
56.7300061275
 30
0.0
 10
36.6458923379
 20
56.4695222293
 30
0.0
 10
35.7467652326
 20
56.0141815008
 30
0.0
 10
34.7946852006
 20
55.6796616045
 30
0.0
 10
34.3265913336
 20
55.5556702944
 30
0.0
  0
SPLINE
  5
242
100
AcDbEntity
  8
0
100
AcDbSpline
 62
7
  6
BYLAYER
 70
0
 71
3
 72
11
 73
7
 74
0
 42
0.0000001
 43
0.0000001
 44
0.0000000001
 40
0.0
 40
0.0
 40
0.0
 40
0.0
 40
0.2100625315
 40
0.444062914
 40
0.7063986533
 40
1.0
 40
1.0
 40
1.0
 40
1.0
 10
48.6881185683
 20
85.4676058629
 30
0.0
 10
48.325516501
 20
85.4115183667
 30
0.0
 10
47.5547046482
 20
85.3192795826
 30
0.0
 10
46.3216942552
 20
85.2546644619
 30
0.0
 10
44.9411783148
 20
85.2691685329
 30
0.0
 10
43.9717977529
 20
85.3341246622
 30
0.0
 10
43.4610009123
 20
85.379752808
 30
0.0
  0
SPLINE
  5
243
100
AcDbEntity
  8
0
100
AcDbSpline
 62
7
  6
BYLAYER
 70
0
 71
3
 72
11
 73
7
 74
0
 42
0.0000001
 43
0.0000001
 44
0.0000000001
 40
0.0
 40
0.0
 40
0.0
 40
0.0
 40
0.2655478913
 40
0.5198361305
 40
0.7640838454
 40
1.0
 40
1.0
 40
1.0
 40
1.0
 10
24.3691973075
 20
61.6291476148
 30
0.0
 10
24.3691973075
 20
60.9265829154
 30
0.0
 10
24.319756215
 20
59.550570309
 30
0.0
 10
24.0909506881
 20
57.5400850551
 30
0.0
 10
23.7282850482
 20
55.6294290725
 30
0.0
 10
23.4074247596
 20
54.3992520801
 30
0.0
 10
23.2323804286
 20
53.8001322719
 30
0.0
  0
SPLINE
  5
244
100
AcDbEntity
  8
0
100
AcDbSpline
 62
7
  6
BYLAYER
 70
0
 71
3
 72
21
 73
17
 74
0
 42
0.0000001
 43
0.0000001
 44
0.0000000001
 40
0.0
 40
0.0
 40
0.0
 40
0.0
 40
0.0558448141
 40
0.1141921031
 40
0.1748022877
 40
0.237379542
 40
0.3015818043
 40
0.3670325304
 40
0.5000001201
 40
0.6329678451
 40
0.6984181812
 40
0.7626209858
 40
0.8251982657
 40
0.8858052734
 40
0.9441627189
 40
1.0
 40
1.0
 40
1.0
 40
1.0
 10
33.5616119737
 20
58.771373955
 30
0.0
 10
33.5616091722
 20
59.1817147074
 30
0.0
 10
33.5980457353
 20
60.0210915785
 30
0.0
 10
33.7526373091
 20
61.2972784659
 30
0.0
 10
34.0068895044
 20
62.6078062162
 30
0.0
 10
34.3583930205
 20
63.9400683168
 30
0.0
 10
34.8037569188
 20
65.2814627914
 30
0.0
 10
35.5206997958
 20
67.0740710742
 30
0.0
 10
36.6206551107
 20
69.2527218397
 30
0.0
 10
37.9574209073
 20
71.2946478776
 30
0.0
 10
39.1513731173
 20
72.8118617926
 30
0.0
 10
40.0903687593
 20
73.8682614521
 30
0.0
 10
41.0683685706
 20
74.8387961309
 30
0.0
 10
42.0762022833
 20
75.7143183219
 30
0.0
 10
43.1041425244
 20
76.4862512253
 30
0.0
 10
43.8128455182
 20
76.9375293139
 30
0.0
 10
44.1681636288
 20
77.1426710962
 30
0.0
  0
SPLINE
  5
245
100
AcDbEntity
  8
0
100
AcDbSpline
 62
7
  6
BYLAYER
 70
0
 71
3
 72
9
 73
5
 74
0
 42
0.0000001
 43
0.0000001
 44
0.0000000001
 40
0.0
 40
0.0
 40
0.0
 40
0.0
 40
0.4910665653
 40
1.0
 40
1.0
 40
1.0
 40
1.0
 10
56.7880301539
 20
74.8357428679
 30
0.0
 10
56.7004815199
 20
75.9180328586
 30
0.0
 10
56.4220859791
 20
78.1143022308
 30
0.0
 10
55.9993988129
 20
80.2857968995
 30
0.0
 10
55.7592158198
 20
81.3851983177
 30
0.0
  0
SPLINE
  5
246
100
AcDbEntity
  8
0
100
AcDbSpline
 62
7
  6
BYLAYER
 70
0
 71
3
 72
11
 73
7
 74
0
 42
0.0000001
 43
0.0000001
 44
0.0000000001
 40
0.0
 40
0.0
 40
0.0
 40
0.0
 40
0.2727717609
 40
0.5326326878
 40
0.7761314729
 40
1.0
 40
1.0
 40
1.0
 40
1.0
 10
30.3034776801
 20
49.7177247267
 30
0.0
 10
30.9799343595
 20
49.5747687291
 30
0.0
 10
32.303023763
 20
49.3057934295
 30
0.0
 10
34.2389826266
 20
48.9550871394
 30
0.0
 10
36.0616142497
 20
48.677824979
 30
0.0
 10
37.2390378666
 20
48.5434114698
 30
0.0
 10
37.8042290939
 20
48.4929244157
 30
0.0
  0
SPLINE
  5
247
100
AcDbEntity
  8
0
100
AcDbSpline
 62
7
  6
BYLAYER
 70
0
 71
3
 72
11
 73
7
 74
0
 42
0.0000001
 43
0.0000001
 44
0.0000000001
 40
0.0
 40
0.0
 40
0.0
 40
0.0
 40
0.2238686444
 40
0.4673674335
 40
0.7272282874
 40
1.0
 40
1.0
 40
1.0
 40
1.0
 10
45.2287752251
 20
84.3591509217
 30
0.0
 10
45.7939667489
 20
84.3086638411
 30
0.0
 10
46.9713906675
 20
84.1742502548
 30
0.0
 10
48.7940224164
 20
83.8969881168
 30
0.0
 10
50.7299810212
 20
83.5462820465
 30
0.0
 10
52.053070079
 20
83.2773065831
 30
0.0
 10
52.7295266389
 20
83.1343506107
 30
0.0
  0
SPLINE
  5
248
100
AcDbEntity
  8
0
100
AcDbSpline
 62
7
  6
BYLAYER
 70
0
 71
3
 72
11
 73
7
 74
0
 42
0.0000001
 43
0.0000001
 44
0.0000000001
 40
0.0
 40
0.0
 40
0.0
 40
0.0
 40
0.2100625315
 40
0.444062914
 40
0.7063986533
 40
1.0
 40
1.0
 40
1.0
 40
1.0
 10
40.0016575691
 20
84.2712978669
 30
0.0
 10
40.3642596364
 20
84.3273853631
 30
0.0
 10
41.1350714892
 20
84.4196241472
 30
0.0
 10
42.3680818822
 20
84.4842392679
 30
0.0
 10
43.7485978226
 20
84.4697351969
 30
0.0
 10
44.7179783845
 20
84.4047790676
 30
0.0
 10
45.2287752251
 20
84.3591509217
 30
0.0
  0
SPLINE
  5
249
100
AcDbEntity
  8
0
100
AcDbSpline
 62
7
  6
BYLAYER
 70
0
 71
3
 72
11
 73
7
 74
0
 42
0.0000001
 43
0.0000001
 44
0.0000000001
 40
0.0
 40
0.0
 40
0.0
 40
0.0
 40
0.247670327
 40
0.4973373623
 40
0.7483031512
 40
1.0
 40
1.0
 40
1.0
 40
1.0
 10
32.5009061553
 20
77.0107561521
 30
0.0
 10
33.0419575012
 20
77.6838354049
 30
0.0
 10
34.1763837926
 20
78.9975707801
 30
0.0
 10
36.0097318225
 20
80.8563486579
 30
0.0
 10
37.9568352568
 20
82.6160270683
 30
0.0
 10
39.312561756
 20
83.727822727
 30
0.0
 10
40.0016575691
 20
84.2712978669
 30
0.0
  0
SPLINE
  5
24A
100
AcDbEntity
  8
0
100
AcDbSpline
 62
7
  6
BYLAYER
 70
0
 71
3
 72
11
 73
7
 74
0
 42
0.0000001
 43
0.0000001
 44
0.0000000001
 40
0.0
 40
0.0
 40
0.0
 40
0.0
 40
0.293601477
 40
0.5559372501
 40
0.7899376188
 40
1.0
 40
1.0
 40
1.0
 40
1.0
 10
37.8042290939
 20
48.4929244157
 30
0.0
 10
38.3150261632
 20
48.4472962494
 30
0.0
 10
39.2844070206
 20
48.3823401338
 30
0.0
 10
40.6649232168
 20
48.367836072
 30
0.0
 10
41.8979334204
 20
48.4324508282
 30
0.0
 10
42.6687449405
 20
48.5246900143
 30
0.0
 10
43.0313467499
 20
48.5807774706
 30
0.0
  0
SPLINE
  5
24B
100
AcDbEntity
  8
0
100
AcDbSpline
 62
7
  6
BYLAYER
 70
0
 71
3
 72
11
 73
7
 74
0
 42
0.0000001
 43
0.0000001
 44
0.0000000001
 40
0.0
 40
0.0
 40
0.0
 40
0.0
 40
0.2602536681
 40
0.5147427021
 40
0.7618353688
 40
1.0
 40
1.0
 40
1.0
 40
1.0
 10
27.2737884992
 20
51.4668770197
 30
0.0
 10
27.1029126308
 20
52.2490355302
 30
0.0
 10
26.7901191783
 20
53.8017442091
 30
0.0
 10
26.4259180993
 20
56.1177768681
 30
0.0
 10
26.1928713464
 20
58.3827109666
 30
0.0
 10
26.1369716204
 20
59.8758908807
 30
0.0
 10
26.1369716204
 20
60.6085457285
 30
0.0
  0
SPLINE
  5
24C
100
AcDbEntity
  8
0
100
AcDbSpline
 62
7
  6
BYLAYER
 70
0
 71
3
 72
11
 73
7
 74
0
 42
0.0000001
 43
0.0000001
 44
0.0000000001
 40
0.0
 40
0.0
 40
0.0
 40
0.0
 40
0.2655478913
 40
0.5198361305
 40
0.7640838454
 40
1.0
 40
1.0
 40
1.0
 40
1.0
 10
26.1369716204
 20
60.6085457285
 30
0.0
 10
26.1369716204
 20
61.3111104278
 30
0.0
 10
26.1864127128
 20
62.6871230342
 30
0.0
 10
26.4152182397
 20
64.6976082881
 30
0.0
 10
26.7778838796
 20
66.6082642707
 30
0.0
 10
27.0987441683
 20
67.8384412632
 30
0.0
 10
27.2737884992
 20
68.4375610714
 30
0.0
  0
SPLINE
  5
24D
100
AcDbEntity
  8
0
100
AcDbSpline
 62
7
  6
BYLAYER
 70
0
 71
3
 72
11
 73
7
 74
0
 42
0.0000001
 43
0.0000001
 44
0.0000000001
 40
0.0
 40
0.0
 40
0.0
 40
0.0
 40
0.2454667374
 40
0.4938230563
 40
0.7453379156
 40
1.0
 40
1.0
 40
1.0
 40
1.0
 10
27.2737884992
 20
68.4375610714
 30
0.0
 10
27.6204712404
 20
69.184562369
 30
0.0
 10
28.3513080993
 20
70.6722491764
 30
0.0
 10
29.5739823329
 20
72.8551221028
 30
0.0
 10
30.9474219874
 20
74.9836817414
 30
0.0
 10
31.9656201827
 20
76.3448491449
 30
0.0
 10
32.5009061553
 20
77.0107561521
 30
0.0
  0
SPLINE
  5
24E
100
AcDbEntity
  8
0
100
AcDbSpline
 62
7
  6
BYLAYER
 70
0
 71
3
 72
11
 73
7
 74
0
 42
0.0000001
 43
0.0000001
 44
0.0000000001
 40
0.0
 40
0.0
 40
0.0
 40
0.0
 40
0.247670327
 40
0.4973373623
 40
0.7483031512
 40
1.0
 40
1.0
 40
1.0
 40
1.0
 10
37.8042290939
 20
73.9489504932
 30
0.0
 10
37.263177748
 20
73.2758712403
 30
0.0
 10
36.1287514565
 20
71.9621358652
 30
0.0
 10
34.2954034267
 20
70.1033579873
 30
0.0
 10
32.3482999923
 20
68.3436795769
 30
0.0
 10
30.9925734932
 20
67.2318839182
 30
0.0
 10
30.3034776801
 20
66.6884087783
 30
0.0
  0
SPLINE
  5
24F
100
AcDbEntity
  8
0
100
AcDbSpline
 62
7
  6
BYLAYER
 70
0
 71
3
 72
11
 73
7
 74
0
 42
0.0000001
 43
0.0000001
 44
0.0000000001
 40
0.0
 40
0.0
 40
0.0
 40
0.0
 40
0.2602536681
 40
0.5147427021
 40
0.7618353688
 40
1.0
 40
1.0
 40
1.0
 40
1.0
 10
30.3034776801
 20
66.6884087783
 30
0.0
 10
30.4743535485
 20
65.9062502679
 30
0.0
 10
30.787147001
 20
64.3535415889
 30
0.0
 10
31.1513480801
 20
62.03750893
 30
0.0
 10
31.384394833
 20
59.7725748315
 30
0.0
 10
31.440294559
 20
58.2793949174
 30
0.0
 10
31.440294559
 20
57.5467400696
 30
0.0
  0
SPLINE
  5
250
100
AcDbEntity
  8
0
100
AcDbSpline
 62
7
  6
BYLAYER
 70
0
 71
3
 72
11
 73
7
 74
0
 42
0.0000001
 43
0.0000001
 44
0.0000000001
 40
0.0
 40
0.0
 40
0.0
 40
0.0
 40
0.2454667374
 40
0.4938230563
 40
0.7453379156
 40
1.0
 40
1.0
 40
1.0
 40
1.0
 10
43.0313467499
 20
82.5221455739
 30
0.0
 10
42.6846640088
 20
81.7751442762
 30
0.0
 10
41.9538271498
 20
80.2874574688
 30
0.0
 10
40.7311529163
 20
78.1045845424
 30
0.0
 10
39.3577132617
 20
75.9760249038
 30
0.0
 10
38.3395150664
 20
74.6148575003
 30
0.0
 10
37.8042290939
 20
73.9489504932
 30
0.0
  0
SPLINE
  5
251
100
AcDbEntity
  8
0
100
AcDbSpline
 62
7
  6
BYLAYER
 70
0
 71
3
 72
11
 73
7
 74
0
 42
0.0000001
 43
0.0000001
 44
0.0000000001
 40
0.0
 40
0.0
 40
0.0
 40
0.0
 40
0.2238686444
 40
0.4673674335
 40
0.7272282874
 40
1.0
 40
1.0
 40
1.0
 40
1.0
 10
50.5320981637
 20
81.2973452628
 30
0.0
 10
49.96690664
 20
81.3478323435
 30
0.0
 10
48.7894827213
 20
81.4822459298
 30
0.0
 10
46.9668509725
 20
81.7595080678
 30
0.0
 10
45.0308923677
 20
82.1102141381
 30
0.0
 10
43.7078033099
 20
82.3791896015
 30
0.0
 10
43.0313467499
 20
82.5221455739
 30
0.0
  0
SPLINE
  5
252
100
AcDbEntity
  8
0
100
AcDbSpline
 62
7
  6
BYLAYER
 70
0
 71
3
 72
11
 73
7
 74
0
 42
0.0000001
 43
0.0000001
 44
0.0000000001
 40
0.0
 40
0.0
 40
0.0
 40
0.0
 40
0.2337352857
 40
0.4775554968
 40
0.7326678226
 40
1.0
 40
1.0
 40
1.0
 40
1.0
 10
37.8042290939
 20
48.4929244157
 30
0.0
 10
38.1085977436
 20
48.4657359602
 30
0.0
 10
38.7345132139
 20
48.4496342282
 30
0.0
 10
39.69040075
 20
48.5350732956
 30
0.0
 10
40.6749714311
 20
48.7288085581
 30
0.0
 10
41.3305382391
 20
48.9244377757
 30
0.0
 10
41.6608993875
 20
49.038520488
 30
0.0
  0
SPLINE
  5
253
100
AcDbEntity
  8
0
100
AcDbSpline
 62
7
  6
BYLAYER
 70
0
 71
3
 72
19
 73
15
 74
0
 42
0.0000001
 43
0.0000001
 44
0.0000000001
 40
0.0
 40
0.0
 40
0.0
 40
0.0
 40
0.151814537
 40
0.2930199882
 40
0.4239849096
 40
0.5459524373
 40
0.6042922699
 40
0.661293991
 40
0.7173721011
 40
0.7729769439
 40
0.8285792166
 40
0.8846596827
 40
0.9416738691
 40
1.0
 40
1.0
 40
1.0
 40
1.0
 10
31.440294559
 20
57.5467400696
 30
0.0
 10
31.440294559
 20
56.9271820571
 30
0.0
 10
31.5054662165
 20
55.7297789346
 30
0.0
 10
31.822703451
 20
54.023247877
 30
0.0
 10
32.3523005929
 20
52.4972592307
 30
0.0
 10
32.9760069746
 20
51.3810073226
 30
0.0
 10
33.5723443823
 20
50.6159646061
 30
0.0
 10
34.0590432558
 20
50.1115202213
 30
0.0
 10
34.5896604588
 20
49.6707194152
 30
0.0
 10
35.16172491
 20
49.2954583539
 30
0.0
 10
35.7727229537
 20
48.9876179866
 30
0.0
 10
36.4198517399
 20
48.7484802213
 30
0.0
 10
37.0999823215
 20
48.5792314179
 30
0.0
 10
37.5671430649
 20
48.5141026906
 30
0.0
 10
37.8042290939
 20
48.4929244157
 30
0.0
  0
SPLINE
  5
254
100
AcDbEntity
  8
0
100
AcDbSpline
 62
7
  6
BYLAYER
 70
0
 71
3
 72
15
 73
11
 74
0
 42
0.0000001
 43
0.0000001
 44
0.0000000001
 40
0.0
 40
0.0
 40
0.0
 40
0.0
 40
0.129847411
 40
0.2611866596
 40
0.3925260486
 40
0.5223738886
 40
0.6492905064
 40
0.7719421396
 40
0.8891589506
 40
1.0
 40
1.0
 40
1.0
 40
1.0
 10
37.8042290939
 20
73.9489504932
 30
0.0
 10
37.318791413
 20
73.3450558091
 30
0.0
 10
36.3903423531
 20
72.090951682
 30
0.0
 10
35.1426751085
 20
70.1061806891
 30
0.0
 10
34.0475921092
 20
68.0331366471
 30
0.0
 10
33.1237354765
 20
65.9070249614
 30
0.0
 10
32.3866871153
 20
63.763749565
 30
0.0
 10
31.848906851
 20
61.639322771
 30
0.0
 10
31.5195156144
 20
59.5697632046
 30
0.0
 10
31.440294559
 20
58.2081419773
 30
0.0
 10
31.440294559
 20
57.5467400696
 30
0.0
  0
SPLINE
  5
255
100
AcDbEntity
  8
0
100
AcDbSpline
 62
7
  6
BYLAYER
 70
0
 71
3
 72
11
 73
7
 74
0
 42
0.0000001
 43
0.0000001
 44
0.0000000001
 40
0.0
 40
0.0
 40
0.0
 40
0.0
 40
0.232065918
 40
0.4774810713
 40
0.7342754496
 40
1.0
 40
1.0
 40
1.0
 40
1.0
 10
44.1681636288
 20
79.5921783476
 30
0.0
 10
43.5953785461
 20
79.2614826999
 30
0.0
 10
42.4558062032
 20
78.5120772146
 30
0.0
 10
40.8282106639
 20
77.1920250234
 30
0.0
 10
39.257376451
 20
75.6641780184
 30
0.0
 10
38.2787071285
 20
74.5392111467
 30
0.0
 10
37.8042290939
 20
73.9489504932
 30
0.0
  0
SPLINE
  5
256
100
AcDbEntity
  8
0
100
AcDbSpline
 62
7
  6
BYLAYER
 70
0
 71
3
 72
11
 73
7
 74
0
 42
0.0000001
 43
0.0000001
 44
0.0000000001
 40
0.0
 40
0.0
 40
0.0
 40
0.0
 40
0.2234035249
 40
0.4632869182
 40
0.7219272534
 40
1.0
 40
1.0
 40
1.0
 40
1.0
 10
50.5320981637
 20
81.2973452628
 30
0.0
 10
50.0363264848
 20
81.3416312503
 30
0.0
 10
48.9969278255
 20
81.3270407184
 30
0.0
 10
47.4108135012
 20
81.0227083523
 30
0.0
 10
45.7742495431
 20
80.4442000481
 30
0.0
 10
44.7047099525
 20
79.9019516629
 30
0.0
 10
44.1681636288
 20
79.5921783476
 30
0.0
  0
SPLINE
  5
257
100
AcDbEntity
  8
0
100
AcDbSpline
 62
7
  6
BYLAYER
 70
0
 71
3
 72
15
 73
11
 74
0
 42
0.0000001
 43
0.0000001
 44
0.0000000001
 40
0.0
 40
0.0
 40
0.0
 40
0.0
 40
0.1431256362
 40
0.2778703717
 40
0.4052357513
 40
0.5267762725
 40
0.6445512247
 40
0.7609824494
 40
0.8786627575
 40
1.0
 40
1.0
 40
1.0
 40
1.0
 10
56.6356813672
 20
75.0506376222
 30
0.0
 10
56.5482908467
 20
75.4914019448
 30
0.0
 10
56.3312280571
 20
76.3388886469
 30
0.0
 10
55.8591002664
 20
77.5243734363
 30
0.0
 10
55.2544020974
 20
78.5715157457
 30
0.0
 10
54.5227322036
 20
79.4673398954
 30
0.0
 10
53.6717195642
 20
80.1999263278
 30
0.0
 10
52.7115983078
 20
80.7591020798
 30
0.0
 10
51.6554552615
 20
81.137168034
 30
0.0
 10
50.9115267905
 20
81.263451896
 30
0.0
 10
50.5320981637
 20
81.2973452628
 30
0.0
  0
SPLINE
  5
258
100
AcDbEntity
  8
0
100
AcDbSpline
 62
7
  6
BYLAYER
 70
0
 71
3
 72
39
 73
35
 74
0
 42
0.0000001
 43
0.0000001
 44
0.0000000001
 40
0.0
 40
0.0
 40
0.0
 40
0.0
 40
0.0309875161
 40
0.0603770278
 40
0.0881591066
 40
0.1014777684
 40
0.1144324286
 40
0.1393248775
 40
0.1630866358
 40
0.1860375931
 40
0.2085639
 40
0.2310902243
 40
0.2540413072
 40
0.2778034876
 40
0.3026959598
 40
0.3156505533
 40
0.3289696775
 40
0.3567540001
 40
0.3861380167
 40
0.4171301475
 40
0.4496805027
 40
0.4836894578
 40
0.5190173682
 40
0.5554918055
 40
0.5929133932
 40
0.6310626561
 40
0.7085654295
 40
0.7860682419
 40
0.8242172286
 40
0.8616390651
 40
0.8981134334
 40
0.9334393931
 40
0.9674541567
 40
1.0
 40
1.0
 40
1.0
 40
1.0
 10
44.1681636288
 20
77.1426710962
 30
0.0
 10
44.5064670285
 20
77.3379894892
 30
0.0
 10
45.1818497798
 20
77.6915399339
 30
0.0
 10
46.2119370198
 20
78.113167207
 30
0.0
 10
47.0670128456
 20
78.3624412738
 30
0.0
 10
47.7360302911
 20
78.4940400055
 30
0.0
 10
48.3757534063
 20
78.5790434237
 30
0.0
 10
49.1545956276
 20
78.6061188257
 30
0.0
 10
50.0551419435
 20
78.5056969387
 30
0.0
 10
50.9001899302
 20
78.2719616693
 30
0.0
 10
51.6803327244
 20
77.9066669156
 30
0.0
 10
52.3867468004
 20
77.4136716124
 30
0.0
 10
53.0116836628
 20
76.7986876697
 30
0.0
 10
53.5489066363
 20
76.0689807717
 30
0.0
 10
53.914877846
 20
75.3809401785
 30
0.0
 10
54.1611237142
 20
74.7844163372
 30
0.0
 10
54.3816617806
 20
74.1391922923
 30
0.0
 10
54.5932735941
 20
73.2740792536
 30
0.0
 10
54.7432389204
 20
72.1711079698
 30
0.0
 10
54.7916844033
 20
70.9990808388
 30
0.0
 10
54.7382733791
 20
69.7691468798
 30
0.0
 10
54.5836755561
 20
68.4928830033
 30
0.0
 10
54.3294179234
 20
67.1823827132
 30
0.0
 10
53.9779102186
 20
65.8501198603
 30
0.0
 10
53.5325432597
 20
64.5087336841
 30
0.0
 10
52.8155979632
 20
62.7161347507
 30
0.0
 10
51.7156424466
 20
60.537497555
 30
0.0
 10
50.3788793827
 20
58.4955844081
 30
0.0
 10
49.1849310847
 20
56.978380535
 30
0.0
 10
48.2459391285
 20
55.9219879584
 30
0.0
 10
47.2679435774
 20
54.9514597047
 30
0.0
 10
46.2601145627
 20
54.0759431297
 30
0.0
 10
45.2321793192
 20
53.304014895
 30
0.0
 10
44.5234799239
 20
52.8527393164
 30
0.0
 10
44.1681636288
 20
52.6475985823
 30
0.0
  0
SPLINE
  5
259
100
AcDbEntity
  8
0
100
AcDbSpline
 62
7
  6
BYLAYER
 70
0
 71
3
 72
25
 73
21
 74
0
 42
0.0000001
 43
0.0000001
 44
0.0000000001
 40
0.0
 40
0.0
 40
0.0
 40
0.0
 40
0.0742874953
 40
0.144744057
 40
0.2113470799
 40
0.2432764154
 40
0.2743331196
 40
0.3340087499
 40
0.3909737319
 40
0.4459949352
 40
0.4999980797
 40
0.5540012244
 40
0.6090226089
 40
0.6659884142
 40
0.7256638583
 40
0.7567202669
 40
0.7886505675
 40
0.855258668
 40
0.9257017465
 40
1.0
 40
1.0
 40
1.0
 40
1.0
 10
44.1681636288
 20
52.6475985823
 30
0.0
 10
43.829861875
 20
52.4522811396
 30
0.0
 10
43.1544823959
 20
52.0987322369
 30
0.0
 10
42.1244001988
 20
51.6771061679
 30
0.0
 10
41.2693284706
 20
51.4278320401
 30
0.0
 10
40.6003140706
 20
51.2962325481
 30
0.0
 10
39.9605936836
 20
51.2112279402
 30
0.0
 10
39.1817546038
 20
51.1841502427
 30
0.0
 10
38.2812114615
 20
51.2845679783
 30
0.0
 10
37.4361658284
 20
51.5182977716
 30
0.0
 10
36.6560244153
 20
51.8835857952
 30
0.0
 10
35.9496106315
 20
52.3765732655
 30
0.0
 10
35.3246729146
 20
52.9915484259
 30
0.0
 10
34.7874479107
 20
53.7212458488
 30
0.0
 10
34.4214740102
 20
54.4092780117
 30
0.0
 10
34.175225487
 20
55.0057954662
 30
0.0
 10
33.9546843505
 20
55.6510103856
 30
0.0
 10
33.7430678639
 20
56.5161294377
 30
0.0
 10
33.5930961412
 20
57.6190219612
 30
0.0
 10
33.561614641
 20
58.3806807493
 30
0.0
 10
33.5616119737
 20
58.771373955
 30
0.0
  0
SPLINE
  5
25A
100
AcDbEntity
  8
0
100
AcDbSpline
 62
7
  6
BYLAYER
 70
0
 71
3
 72
11
 73
7
 74
0
 42
0.0000001
 43
0.0000001
 44
0.0000000001
 40
0.0
 40
0.0
 40
0.0
 40
0.0
 40
0.2100625315
 40
0.444062914
 40
0.7063986533
 40
1.0
 40
1.0
 40
1.0
 40
1.0
 10
55.7592158198
 20
81.3851983177
 30
0.0
 10
55.3966137525
 20
81.3291108215
 30
0.0
 10
54.6258018996
 20
81.2368720374
 30
0.0
 10
53.3927915067
 20
81.1722569167
 30
0.0
 10
52.0122755663
 20
81.1867609877
 30
0.0
 10
51.0428950044
 20
81.251717117
 30
0.0
 10
50.5320981637
 20
81.2973452628
 30
0.0
  0
SPLINE
  5
25B
100
AcDbEntity
  8
0
100
AcDbSpline
 62
7
  6
BYLAYER
 70
0
 71
3
 72
11
 73
7
 74
0
 42
0.0000001
 43
0.0000001
 44
0.0000000001
 40
0.0
 40
0.0
 40
0.0
 40
0.0
 40
0.2655478913
 40
0.5198361305
 40
0.7640838454
 40
1.0
 40
1.0
 40
1.0
 40
1.0
 10
31.440294559
 20
57.5467400696
 30
0.0
 10
31.440294559
 20
56.8441753702
 30
0.0
 10
31.3908534665
 20
55.4681627638
 30
0.0
 10
31.1620479396
 20
53.4576775099
 30
0.0
 10
30.7993822997
 20
51.5470215273
 30
0.0
 10
30.478522011
 20
50.3168445349
 30
0.0
 10
30.3034776801
 20
49.7177247267
 30
0.0
  0
SPLINE
  5
25C
100
AcDbEntity
  8
0
100
AcDbSpline
 62
7
  6
BYLAYER
 70
0
 71
3
 72
28
 73
24
 74
0
 42
0.0000001
 43
0.0000001
 44
0.0000000001
 40
0.0
 40
0.0
 40
0.0
 40
0.0
 40
0.0623754957
 40
0.1287034862
 40
0.1982865324
 40
0.2702522841
 40
0.3436188131
 40
0.4173395603
 40
0.4903530731
 40
0.5616290665
 40
0.6302164201
 40
0.6952947115
 40
0.7562336337
 40
0.7850400639
 40
0.8127001136
 40
0.8392215976
 40
0.8646411494
 40
0.8890242704
 40
0.9124704137
 40
0.9351117028
 40
0.9571138277
 40
0.9786711134
 40
1.0
 40
1.0
 40
1.0
 40
1.0
 10
50.1786846116
 20
49.1778148
 30
0.0
 10
50.1786846116
 20
49.8001192743
 30
0.0
 10
50.2629823425
 20
51.0850194909
 30
0.0
 10
50.609906963
 20
53.0359659364
 30
0.0
 10
51.1738902491
 20
55.0350507932
 30
0.0
 10
51.9429315512
 20
57.0395349044
 30
0.0
 10
52.9006197638
 20
59.0069229339
 30
0.0
 10
54.0265466888
 20
60.8952357274
 30
0.0
 10
55.296692631
 20
62.6642047825
 30
0.0
 10
56.6839839609
 20
64.2761161883
 30
0.0
 10
58.1590653587
 20
65.6967572439
 30
0.0
 10
59.6906264459
 20
66.8958260153
 30
0.0
 10
61.0120188813
 20
67.7043040176
 30
0.0
 10
62.0689138497
 20
68.2112302076
 30
0.0
 10
62.8401343944
 20
68.5146272139
 30
0.0
 10
63.6005958743
 20
68.7465683888
 30
0.0
 10
64.3462612671
 20
68.9058244376
 30
0.0
 10
65.0731910801
 20
68.9912762795
 30
0.0
 10
65.7774701072
 20
69.0024068504
 30
0.0
 10
66.4552470925
 20
68.9388223662
 30
0.0
 10
67.1027570013
 20
68.8007317709
 30
0.0
 10
67.7161190585
 20
68.5886988403
 30
0.0
 10
68.1008274266
 20
68.3983221151
 30
0.0
 10
68.2851090047
 20
68.2919214061
 30
0.0
  0
SPLINE
  5
25D
100
AcDbEntity
  8
0
100
AcDbSpline
 62
7
  6
BYLAYER
 70
0
 71
3
 72
22
 73
18
 74
0
 42
0.0000001
 43
0.0000001
 44
0.0000000001
 40
0.0
 40
0.0
 40
0.0
 40
0.0
 40
0.0428182592
 40
0.0874063588
 40
0.1351962872
 40
0.1871113138
 40
0.2435660061
 40
0.3045316527
 40
0.3696367413
 40
0.4382543003
 40
0.5095614204
 40
0.582606018
 40
0.7296244089
 40
0.8016221996
 40
0.8712292789
 40
0.9376190576
 40
1.0
 40
1.0
 40
1.0
 40
1.0
 10
68.9026942916
 20
54.6644144011
 30
0.0
 10
68.8496904267
 20
54.6950160823
 30
0.0
 10
68.7492072792
 20
54.771913467
 30
0.0
 10
68.6282874529
 20
54.9248148794
 30
0.0
 10
68.5379458407
 20
55.1118121903
 30
0.0
 10
68.4794205279
 20
55.328323367
 30
0.0
 10
68.4533779455
 20
55.5698023398
 30
0.0
 10
68.4600408309
 20
55.8312730528
 30
0.0
 10
68.4991014077
 20
56.1073509772
 30
0.0
 10
68.5697315982
 20
56.3922499895
 30
0.0
 10
68.6704048926
 20
56.6800026202
 30
0.0
 10
68.8420868037
 20
57.0598630155
 30
0.0
 10
69.0619973945
 20
57.4175812739
 30
0.0
 10
69.3218937583
 20
57.7385034249
 30
0.0
 10
69.5296585603
 20
57.9518353241
 30
0.0
 10
69.7469996666
 20
58.1346784833
 30
0.0
 10
69.9004484354
 20
58.2372640183
 30
0.0
 10
69.9776685967
 20
58.2818468331
 30
0.0
  0
SPLINE
  5
25E
100
AcDbEntity
  8
0
100
AcDbSpline
 62
7
  6
BYLAYER
 70
0
 71
3
 72
22
 73
18
 74
0
 42
0.0000001
 43
0.0000001
 44
0.0000000001
 40
0.0
 40
0.0
 40
0.0
 40
0.0
 40
0.0428182592
 40
0.0874063588
 40
0.1351962872
 40
0.1871113138
 40
0.2435660061
 40
0.3045316527
 40
0.3696367413
 40
0.4382543003
 40
0.5095614204
 40
0.582606018
 40
0.7296244089
 40
0.8016221996
 40
0.8712292789
 40
0.9376190576
 40
1.0
 40
1.0
 40
1.0
 40
1.0
 10
68.9026942916
 20
41.600375727
 30
0.0
 10
68.8496904267
 20
41.6309774082
 30
0.0
 10
68.7492072792
 20
41.7078747929
 30
0.0
 10
68.6282874529
 20
41.8607762053
 30
0.0
 10
68.5379458407
 20
42.0477735162
 30
0.0
 10
68.4794205279
 20
42.2642846929
 30
0.0
 10
68.4533779455
 20
42.5057636657
 30
0.0
 10
68.4600408309
 20
42.7672343788
 30
0.0
 10
68.4991014077
 20
43.0433123032
 30
0.0
 10
68.5697315982
 20
43.3282113154
 30
0.0
 10
68.6704048926
 20
43.6159639461
 30
0.0
 10
68.8420868037
 20
43.9958243414
 30
0.0
 10
69.0619973945
 20
44.3535425998
 30
0.0
 10
69.3218937583
 20
44.6744647508
 30
0.0
 10
69.5296585603
 20
44.8877966501
 30
0.0
 10
69.7469996666
 20
45.0706398092
 30
0.0
 10
69.9004484354
 20
45.1732253443
 30
0.0
 10
69.9776685967
 20
45.2178081591
 30
0.0
  0
SPLINE
  5
25F
100
AcDbEntity
  8
0
100
AcDbSpline
 62
7
  6
BYLAYER
 70
0
 71
3
 72
15
 73
11
 74
0
 42
0.0000001
 43
0.0000001
 44
0.0000000001
 40
0.0
 40
0.0
 40
0.0
 40
0.0
 40
0.1485896799
 40
0.2895069527
 40
0.4227222162
 40
0.5486432668
 40
0.6680013397
 40
0.7819382376
 40
0.8919874958
 40
1.0
 40
1.0
 40
1.0
 40
1.0
 10
80.5842261549
 20
56.1180096073
 30
0.0
 10
80.5842261549
 20
56.5086714507
 30
0.0
 10
80.5527323114
 20
57.2703482697
 30
0.0
 10
80.4028004277
 20
58.3733471948
 30
0.0
 10
80.1523280848
 20
59.3971130647
 30
0.0
 10
79.8033321634
 20
60.3317493147
 30
0.0
 10
79.3584163164
 20
61.1682222894
 30
0.0
 10
78.821080684
 20
61.8979853338
 30
0.0
 10
78.196326086
 20
62.5128795778
 30
0.0
 10
77.7234654002
 20
62.842796597
 30
0.0
 10
77.4775356266
 20
62.9847919399
 30
0.0
  0
SPLINE
  5
260
100
AcDbEntity
  8
0
100
AcDbSpline
 62
7
  6
BYLAYER
 70
0
 71
3
 72
13
 73
9
 74
0
 42
0.0000001
 43
0.0000001
 44
0.0000000001
 40
0.0
 40
0.0
 40
0.0
 40
0.0
 40
0.2893743254
 40
0.5483108544
 40
0.6677409368
 40
0.7817662916
 40
0.8919058729
 40
1.0
 40
1.0
 40
1.0
 40
1.0
 10
69.9776685967
 20
45.2178081591
 30
0.0
 10
70.0720303748
 20
45.2722876319
 30
0.0
 10
70.2595761888
 20
45.361601648
 30
0.0
 10
70.5065138236
 20
45.4211068731
 30
0.0
 10
70.6923717495
 20
45.4275637347
 30
0.0
 10
70.8214556608
 20
45.4131459353
 30
0.0
 10
70.9425620051
 20
45.3796991125
 30
0.0
 10
71.017394618
 20
45.3446307275
 30
0.0
 10
71.0526429018
 20
45.3242801975
 30
0.0
  0
SPLINE
  5
261
100
AcDbEntity
  8
0
100
AcDbSpline
 62
7
  6
BYLAYER
 70
0
 71
3
 72
13
 73
9
 74
0
 42
0.0000001
 43
0.0000001
 44
0.0000000001
 40
0.0
 40
0.0
 40
0.0
 40
0.0
 40
0.2893743254
 40
0.5483108544
 40
0.6677409368
 40
0.7817662916
 40
0.8919058729
 40
1.0
 40
1.0
 40
1.0
 40
1.0
 10
69.9776685967
 20
58.2818468331
 30
0.0
 10
70.0720303748
 20
58.3363263059
 30
0.0
 10
70.2595761888
 20
58.4256403221
 30
0.0
 10
70.5065138236
 20
58.4851455472
 30
0.0
 10
70.6923717495
 20
58.4916024088
 30
0.0
 10
70.8214556608
 20
58.4771846093
 30
0.0
 10
70.9425620051
 20
58.4437377866
 30
0.0
 10
71.017394618
 20
58.4086694016
 30
0.0
 10
71.0526429018
 20
58.3883188716
 30
0.0
  0
SPLINE
  5
262
100
AcDbEntity
  8
0
100
AcDbSpline
 62
7
  6
BYLAYER
 70
0
 71
3
 72
15
 73
11
 74
0
 42
0.0000001
 43
0.0000001
 44
0.0000000001
 40
0.0
 40
0.0
 40
0.0
 40
0.0
 40
0.1080120909
 40
0.2180610264
 40
0.3319977691
 40
0.4513558805
 40
0.5772770093
 40
0.7104924944
 40
0.8514102696
 40
1.0
 40
1.0
 40
1.0
 40
1.0
 10
53.2853753348
 20
42.31103281
 30
0.0
 10
53.0394464537
 20
42.4530275097
 30
0.0
 10
52.5665873012
 20
42.7829432392
 30
0.0
 10
51.9418335324
 20
43.3978349376
 30
0.0
 10
51.4044983397
 20
44.1275968805
 30
0.0
 10
50.9595819194
 20
44.9640693388
 30
0.0
 10
50.6105840104
 20
45.8987057866
 30
0.0
 10
50.3601109647
 20
46.9224736888
 30
0.0
 10
50.2101789002
 20
48.0254745974
 30
0.0
 10
50.1786846116
 20
48.7871528345
 30
0.0
 10
50.1786846116
 20
49.1778148
 30
0.0
  0
SPLINE
  5
263
100
AcDbEntity
  8
0
100
AcDbSpline
 62
7
  6
BYLAYER
 70
0
 71
3
 72
28
 73
24
 74
0
 42
0.0000001
 43
0.0000001
 44
0.0000000001
 40
0.0
 40
0.0
 40
0.0
 40
0.0
 40
0.0213289294
 40
0.0428862543
 40
0.0648884216
 40
0.0875297537
 40
0.1109759556
 40
0.1353591447
 40
0.1607787791
 40
0.1873003444
 40
0.2149604701
 40
0.2437669465
 40
0.3047058526
 40
0.3697839779
 40
0.4383711009
 40
0.5096468803
 40
0.5826601896
 40
0.6563807185
 40
0.7297471028
 40
0.8017128909
 40
0.8712961098
 40
0.9376243426
 40
1.0
 40
1.0
 40
1.0
 40
1.0
 10
62.4778015667
 20
37.0039026586
 30
0.0
 10
62.6620834734
 20
36.8975016639
 30
0.0
 10
63.0467929984
 20
36.7071254505
 30
0.0
 10
63.6601559615
 20
36.4950913732
 30
0.0
 10
64.3076673775
 20
36.3570017053
 30
0.0
 10
64.9854457702
 20
36.2934170049
 30
0.0
 10
65.6897264998
 20
36.3045487447
 30
0.0
 10
66.4166583324
 20
36.3900012507
 30
0.0
 10
67.1623257383
 20
36.5492590211
 30
0.0
 10
67.9227893175
 20
36.7812015254
 30
0.0
 10
68.6940112065
 20
37.0846006861
 30
0.0
 10
69.7509066706
 20
37.5915282656
 30
0.0
 10
71.0722969232
 20
38.4000072651
 30
0.0
 10
72.6038538151
 20
39.5990746326
 30
0.0
 10
74.0789301833
 20
41.0197120952
 30
0.0
 10
75.4662171281
 20
42.6316187092
 30
0.0
 10
76.7363596843
 20
44.4005823657
 30
0.0
 10
77.862284505
 20
46.2888898116
 30
0.0
 10
78.819972555
 20
48.2562742894
 30
0.0
 10
79.5890154773
 20
50.2607584652
 30
0.0
 10
80.1530015225
 20
52.2598472524
 30
0.0
 10
80.4999278254
 20
54.2107992766
 30
0.0
 10
80.5842261549
 20
55.495703519
 30
0.0
 10
80.5842261549
 20
56.1180096073
 30
0.0
  0
SPLINE
  5
264
100
AcDbEntity
  8
0
100
AcDbSpline
 62
7
  6
BYLAYER
 70
0
 71
3
 72
13
 73
9
 74
0
 42
0.0000001
 43
0.0000001
 44
0.0000000001
 40
0.0
 40
0.0
 40
0.0
 40
0.0
 40
0.2893743254
 40
0.5483108544
 40
0.6677409368
 40
0.7817662916
 40
0.8919058729
 40
1.0
 40
1.0
 40
1.0
 40
1.0
 10
69.9776685967
 20
41.7068477654
 30
0.0
 10
69.8833068185
 20
41.6523682926
 30
0.0
 10
69.6957610045
 20
41.5630542765
 30
0.0
 10
69.4488233697
 20
41.5035490513
 30
0.0
 10
69.2629654439
 20
41.4970921898
 30
0.0
 10
69.1338815326
 20
41.5115099892
 30
0.0
 10
69.0127751883
 20
41.544956812
 30
0.0
 10
68.9379425754
 20
41.5800251969
 30
0.0
 10
68.9026942916
 20
41.600375727
 30
0.0
  0
SPLINE
  5
265
100
AcDbEntity
  8
0
100
AcDbSpline
 62
7
  6
BYLAYER
 70
0
 71
3
 72
13
 73
9
 74
0
 42
0.0000001
 43
0.0000001
 44
0.0000000001
 40
0.0
 40
0.0
 40
0.0
 40
0.0
 40
0.2893743254
 40
0.5483108544
 40
0.6677409368
 40
0.7817662916
 40
0.8919058729
 40
1.0
 40
1.0
 40
1.0
 40
1.0
 10
69.9776685967
 20
54.7708864395
 30
0.0
 10
69.8833068185
 20
54.7164069667
 30
0.0
 10
69.6957610045
 20
54.6270929505
 30
0.0
 10
69.4488233697
 20
54.5675877254
 30
0.0
 10
69.2629654439
 20
54.5611308639
 30
0.0
 10
69.1338815326
 20
54.5755486633
 30
0.0
 10
69.0127751883
 20
54.6089954861
 30
0.0
 10
68.9379425754
 20
54.644063871
 30
0.0
 10
68.9026942916
 20
54.6644144011
 30
0.0
  0
SPLINE
  5
266
100
AcDbEntity
  8
0
100
AcDbSpline
 62
7
  6
BYLAYER
 70
0
 71
3
 72
22
 73
18
 74
0
 42
0.0000001
 43
0.0000001
 44
0.0000000001
 40
0.0
 40
0.0
 40
0.0
 40
0.0
 40
0.0428182592
 40
0.0874063588
 40
0.1351962872
 40
0.1871113138
 40
0.2435660061
 40
0.3045316527
 40
0.3696367413
 40
0.4382543003
 40
0.5095614204
 40
0.582606018
 40
0.7296244089
 40
0.8016221996
 40
0.8712292789
 40
0.9376190576
 40
1.0
 40
1.0
 40
1.0
 40
1.0
 10
71.0526429018
 20
45.3242801975
 30
0.0
 10
71.1056467666
 20
45.2936785163
 30
0.0
 10
71.2061299142
 20
45.2167811316
 30
0.0
 10
71.3270497405
 20
45.0638797191
 30
0.0
 10
71.4173913526
 20
44.8768824082
 30
0.0
 10
71.4759166654
 20
44.6603712315
 30
0.0
 10
71.5019592478
 20
44.4188922588
 30
0.0
 10
71.4952963624
 20
44.1574215457
 30
0.0
 10
71.4562357857
 20
43.8813436213
 30
0.0
 10
71.3856055951
 20
43.596444609
 30
0.0
 10
71.2849323007
 20
43.3086919784
 30
0.0
 10
71.1132503897
 20
42.9288315831
 30
0.0
 10
70.8933397988
 20
42.5711133246
 30
0.0
 10
70.633443435
 20
42.2501911737
 30
0.0
 10
70.4256786331
 20
42.0368592744
 30
0.0
 10
70.2083375267
 20
41.8540161152
 30
0.0
 10
70.054888758
 20
41.7514305802
 30
0.0
 10
69.9776685967
 20
41.7068477654
 30
0.0
  0
SPLINE
  5
267
100
AcDbEntity
  8
0
100
AcDbSpline
 62
7
  6
BYLAYER
 70
0
 71
3
 72
28
 73
24
 74
0
 42
0.0000001
 43
0.0000001
 44
0.0000000001
 40
0.0
 40
0.0
 40
0.0
 40
0.0
 40
0.0213289294
 40
0.0428862543
 40
0.0648884216
 40
0.0875297537
 40
0.1109759556
 40
0.1353591447
 40
0.1607787791
 40
0.1873003444
 40
0.2149604701
 40
0.2437669465
 40
0.3047058526
 40
0.3697839779
 40
0.4383711009
 40
0.5096468803
 40
0.5826601896
 40
0.6563807185
 40
0.7297471028
 40
0.8017128909
 40
0.8712961098
 40
0.9376243426
 40
1.0
 40
1.0
 40
1.0
 40
1.0
 10
77.4775356266
 20
62.9847919399
 30
0.0
 10
77.2932537199
 20
63.0911929346
 30
0.0
 10
76.9085441949
 20
63.281569148
 30
0.0
 10
76.2951812318
 20
63.4936032254
 30
0.0
 10
75.6476698158
 20
63.6316928932
 30
0.0
 10
74.9698914231
 20
63.6952775936
 30
0.0
 10
74.2656106935
 20
63.6841458538
 30
0.0
 10
73.5386788609
 20
63.5986933478
 30
0.0
 10
72.7930114551
 20
63.4394355774
 30
0.0
 10
72.0325478758
 20
63.2074930732
 30
0.0
 10
71.2613259869
 20
62.9040939124
 30
0.0
 10
70.2044305228
 20
62.3971663329
 30
0.0
 10
68.8830402702
 20
61.5886873334
 30
0.0
 10
67.3514833782
 20
60.3896199659
 30
0.0
 10
65.8764070101
 20
58.9689825033
 30
0.0
 10
64.4891200652
 20
57.3570758894
 30
0.0
 10
63.2189775091
 20
55.5881122328
 30
0.0
 10
62.0930526883
 20
53.699804787
 30
0.0
 10
61.1353646383
 20
51.7324203091
 30
0.0
 10
60.3663217161
 20
49.7279361334
 30
0.0
 10
59.8023356708
 20
47.7288473462
 30
0.0
 10
59.4554093679
 20
45.777895322
 30
0.0
 10
59.3711110385
 20
44.4929910796
 30
0.0
 10
59.3711110385
 20
43.8706849912
 30
0.0
  0
SPLINE
  5
268
100
AcDbEntity
  8
0
100
AcDbSpline
 62
7
  6
BYLAYER
 70
0
 71
3
 72
22
 73
18
 74
0
 42
0.0000001
 43
0.0000001
 44
0.0000000001
 40
0.0
 40
0.0
 40
0.0
 40
0.0
 40
0.0428182592
 40
0.0874063588
 40
0.1351962872
 40
0.1871113138
 40
0.2435660061
 40
0.3045316527
 40
0.3696367413
 40
0.4382543003
 40
0.5095614204
 40
0.582606018
 40
0.7296244089
 40
0.8016221996
 40
0.8712292789
 40
0.9376190576
 40
1.0
 40
1.0
 40
1.0
 40
1.0
 10
71.0526429018
 20
58.3883188716
 30
0.0
 10
71.1056467666
 20
58.3577171904
 30
0.0
 10
71.2061299142
 20
58.2808198056
 30
0.0
 10
71.3270497405
 20
58.1279183932
 30
0.0
 10
71.4173913526
 20
57.9409210823
 30
0.0
 10
71.4759166654
 20
57.7244099056
 30
0.0
 10
71.5019592478
 20
57.4829309328
 30
0.0
 10
71.4952963624
 20
57.2214602198
 30
0.0
 10
71.4562357857
 20
56.9453822954
 30
0.0
 10
71.3856055951
 20
56.6604832831
 30
0.0
 10
71.2849323007
 20
56.3727306524
 30
0.0
 10
71.1132503897
 20
55.9928702572
 30
0.0
 10
70.8933397988
 20
55.6351519987
 30
0.0
 10
70.633443435
 20
55.3142298477
 30
0.0
 10
70.4256786331
 20
55.1008979485
 30
0.0
 10
70.2083375267
 20
54.9180547893
 30
0.0
 10
70.054888758
 20
54.8154692543
 30
0.0
 10
69.9776685967
 20
54.7708864395
 30
0.0
  0
SPLINE
  5
269
100
AcDbEntity
  8
0
100
AcDbSpline
 62
7
  6
BYLAYER
 70
0
 71
3
 72
15
 73
11
 74
0
 42
0.0000001
 43
0.0000001
 44
0.0000000001
 40
0.0
 40
0.0
 40
0.0
 40
0.0
 40
0.1485896799
 40
0.2895069527
 40
0.4227222162
 40
0.5486432668
 40
0.6680013397
 40
0.7819382376
 40
0.8919874958
 40
1.0
 40
1.0
 40
1.0
 40
1.0
 10
59.3711110385
 20
43.8706849912
 30
0.0
 10
59.3711110385
 20
43.4800231478
 30
0.0
 10
59.4026048819
 20
42.7183463288
 30
0.0
 10
59.5525367657
 20
41.6153474038
 30
0.0
 10
59.8030091085
 20
40.5915815338
 30
0.0
 10
60.1520050299
 20
39.6569452838
 30
0.0
 10
60.5969208769
 20
38.8204723092
 30
0.0
 10
61.1342565094
 20
38.0907092648
 30
0.0
 10
61.7590111073
 20
37.4758150207
 30
0.0
 10
62.2318717932
 20
37.1458980016
 30
0.0
 10
62.4778015667
 20
37.0039026586
 30
0.0
  0
SPLINE
  5
26A
100
AcDbEntity
  8
0
100
AcDbSpline
 62
7
  6
BYLAYER
 70
0
 71
3
 72
15
 73
11
 74
0
 42
0.0000001
 43
0.0000001
 44
0.0000000001
 40
0.0
 40
0.0
 40
0.0
 40
0.0
 40
0.1485718434
 40
0.2895069956
 40
0.4227231281
 40
0.5486371222
 40
0.6679985439
 40
0.7819352451
 40
0.8919844083
 40
1.0
 40
1.0
 40
1.0
 40
1.0
 10
21.8942072867
 20
89.3393569637
 30
0.0
 10
22.2141676983
 20
89.5240850908
 30
0.0
 10
22.8529799295
 20
89.8584694765
 30
0.0
 10
23.8273549111
 20
90.2573286053
 30
0.0
 10
24.7844217371
 20
90.5363432547
 30
0.0
 10
25.715048266
 20
90.6924082129
 30
0.0
 10
26.6106123794
 20
90.7236271504
 30
0.0
 10
27.4625046684
 20
90.6285996243
 30
0.0
 10
28.261621918
 20
90.4076014033
 30
0.0
 10
28.7555251893
 20
90.1763587946
 30
0.0
 10
28.9881461329
 20
90.0420590839
 30
0.0
  0
SPLINE
  5
26B
100
AcDbEntity
  8
0
100
AcDbSpline
 62
7
  6
BYLAYER
 70
0
 71
3
 72
15
 73
11
 74
0
 42
0.0000001
 43
0.0000001
 44
0.0000000001
 40
0.0
 40
0.0
 40
0.0
 40
0.0
 40
0.1090018335
 40
0.2198877774
 40
0.3343889114
 40
0.4539631744
 40
0.579712679
 40
0.7123917483
 40
0.8524635851
 40
1.0
 40
1.0
 40
1.0
 40
1.0
 10
43.4382121296
 20
48.9336272608
 30
0.0
 10
43.6608542217
 20
48.8050879746
 30
0.0
 10
44.1321650216
 20
48.5822929864
 30
0.0
 10
44.892967014
 20
48.3630554799
 30
0.0
 10
45.7029044292
 20
48.2590401961
 30
0.0
 10
46.5540345938
 20
48.2706380064
 30
0.0
 10
47.4387974179
 20
48.3968560736
 30
0.0
 10
48.3496149837
 20
48.6362325412
 30
0.0
 10
49.2786453623
 20
48.9862545465
 30
0.0
 10
49.8894352519
 20
49.2836805591
 30
0.0
 10
50.195801824
 20
49.4486693177
 30
0.0
  0
SPLINE
  5
26C
100
AcDbEntity
  8
0
100
AcDbSpline
 62
7
  6
BYLAYER
 70
0
 71
3
 72
13
 73
9
 74
0
 42
0.0000001
 43
0.0000001
 44
0.0000000001
 40
0.0
 40
0.0
 40
0.0
 40
0.0
 40
0.2810853385
 40
0.5401623837
 40
0.6618520327
 40
0.778687215
 40
0.891175302
 40
1.0
 40
1.0
 40
1.0
 40
1.0
 10
27.0645052082
 20
87.0172494966
 30
0.0
 10
27.5618885196
 20
87.3044121712
 30
0.0
 10
28.5525566536
 20
87.7992497024
 30
0.0
 10
29.8438506161
 20
88.2219523507
 30
0.0
 10
30.8448888924
 20
88.4071592875
 30
0.0
 10
31.5605224524
 20
88.4703247326
 30
0.0
 10
32.2525996742
 20
88.4599531327
 30
0.0
 10
32.7023950932
 20
88.4031505199
 30
0.0
 10
32.9209488875
 20
88.3622053084
 30
0.0
  0
SPLINE
  5
26D
100
AcDbEntity
  8
0
100
AcDbSpline
 62
7
  6
BYLAYER
 70
0
 71
3
 72
11
 73
7
 74
0
 42
0.0000001
 43
0.0000001
 44
0.0000000001
 40
0.0
 40
0.0
 40
0.0
 40
0.0
 40
0.2443180405
 40
0.4909740457
 40
0.7421915387
 40
1.0
 40
1.0
 40
1.0
 40
1.0
 10
41.0439796219
 20
49.3784448002
 30
0.0
 10
41.2180114225
 20
49.2779592985
 30
0.0
 10
41.5803431521
 20
49.0970285091
 30
0.0
 10
42.1564805903
 20
48.8910805767
 30
0.0
 10
42.7633731232
 20
48.7508570203
 30
0.0
 10
43.1802063534
 20
48.7024007033
 30
0.0
 10
43.3918236343
 20
48.688783098
 30
0.0
  0
SPLINE
  5
26E
100
AcDbEntity
  8
0
100
AcDbSpline
 62
7
  6
BYLAYER
 70
0
 71
3
 72
15
 73
11
 74
0
 42
0.0000001
 43
0.0000001
 44
0.0000000001
 40
0.0
 40
0.0
 40
0.0
 40
0.0
 40
0.1475405702
 40
0.2876041992
 40
0.4203092215
 40
0.5460686153
 40
0.6656414037
 40
0.7801382882
 40
0.8910133006
 40
1.0
 40
1.0
 40
1.0
 40
1.0
 10
60.5591707131
 20
67.3916183467
 30
0.0
 10
60.5490574366
 20
67.7397921911
 30
0.0
 10
60.5015569186
 20
68.4181507793
 30
0.0
 10
60.3404562206
 20
69.3988152087
 30
0.0
 10
60.0925850259
 20
70.3083868779
 30
0.0
 10
59.7595367076
 20
71.138773968
 30
0.0
 10
59.3438712284
 20
71.8825677432
 30
0.0
 10
58.8485543612
 20
72.5327475043
 30
0.0
 10
58.2778853944
 20
73.0826133407
 30
0.0
 10
57.8489206833
 20
73.379660774
 30
0.0
 10
57.6260901807
 20
73.5083088363
 30
0.0
  0
SPLINE
  5
26F
100
AcDbEntity
  8
0
100
AcDbSpline
 62
7
  6
BYLAYER
 70
0
 71
3
 72
15
 73
11
 74
0
 42
0.0000001
 43
0.0000001
 44
0.0000000001
 40
0.0
 40
0.0
 40
0.0
 40
0.0
 40
0.1077233008
 40
0.2181352216
 40
0.3327399303
 40
0.4527507689
 40
0.5790605903
 40
0.7122342042
 40
0.8525439871
 40
1.0
 40
1.0
 40
1.0
 40
1.0
 10
19.1977417048
 20
62.0129193094
 30
0.0
 10
18.978434244
 20
62.1663192962
 30
0.0
 10
18.5585721583
 20
62.5131374571
 30
0.0
 10
18.0075819418
 20
63.1333247363
 30
0.0
 10
17.5347009383
 20
63.8516175935
 30
0.0
 10
17.1436180746
 20
64.6611568043
 30
0.0
 10
16.837154678
 20
65.5549303623
 30
0.0
 10
16.6173298642
 20
66.525337151
 30
0.0
 10
16.4856697108
 20
67.5642438855
 30
0.0
 10
16.4579642028
 20
68.2796103675
 30
0.0
 10
16.4579615634
 20
68.6459569801
 30
0.0
  0
SPLINE
  5
270
100
AcDbEntity
  8
0
100
AcDbSpline
 62
7
  6
BYLAYER
 70
0
 71
3
 72
14
 73
10
 74
0
 42
0.0000001
 43
0.0000001
 44
0.0000000001
 40
0.0
 40
0.0
 40
0.0
 40
0.0
 40
0.292861238
 40
0.4307463399
 40
0.5604205861
 40
0.6811453582
 40
0.7932961918
 40
0.8985768201
 40
1.0
 40
1.0
 40
1.0
 40
1.0
 10
12.2844683284
 20
75.3088385322
 30
0.0
 10
12.0019476283
 20
75.3812114981
 30
0.0
 10
11.5956906546
 20
75.5373224528
 30
0.0
 10
11.1255471838
 20
75.8408013344
 30
0.0
 10
10.8348182778
 20
76.0984032596
 30
0.0
 10
10.6088272206
 20
76.3826368344
 30
0.0
 10
10.4553729143
 20
76.6854458611
 30
0.0
 10
10.3808395299
 20
76.9973360125
 30
0.0
 10
10.3868267371
 20
77.2060453064
 30
0.0
 10
10.4035316313
 20
77.3056556662
 30
0.0
  0
SPLINE
  5
271
100
AcDbEntity
  8
0
100
AcDbSpline
 62
7
  6
BYLAYER
 70
0
 71
3
 72
10
 73
6
 74
0
 42
0.0000001
 43
0.0000001
 44
0.0000000001
 40
0.0
 40
0.0
 40
0.0
 40
0.0
 40
0.5001777798
 40
0.7501188891
 40
1.0
 40
1.0
 40
1.0
 40
1.0
 10
15.3376843737
 20
82.6411921834
 30
0.0
 10
14.9955449255
 20
82.5877456814
 30
0.0
 10
14.4878363724
 20
82.4617814935
 30
0.0
 10
13.844836389
 20
82.2033205145
 30
0.0
 10
13.5367594323
 20
82.0442975622
 30
0.0
 10
13.3869248179
 20
81.9578176378
 30
0.0
  0
SPLINE
  5
272
100
AcDbEntity
  8
0
100
AcDbSpline
 62
7
  6
BYLAYER
 70
0
 71
3
 72
13
 73
9
 74
0
 42
0.0000001
 43
0.0000001
 44
0.0000000001
 40
0.0
 40
0.0
 40
0.0
 40
0.0
 40
0.1230969644
 40
0.2462842703
 40
0.3696791699
 40
0.4935284391
 40
0.7435283413
 40
1.0
 40
1.0
 40
1.0
 40
1.0
 10
13.3869248179
 20
81.9578176378
 30
0.0
 10
13.1840905824
 20
81.8407479645
 30
0.0
 10
12.7928059393
 20
81.580239409
 30
0.0
 10
12.2601954711
 20
81.1182234434
 30
0.0
 10
11.7876508213
 20
80.592952531
 30
0.0
 10
11.2415520395
 20
79.8181370689
 30
0.0
 10
10.7218036904
 20
78.7267214246
 30
0.0
 10
10.4841032831
 20
77.7869001188
 30
0.0
 10
10.4035111697
 20
77.3056592631
 30
0.0
  0
SPLINE
  5
273
100
AcDbEntity
  8
0
100
AcDbSpline
 62
7
  6
BYLAYER
 70
0
 71
3
 72
25
 73
21
 74
0
 42
0.0000001
 43
0.0000001
 44
0.0000000001
 40
0.0
 40
0.0
 40
0.0
 40
0.0
 40
0.0213324672
 40
0.0428931681
 40
0.0648989592
 40
0.0875438901
 40
0.135319626
 40
0.1872210024
 40
0.243658921
 40
0.3046068613
 40
0.3696944916
 40
0.438291521
 40
0.509577708
 40
0.5826017016
 40
0.6563333693
 40
0.7297100621
 40
0.8016855252
 40
0.8712768728
 40
0.9376175264
 40
1.0
 40
1.0
 40
1.0
 40
1.0
 10
14.8002684405
 20
65.4673781295
 30
0.0
 10
14.6259519714
 20
65.5680167522
 30
0.0
 10
14.2880657827
 20
65.7931406582
 30
0.0
 10
13.8242524838
 20
66.195263253
 30
0.0
 10
13.4049025791
 20
66.6604247049
 30
0.0
 10
12.8991817744
 20
67.3729794207
 30
0.0
 10
12.3929863593
 20
68.4200983477
 30
0.0
 10
12.0071126533
 20
69.8486896498
 30
0.0
 10
11.8351588434
 20
71.4423241621
 30
0.0
 10
11.879100996
 20
73.167813798
 30
0.0
 10
12.1369837362
 20
74.9896876944
 30
0.0
 10
12.6030636711
 20
76.8698381811
 30
0.0
 10
13.2673476608
 20
78.7686077498
 30
0.0
 10
14.1156868573
 20
80.6456838081
 30
0.0
 10
15.1300031354
 20
82.4610633125
 30
0.0
 10
16.2886446207
 20
84.1760322416
 30
0.0
 10
17.5669100397
 20
85.7539770819
 30
0.0
 10
18.9377172087
 20
87.161455999
 30
0.0
 10
20.3717891741
 20
88.3683009457
 30
0.0
 10
21.3844572131
 20
89.0450543783
 30
0.0
 10
21.8942072867
 20
89.3393569637
 30
0.0
  0
SPLINE
  5
274
100
AcDbEntity
  8
0
100
AcDbSpline
 62
7
  6
BYLAYER
 70
0
 71
3
 72
15
 73
11
 74
0
 42
0.0000001
 43
0.0000001
 44
0.0000000001
 40
0.0
 40
0.0
 40
0.0
 40
0.0
 40
0.1485722693
 40
0.2895080351
 40
0.4227240497
 40
0.548637796
 40
0.6679997554
 40
0.781937722
 40
0.8919864347
 40
1.0
 40
1.0
 40
1.0
 40
1.0
 10
49.1179317048
 20
73.6220879147
 30
0.0
 10
49.4378931586
 20
73.8068166434
 30
0.0
 10
50.0767082943
 20
74.1412016027
 30
0.0
 10
51.0510854187
 20
74.5400627121
 30
0.0
 10
52.0081535598
 20
74.8190764154
 30
0.0
 10
52.9387805552
 20
74.9751428939
 30
0.0
 10
53.8343492711
 20
75.0063608496
 30
0.0
 10
54.6862443657
 20
74.9113280881
 30
0.0
 10
55.4853605641
 20
74.6903361824
 30
0.0
 10
55.97925737
 20
74.4590933229
 30
0.0
 10
56.2118738396
 20
74.3247957316
 30
0.0
  0
SPLINE
  5
275
100
AcDbEntity
  8
0
100
AcDbSpline
 62
7
  6
BYLAYER
 70
0
 71
3
 72
25
 73
21
 74
0
 42
0.0000001
 43
0.0000001
 44
0.0000000001
 40
0.0
 40
0.0
 40
0.0
 40
0.0
 40
0.0623816915
 40
0.128721696
 40
0.1983132004
 40
0.270289179
 40
0.3436667754
 40
0.417399543
 40
0.4904246224
 40
0.5617116991
 40
0.630309262
 40
0.695397015
 40
0.7563447162
 40
0.8127821076
 40
0.8646827532
 40
0.9124576587
 40
0.9351021631
 40
0.9571075667
 40
0.9786678887
 40
1.0
 40
1.0
 40
1.0
 40
1.0
 10
50.5321511551
 20
72.8056064056
 30
0.0
 10
50.0224074409
 20
72.5113074917
 30
0.0
 10
49.0097492309
 20
71.8345636758
 30
0.0
 10
47.5756854701
 20
70.6277275134
 30
0.0
 10
46.2048744706
 20
69.2202518811
 30
0.0
 10
44.9265984575
 20
67.6422961586
 30
0.0
 10
43.767943392
 20
65.927307494
 30
0.0
 10
42.7536147169
 20
64.1119012476
 30
0.0
 10
41.9052676829
 20
62.2347966351
 30
0.0
 10
41.2409822895
 20
60.336002233
 30
0.0
 10
40.7749074771
 20
58.4558352215
 30
0.0
 10
40.5170349182
 20
56.6339556957
 30
0.0
 10
40.4731052556
 20
54.9084716607
 30
0.0
 10
40.6450706509
 20
53.31485243
 30
0.0
 10
41.0309523808
 20
51.8862837905
 30
0.0
 10
41.5371480186
 20
50.8391858034
 30
0.0
 10
42.0428666615
 20
50.1266486207
 30
0.0
 10
42.4622108365
 20
49.6614973418
 30
0.0
 10
42.9260172047
 20
49.2593827426
 30
0.0
 10
43.2638987928
 20
49.0342646186
 30
0.0
 10
43.4382121296
 20
48.9336272608
 30
0.0
  0
SPLINE
  5
276
100
AcDbEntity
  8
0
100
AcDbSpline
 62
7
  6
BYLAYER
 70
0
 71
3
 72
25
 73
21
 74
0
 42
0.0000001
 43
0.0000001
 44
0.0000000001
 40
0.0
 40
0.0
 40
0.0
 40
0.0
 40
0.0213321269
 40
0.0428925499
 40
0.0648980818
 40
0.0875427475
 40
0.1353180533
 40
0.1872191441
 40
0.2436569547
 40
0.3046049762
 40
0.3696928652
 40
0.4382903005
 40
0.509576921
 40
0.5826012776
 40
0.6563328688
 40
0.7297097974
 40
0.8016865671
 40
0.8712780093
 40
0.9376180669
 40
1.0
 40
1.0
 40
1.0
 40
1.0
 10
42.0239895701
 20
49.7501033836
 30
0.0
 10
41.8496759488
 20
49.8507407096
 30
0.0
 10
41.5117934836
 20
50.0758597864
 30
0.0
 10
41.0479843745
 20
50.4779750911
 30
0.0
 10
40.6286372189
 20
50.943129113
 30
0.0
 10
40.1229159448
 20
51.6556729092
 30
0.0
 10
39.6167180263
 20
52.7027810126
 30
0.0
 10
39.2308375568
 20
54.1313631396
 30
0.0
 10
39.0588764934
 20
55.7249947898
 30
0.0
 10
39.1028124493
 20
57.4504876576
 30
0.0
 10
39.360691422
 20
59.2723701736
 30
0.0
 10
39.826770963
 20
61.1525324293
 30
0.0
 10
40.4910564551
 20
63.0513146098
 30
0.0
 10
41.3393988949
 20
64.9283977008
 30
0.0
 10
42.3537154641
 20
66.7437839344
 30
0.0
 10
43.5123681585
 20
68.4587631188
 30
0.0
 10
44.7906416466
 20
70.0367227037
 30
0.0
 10
46.1614592643
 20
71.4442034837
 30
0.0
 10
47.5955250922
 20
72.6510416849
 30
0.0
 10
48.6081858045
 20
73.3277877386
 30
0.0
 10
49.1179317048
 20
73.6220879147
 30
0.0
  0
SPLINE
  5
277
100
AcDbEntity
  8
0
100
AcDbSpline
 62
7
  6
BYLAYER
 70
0
 71
3
 72
15
 73
11
 74
0
 42
0.0000001
 43
0.0000001
 44
0.0000000001
 40
0.0
 40
0.0
 40
0.0
 40
0.0
 40
0.1080142046
 40
0.2180621814
 40
0.3319979259
 40
0.4513587741
 40
0.5772723353
 40
0.7104890798
 40
0.8514267836
 40
1.0
 40
1.0
 40
1.0
 40
1.0
 10
57.6260901807
 20
73.5083088363
 30
0.0
 10
57.3934725406
 20
73.6426073651
 30
0.0
 10
56.8995752138
 20
73.8738476117
 30
0.0
 10
56.1004669385
 20
74.094844612
 30
0.0
 10
55.2485819276
 20
74.1898756377
 30
0.0
 10
54.3530225375
 20
74.1586601218
 30
0.0
 10
53.4223964235
 20
74.0025993399
 30
0.0
 10
52.4653214729
 20
73.7235876639
 30
0.0
 10
51.4909367318
 20
73.3247224901
 30
0.0
 10
50.8521145206
 20
72.9903362381
 30
0.0
 10
50.5321511551
 20
72.8056064056
 30
0.0
  0
SPLINE
  5
278
100
AcDbEntity
  8
0
100
AcDbSpline
 62
7
  6
BYLAYER
 70
0
 71
3
 72
19
 73
15
 74
0
 42
0.0000001
 43
0.0000001
 44
0.0000000001
 40
0.0
 40
0.0
 40
0.0
 40
0.0
 40
0.0558396725
 40
0.1142080946
 40
0.1748225079
 40
0.2374050151
 40
0.367015688
 40
0.4999989011
 40
0.6329823903
 40
0.7625924154
 40
0.8251771335
 40
0.8857945996
 40
0.9441485119
 40
1.0
 40
1.0
 40
1.0
 40
1.0
 10
26.4904205001
 20
86.6857920593
 30
0.0
 10
26.1543588676
 20
86.4917679435
 30
0.0
 10
25.4840246574
 20
86.0648968987
 30
0.0
 10
24.5117059324
 20
85.3347751894
 30
0.0
 10
23.5583818824
 20
84.5066162227
 30
0.0
 10
22.31066716
 20
83.2683021361
 30
0.0
 10
20.8602863319
 20
81.52761404
 30
0.0
 10
19.3514077244
 20
79.2229107743
 30
0.0
 10
18.1099470667
 20
76.76382218
 30
0.0
 10
17.3276554605
 20
74.6373987384
 30
0.0
 10
16.8791190219
 20
72.9376497462
 30
0.0
 10
16.6386259456
 20
71.698024702
 30
0.0
 10
16.4924155813
 20
70.4909164347
 30
0.0
 10
16.4579400654
 20
69.6969702322
 30
0.0
 10
16.4579428701
 20
69.3088381522
 30
0.0
  0
SPLINE
  5
279
100
AcDbEntity
  8
0
100
AcDbSpline
 62
7
  6
BYLAYER
 70
0
 71
3
 72
15
 73
11
 74
0
 42
0.0000001
 43
0.0000001
 44
0.0000000001
 40
0.0
 40
0.0
 40
0.0
 40
0.0
 40
0.1080132435
 40
0.2180622233
 40
0.3320003817
 40
0.4513610321
 40
0.5772778283
 40
0.7104926107
 40
0.8514210194
 40
1.0
 40
1.0
 40
1.0
 40
1.0
 10
56.0437143715
 20
75.3593352402
 30
0.0
 10
55.7977944225
 20
75.5013287689
 30
0.0
 10
55.2756337567
 20
75.7458005936
 30
0.0
 10
54.4307945507
 20
75.9794595862
 30
0.0
 10
53.530150078
 20
76.0798897001
 30
0.0
 10
52.5833296359
 20
76.0469259746
 30
0.0
 10
51.5994506474
 20
75.8819020567
 30
0.0
 10
50.5876327461
 20
75.5869278629
 30
0.0
 10
49.5574945841
 20
75.1652657187
 30
0.0
 10
48.8821326894
 20
74.811734447
 30
0.0
 10
48.5438469967
 20
74.6164262771
 30
0.0
  0
SPLINE
  5
27A
100
AcDbEntity
  8
0
100
AcDbSpline
 62
7
  6
BYLAYER
 70
0
 71
3
 72
19
 73
15
 74
0
 42
0.0000001
 43
0.0000001
 44
0.0000000001
 40
0.0
 40
0.0
 40
0.0
 40
0.0
 40
0.0558508015
 40
0.1142050727
 40
0.1748227223
 40
0.2374070469
 40
0.3670173547
 40
0.5000009206
 40
0.6329843612
 40
0.7625946379
 40
0.8251782485
 40
0.8857920546
 40
0.9441580847
 40
1.0
 40
1.0
 40
1.0
 40
1.0
 10
16.4579615634
 20
68.6459569801
 30
0.0
 10
16.4579586071
 20
69.0562936487
 30
0.0
 10
16.4943702013
 20
69.8956699012
 30
0.0
 10
16.6489649456
 20
71.1718498668
 30
0.0
 10
16.903243771
 20
72.4824034367
 30
0.0
 10
17.3773941902
 20
74.2794295756
 30
0.0
 10
18.2044957337
 20
76.5275169836
 30
0.0
 10
19.5169900047
 20
79.1273228929
 30
0.0
 10
21.1121959169
 20
81.5639144667
 30
0.0
 10
22.6455736485
 20
83.4042148505
 30
0.0
 10
23.9646944922
 20
84.7133793342
 30
0.0
 10
24.9725615149
 20
85.5889139635
 30
0.0
 10
26.0005009776
 20
86.3608286905
 30
0.0
 10
26.7091992394
 20
86.8121147244
 30
0.0
 10
27.0645052082
 20
87.0172494966
 30
0.0
  0
SPLINE
  5
27B
100
AcDbEntity
  8
0
100
AcDbSpline
 62
7
  6
BYLAYER
 70
0
 71
3
 72
25
 73
21
 74
0
 42
0.0000001
 43
0.0000001
 44
0.0000000001
 40
0.0
 40
0.0
 40
0.0
 40
0.0
 40
0.0623828503
 40
0.1287213501
 40
0.1983135231
 40
0.2702899904
 40
0.3436670634
 40
0.4173986935
 40
0.4904231491
 40
0.5617098531
 40
0.6303073524
 40
0.6953952671
 40
0.7563432698
 40
0.8127810216
 40
0.8646820269
 40
0.912457242
 40
0.9351019652
 40
0.9571074247
 40
0.9786678821
 40
1.0
 40
1.0
 40
1.0
 40
1.0
 10
48.5438469967
 20
74.6164262771
 30
0.0
 10
48.0049242352
 20
74.305280933
 30
0.0
 10
46.9343171389
 20
73.5898195574
 30
0.0
 10
45.4182003615
 20
72.3139103496
 30
0.0
 10
43.9689355112
 20
70.8259115421
 30
0.0
 10
42.6175184176
 20
69.1576473101
 30
0.0
 10
41.3925591551
 20
67.3445382932
 30
0.0
 10
40.3202001219
 20
65.425268033
 30
0.0
 10
39.4233107869
 20
63.4407723826
 30
0.0
 10
38.721012749
 20
61.4333346172
 30
0.0
 10
38.2282633131
 20
59.4455828257
 30
0.0
 10
37.9556299765
 20
57.5194467386
 30
0.0
 10
37.9091823044
 20
55.6952167198
 30
0.0
 10
38.0909893792
 20
54.010397198
 30
0.0
 10
38.4989477821
 20
52.5000657724
 30
0.0
 10
39.0341350488
 20
51.393058519
 30
0.0
 10
39.5687586353
 20
50.6397132883
 30
0.0
 10
40.0121393535
 20
50.1479782681
 30
0.0
 10
40.5024466635
 20
49.7228027303
 30
0.0
 10
40.8596964053
 20
49.4848494425
 30
0.0
 10
41.0439796219
 20
49.3784448002
 30
0.0
  0
ENDSEC
  0
SECTION
  2
OBJECTS
  0
DICTIONARY
  5
C
100
AcDbDictionary
280
0
281
1
  3
ACAD_GROUP
350
D
  3
ACAD_MLINESTYLE
350
17
  3
ACAD_LAYOUT
350
1A
  3
ACAD_PLOTSETTINGS
350
19
  3
ACAD_PLOTSTYLENAME
350
E
  0
DICTIONARY
  5
D
102
{ACAD_REACTORS
330
C
102
}
100
AcDbDictionary
280
0
281
1
  0
ACDBDICTIONARYWDFLT
  5
E
102
{ACAD_REACTORS
330
C
102
}
100
AcDbDictionary
281
1
  3
Normal
350
F
100
AcDbDictionaryWithDefault
340
F
  0
DICTIONARY
  5
17
102
{ACAD_REACTORS
330
C
102
}
100
AcDbDictionary
280
0
281
1
  3
Standard
350
18
  0
DICTIONARY
  5
19
102
{ACAD_REACTORS
330
C
102
}
100
AcDbDictionary
281
1
  0
DICTIONARY
  5
1A
102
{ACAD_REACTORS
330
C
102
}
100
AcDbDictionary
281
1
  3
Model
350
27C
  3
Layout1
350
27D
  0
ACDBPLACEHOLDER
  5
F
102
{ACAD_REACTORS
330
E
102
}
  0
MLINESTYLE
  5
18
102
{ACAD_REACTORS
330
17
102
}
100
AcDbMlineStyle
  2
STANDARD
 70
0
  3

 62
256
 51
90.0
 52
90.0
 71
2
 49
0.5
 62
256
  6
BYLAYER
 49
-0.5
 62
256
  6
BYLAYER
  0
LAYOUT
  5
27C
102
{ACAD_REACTORS
330
1A
102
}
100
AcDbPlotSettings
  1

  2
none_device
  4

  6

 40
0.0
 41
0.0
 42
0.0
 43
0.0
 44
210.0
 45
297.0
 46
0.0
 47
0.0
 48
0.0
 49
0.0
140
0.0
141
0.0
142
1.0
143
1.0
 70
1024
 72
1
 73
0
 74
0
  7

 75
0
147
1.0
148
0.0
149
0.0
100
AcDbLayout
  1
Model
 70
0
 71
0
 10
0.0
 20
0.0
 11
210.0
 21
297.0
 12
0.0
 22
0.0
 32
0.0
 14
0.0
 24
0.0
 34
0.0
 15
0.0
 25
0.0
 35
0.0
146
0.0
 13
0.0
 23
0.0
 33
0.0
 16
1.0
 26
0.0
 36
0.0
 17
0.0
 27
1.0
 37
0.0
 76
0
330
210
345
0
346
0
  0
LAYOUT
  5
27D
102
{ACAD_REACTORS
330
1A
102
}
100
AcDbPlotSettings
  1

  2
none_device
  4

  6

 40
0.0
 41
0.0
 42
0.0
 43
0.0
 44
210.0
 45
297.0
 46
0.0
 47
0.0
 48
0.0
 49
0.0
140
0.0
141
0.0
142
1.0
143
1.0
 70
0
 72
1
 73
0
 74
0
  7

 75
0
147
1.0
148
0.0
149
0.0
100
AcDbLayout
  1
Layout1
 70
0
 71
1
 10
0.0
 20
0.0
 11
210.0
 21
297.0
 12
0.0
 22
0.0
 32
0.0
 14
0.0
 24
0.0
 34
0.0
 15
0.0
 25
0.0
 35
0.0
146
0.0
 13
0.0
 23
0.0
 33
0.0
 16
1.0
 26
0.0
 36
0.0
 17
0.0
 27
1.0
 37
0.0
 76
0
330
211
345
0
346
0
  0
ENDSEC
  0
EOF
