999
DXF file: C:\Users\sesa63760\Dev\_Creo\CAD\MCADID0004755_3D-CAD\drw0001_6.dxf
999
Pro/ENGINEER 2019471 by Parametric Technology Corporation
  0
SECTION
  2
HEADER
  9
$ACADVER
  1
AC1024
  9
$DWGCODEPAGE
  3
ANSI_1252
  9
$EXTMAX
 10
24.1404514352
 20
34.1414956012
 30
0.0
  9
$EXTMIN
 10
0.0
 20
0.0
 30
0.0
  9
$LIMMIN
 10
0.0
 20
0.0
  9
$LIMMAX
 10
24.1404514352
 20
34.1414956012
  9
$VIEWCTR
 10
12.0702257176
 20
17.0707478006
  9
$VIEWSIZE
 40
34.1414956012
  9
$CLAYER
  8
0
  9
$LTSCALE
 40
2.2255197133
  9
$CELTYPE
  6
BYLAYER
  9
$DIMSCALE
 40
1.0
  9
$DIMASZ
 40
0.2873863266
  9
$DIMEXO
 40
1.0
  9
$DIMDLI
 40
1.5376318019
  9
$DIMEXE
 40
1.0
  9
$DIMCEN
 40
0.3641759531
  9
$DIMLFAC
 40
1.0
  9
$DIMBLK
  1
_FILLED
  9
$DIMALT
 70
0
  9
$DIMALTF
 40
0.0393700787
  9
$DIMTXT
 40
0.4023408573
  9
$DIMTOL
 70
1
  9
$DIMLIM
 70
0
  9
$DIMTFAC
 40
1.0
  9
$DIMTP
 40
0.01
  9
$DIMTM
 40
0.01
  9
$DIMGAP
 40
0.625
  9
$DIMDSEP
 70
46
  9
$AUNITS
 70
0
  9
$PDMODE
 70
3
  9
$PDSIZE
 40
0.3125
  9
$HANDSEED
  5
38C
  9
$TILEMODE
 70
1
  9
$MEASUREMENT
 70
1
  9
$INSUNITS
 70
4
  0
ENDSEC
  0
SECTION
  2
CLASSES
  0
CLASS
  1
ACDBDICTIONARYWDFLT
  2
AcDbDictionaryWithDefault
  3
AutoCAD 2000
 90
0
 91
1
280
0
281
0
  0
CLASS
  1
ACDBPLACEHOLDER
  2
AcDbPlaceHolder
  3
AutoCAD 2000
 90
0
 91
1
280
0
281
0
  0
CLASS
  1
LAYOUT
  2
AcDbLayout
  3
AutoCAD 2000
 90
0
 91
0
280
0
281
0
  0
ENDSEC
  0
SECTION
  2
TABLES
  0
TABLE
  2
VPORT
  5
8
100
AcDbSymbolTable
 70
2
  0
VPORT
  5
1F4
100
AcDbSymbolTableRecord
100
AcDbViewportTableRecord
  2
*ACTIVE
 70
0
 10
0.0
 20
0.0
 11
1.0
 21
1.0
 12
12.0702257176
 22
17.0707478006
 13
0.0
 23
0.0
 14
1.0
 24
1.0
 15
0.0
 25
0.0
 16
0.0
 26
0.0
 36
1.0
 17
0.0
 27
0.0
 37
0.0
 40
34.1414956012
 41
0.7070707071
 42
50.0
 43
0.0
 44
0.0
 50
0.0
 51
0.0
 71
0
 72
100
 73
1
 74
1
 75
0
 76
0
 77
0
 78
0
  0
ENDTAB
  0
TABLE
  2
LTYPE
  5
5
100
AcDbSymbolTable
 70
6
  0
LTYPE
  5
14
100
AcDbSymbolTableRecord
100
AcDbLinetypeTableRecord
  2
BYBLOCK
 70
0
  3

 72
65
 73
0
 40
0.0
  0
LTYPE
  5
15
100
AcDbSymbolTableRecord
100
AcDbLinetypeTableRecord
  2
BYLAYER
 70
0
  3

 72
65
 73
0
 40
0.0
  0
LTYPE
  5
16
100
AcDbSymbolTableRecord
100
AcDbLinetypeTableRecord
  2
CONTINUOUS
 70
64
  3
Solid line
 72
65
 73
0
 40
0.0
  0
LTYPE
  5
1F5
100
AcDbSymbolTableRecord
100
AcDbLinetypeTableRecord
  2
CENTER
 70
64
  3
____ _ ____ _ ____ _ ____ _ ____ _ ____ _ ____
 72
65
 73
4
 40
0.6
 49
0.375
 74
0
 49
-0.075
 74
0
 49
0.075
 74
0
 49
-0.075
 74
0
  0
LTYPE
  5
1F6
100
AcDbSymbolTableRecord
100
AcDbLinetypeTableRecord
  2
HIDDEN
 70
64
  3
- - - - - - - - - - - - - - - - - - - -
 72
65
 73
2
 40
0.2
 49
0.1
 74
0
 49
-0.1
 74
0
  0
LTYPE
  5
1F7
100
AcDbSymbolTableRecord
100
AcDbLinetypeTableRecord
  2
PHANTOM
 70
64
  3
_____ _ _ _____ _ _ _____ _ _ _____
 72
65
 73
6
 40
0.8
 49
0.45
 74
0
 49
-0.05
 74
0
 49
0.1
 74
0
 49
-0.05
 74
0
 49
0.1
 74
0
 49
-0.05
 74
0
  0
LTYPE
  5
1F8
100
AcDbSymbolTableRecord
100
AcDbLinetypeTableRecord
  2
DOT
 70
64
  3
. . . . . . . . . . . . . . . . . . . .
 72
65
 73
2
 40
0.2
 49
0.1
 74
0
 49
-0.1
 74
0
  0
LTYPE
  5
1F9
100
AcDbSymbolTableRecord
100
AcDbLinetypeTableRecord
  2
DASHED
 70
64
  3
- - - - - - - - - - - - - - - - - - - -
 72
65
 73
2
 40
0.2
 49
0.1
 74
0
 49
-0.1
 74
0
  0
ENDTAB
  0
TABLE
  2
LAYER
  5
2
100
AcDbSymbolTable
 70
36
  0
LAYER
  5
10
100
AcDbSymbolTableRecord
100
AcDbLayerTableRecord
  2
0
 70
0
 62
7
  6
CONTINUOUS
370
-3
390
F
  0
LAYER
  5
1FA
100
AcDbSymbolTableRecord
100
AcDbLayerTableRecord
  2
DEFAULT_1
 70
0
 62
7
  6
CENTER
370
-3
390
F
  0
LAYER
  5
1FB
100
AcDbSymbolTableRecord
100
AcDbLayerTableRecord
  2
DEFAULT_2
 70
0
 62
7
  6
HIDDEN
370
-3
390
F
  0
LAYER
  5
1FC
100
AcDbSymbolTableRecord
100
AcDbLayerTableRecord
  2
DEFAULT_3
 70
0
 62
7
  6
PHANTOM
370
-3
390
F
  0
LAYER
  5
1FD
100
AcDbSymbolTableRecord
100
AcDbLayerTableRecord
  2
00_COMPONENTS
 70
0
 62
7
  6
CONTINUOUS
370
-3
390
F
  0
LAYER
  5
1FE
100
AcDbSymbolTableRecord
100
AcDbLayerTableRecord
  2
01_1_DEFAULT_DATUMS
 70
0
 62
7
  6
CONTINUOUS
370
-3
390
F
  0
LAYER
  5
1FF
100
AcDbSymbolTableRecord
100
AcDbLayerTableRecord
  2
01_PLANES
 70
0
 62
7
  6
CONTINUOUS
370
-3
390
F
  0
LAYER
  5
200
100
AcDbSymbolTableRecord
100
AcDbLayerTableRecord
  2
02_COORD_SYS
 70
0
 62
7
  6
CONTINUOUS
370
-3
390
F
  0
LAYER
  5
201
100
AcDbSymbolTableRecord
100
AcDbLayerTableRecord
  2
03_AXES
 70
0
 62
7
  6
CONTINUOUS
370
-3
390
F
  0
LAYER
  5
202
100
AcDbSymbolTableRecord
100
AcDbLayerTableRecord
  2
04_POINTS
 70
0
 62
7
  6
CONTINUOUS
370
-3
390
F
  0
LAYER
  5
203
100
AcDbSymbolTableRecord
100
AcDbLayerTableRecord
  2
05_CURVES
 70
0
 62
7
  6
CONTINUOUS
370
-3
390
F
  0
LAYER
  5
204
100
AcDbSymbolTableRecord
100
AcDbLayerTableRecord
  2
06_SURFS
 70
0
 62
7
  6
CONTINUOUS
370
-3
390
F
  0
LAYER
  5
205
100
AcDbSymbolTableRecord
100
AcDbLayerTableRecord
  2
07_COSMETICS
 70
0
 62
7
  6
CONTINUOUS
370
-3
390
F
  0
LAYER
  5
206
100
AcDbSymbolTableRecord
100
AcDbLayerTableRecord
  2
10_NOTES
 70
0
 62
7
  6
CONTINUOUS
370
-3
390
F
  0
LAYER
  5
207
100
AcDbSymbolTableRecord
100
AcDbLayerTableRecord
  2
11_NOTES_PUB
 70
0
 62
7
  6
CONTINUOUS
370
-3
390
F
  0
LAYER
  5
208
100
AcDbSymbolTableRecord
100
AcDbLayerTableRecord
  2
13_REF_GTOL
 70
0
 62
7
  6
CONTINUOUS
370
-3
390
F
  0
LAYER
  5
209
100
AcDbSymbolTableRecord
100
AcDbLayerTableRecord
  2
16_MISC
 70
0
 62
7
  6
CONTINUOUS
370
-3
390
F
  0
LAYER
  5
20A
100
AcDbSymbolTableRecord
100
AcDbLayerTableRecord
  2
17_NO_PRINT
 70
0
 62
7
  6
CONTINUOUS
370
-3
390
F
  0
LAYER
  5
20B
100
AcDbSymbolTableRecord
100
AcDbLayerTableRecord
  2
18_DATUM_CAMS_JOINTS
 70
0
 62
7
  6
CONTINUOUS
370
-3
390
F
  0
LAYER
  5
20C
100
AcDbSymbolTableRecord
100
AcDbLayerTableRecord
  2
19_DATUM_FUNCTIONAL
 70
0
 62
7
  6
CONTINUOUS
370
-3
390
F
  0
LAYER
  5
20D
100
AcDbSymbolTableRecord
100
AcDbLayerTableRecord
  2
20_DATUM_KINEMATIC_SCHEME
 70
0
 62
7
  6
CONTINUOUS
370
-3
390
F
  0
ENDTAB
  0
TABLE
  2
STYLE
  5
3
100
AcDbSymbolTable
 70
1
  0
STYLE
  5
11
100
AcDbSymbolTableRecord
100
AcDbTextStyleTableRecord
  2
STANDARD
 70
0
 40
0.0
 41
1.0
 50
0.0
 71
0
 42
0.2
  3
ARIAL.TTF
  4

  0
STYLE
  5
20E
100
AcDbSymbolTableRecord
100
AcDbTextStyleTableRecord
  2
TEXTSTYLE_1
 70
0
 40
0.0
 41
0.8
 50
0.0
 71
0
 42
0.2
  3
gdt
  4

  0
ENDTAB
  0
TABLE
  2
VIEW
  5
6
100
AcDbSymbolTable
 70
0
  0
ENDTAB
  0
TABLE
  2
UCS
  5
7
100
AcDbSymbolTable
 70
0
  0
ENDTAB
  0
TABLE
  2
APPID
  5
9
100
AcDbSymbolTable
 70
1
  0
APPID
  5
20F
100
AcDbSymbolTableRecord
100
AcDbRegAppTableRecord
  2
ACAD
 70
0
  0
ENDTAB
  0
TABLE
  2
BLOCK_RECORD
  5
1
100
AcDbSymbolTable
 70
0
  0
BLOCK_RECORD
  5
210
100
AcDbSymbolTableRecord
100
AcDbBlockTableRecord
  2
*Model_Space
  0
BLOCK_RECORD
  5
211
100
AcDbSymbolTableRecord
100
AcDbBlockTableRecord
  2
*Paper_Space
  0
BLOCK_RECORD
  5
212
100
AcDbSymbolTableRecord
100
AcDbBlockTableRecord
  2
_FILLED
  0
ENDTAB
  0
TABLE
  2
DIMSTYLE
  5
A
100
AcDbSymbolTable
 70
1
100
AcDbDimStyleTable
 71
0
  0
DIMSTYLE
105
213
100
AcDbSymbolTableRecord
100
AcDbDimStyleTableRecord
  2
STANDARD
 70
0
  3

  4

 40
1.0
 41
0.2873863266
 42
1.0
 43
0.38
 44
1.0
 45
0.0
 46
0.0
 47
0.01
 48
0.01
140
0.4023408573
141
0.09
142
0.0
143
25.4
144
1.0
145
0.0
146
1.0
147
0.625
 71
1
 72
0
 73
0
 74
0
 75
0
 76
0
 77
1
 78
8
 79
2
170
0
171
1
172
0
173
0
174
0
175
0
176
0
177
0
178
0
270
2
179
2
271
2
272
2
273
2
274
2
275
0
280
0
281
0
282
0
283
1
284
8
285
0
286
0
287
3
288
0
340
11
278
46
341
212
342
212
343
212
344
212
  0
ENDTAB
  0
ENDSEC
  0
SECTION
  2
BLOCKS
  0
BLOCK
  5
20
100
AcDbEntity
  8
0
100
AcDbBlockBegin
  2
*Model_Space
 70
0
 10
0.0
 20
0.0
 30
0.0
  3
*Model_Space
  1

  0
ENDBLK
  5
21
100
AcDbEntity
  8
0
100
AcDbBlockEnd
  0
BLOCK
  5
1C
100
AcDbEntity
  8
0
100
AcDbBlockBegin
  2
*Paper_Space
 70
0
 10
0.0
 20
0.0
 30
0.0
  3
*Paper_Space
  1

  0
ENDBLK
  5
1D
100
AcDbEntity
  8
0
100
AcDbBlockEnd
  0
BLOCK
  5
214
100
AcDbEntity
  8
0
100
AcDbBlockBegin
  2
_FILLED
 70
64
 10
0.0
 20
0.0
  3
_FILLED
  1

  0
SOLID
  5
215
100
AcDbEntity
  8
0
  6
BYBLOCK
 62
0
100
AcDbTrace
 10
0.0
 20
0.0
 11
-1.0
 21
0.25
 12
-1.0
 22
-0.25
 13
-1.0
 23
-0.25
  0
ENDBLK
  5
216
100
AcDbEntity
  8
0
  6
BYBLOCK
 62
0
100
AcDbBlockEnd
  0
ENDSEC
  0
SECTION
  2
ENTITIES
  0
LINE
  5
217
100
AcDbEntity
  8
0
100
AcDbLine
 62
7
  6
BYLAYER
 10
18.0291620774
 20
2.8207478006
 11
6.5291779208
 21
2.8207478006
  0
LINE
  5
218
100
AcDbEntity
  8
0
100
AcDbLine
 62
7
  6
BYLAYER
 10
18.6290679294
 20
6.4207478006
 11
5.9292720688
 21
6.4207478006
  0
LINE
  5
219
100
AcDbEntity
  8
0
100
AcDbLine
 62
7
  6
BYLAYER
 10
5.9292720688
 20
7.0207478006
 11
18.6290679294
 21
7.0207478006
  0
LINE
  5
21A
100
AcDbEntity
  8
0
100
AcDbLine
 62
7
  6
BYLAYER
 10
18.6290679294
 20
8.2207478006
 11
5.9292720688
 21
8.2207478006
  0
LINE
  5
21B
100
AcDbEntity
  8
0
100
AcDbLine
 62
7
  6
BYLAYER
 10
4.2791699991
 20
30.2946780998
 11
4.2791699991
 21
12.8207478006
  0
LINE
  5
21C
100
AcDbEntity
  8
0
100
AcDbLine
 62
7
  6
BYLAYER
 10
5.9292720688
 20
9.3707478006
 11
18.6290679294
 21
9.3707478006
  0
LINE
  5
21D
100
AcDbEntity
  8
0
100
AcDbLine
 62
7
  6
BYLAYER
 10
5.5791699991
 20
12.8207478006
 11
5.5791699991
 21
10.6707478006
  0
LINE
  5
21E
100
AcDbEntity
  8
0
100
AcDbLine
 62
7
  6
BYLAYER
 10
9.7731808865
 20
23.9546515525
 11
9.5872201414
 21
23.7525257189
  0
LINE
  5
21F
100
AcDbEntity
  8
0
100
AcDbLine
 62
7
  6
BYLAYER
 10
9.8298912416
 20
24.0505933637
 11
9.6652145822
 21
23.8922799559
  0
LINE
  5
220
100
AcDbEntity
  8
0
100
AcDbLine
 62
7
  6
BYLAYER
 10
9.8679044014
 20
24.1149035129
 11
9.8174276132
 21
24.0700135798
  0
LINE
  5
221
100
AcDbEntity
  8
0
100
AcDbLine
 62
7
  6
BYLAYER
 10
11.9110877048
 20
24.0980388964
 11
11.7373802371
 21
24.0179964618
  0
LINE
  5
222
100
AcDbEntity
  8
0
100
AcDbLine
 62
7
  6
BYLAYER
 10
11.4691607025
 20
23.8955961407
 11
11.2789610121
 21
23.8110819749
  0
LINE
  5
223
100
AcDbEntity
  8
0
100
AcDbLine
 62
7
  6
BYLAYER
 10
11.5952729734
 20
23.9525150434
 11
11.3192853338
 21
23.8509535402
  0
LINE
  5
224
100
AcDbEntity
  8
0
100
AcDbLine
 62
7
  6
BYLAYER
 10
18.979061573
 20
10.6707478006
 11
5.5792784252
 21
10.6707478006
  0
LINE
  5
225
100
AcDbEntity
  8
0
100
AcDbLine
 62
7
  6
BYLAYER
 10
5.9291699991
 20
9.3707478006
 11
5.9291699991
 21
8.2207478006
  0
LINE
  5
226
100
AcDbEntity
  8
0
100
AcDbLine
 62
7
  6
BYLAYER
 10
5.9291699991
 20
7.0207478006
 11
5.9291699991
 21
6.4207478006
  0
LINE
  5
227
100
AcDbEntity
  8
0
100
AcDbLine
 62
7
  6
BYLAYER
 10
6.5291699991
 20
6.4207478006
 11
6.5291699991
 21
2.8207478006
  0
LINE
  5
228
100
AcDbEntity
  8
0
100
AcDbLine
 62
7
  6
BYLAYER
 10
6.6791699991
 20
8.2207478006
 11
6.6791699991
 21
7.0207478006
  0
LINE
  5
229
100
AcDbEntity
  8
0
100
AcDbLine
 62
7
  6
BYLAYER
 10
6.7791699991
 20
10.6707478006
 11
6.7791699991
 21
9.3707478006
  0
LWPOLYLINE
  5
22A
100
AcDbEntity
  8
0
100
AcDbPolyline
 62
7
  6
BYLAYER
 90
3
 70
0
 10
9.4358235445
 20
23.2210289043
 10
9.294892985
 20
22.9503086573
 10
9.3025920566
 20
22.8263171114
  0
LINE
  5
22B
100
AcDbEntity
  8
0
100
AcDbLine
 62
7
  6
BYLAYER
 10
9.500888035
 20
23.3853552904
 11
9.467530971
 21
23.3264831384
  0
LINE
  5
22C
100
AcDbEntity
  8
0
100
AcDbLine
 62
7
  6
BYLAYER
 10
9.7498762758
 20
23.8243078053
 11
9.5680982613
 21
23.5485755085
  0
LINE
  5
22D
100
AcDbEntity
  8
0
100
AcDbLine
 62
7
  6
BYLAYER
 10
10.0398561724
 20
24.2341492378
 11
9.8457401117
 21
23.969720086
  0
LINE
  5
22E
100
AcDbEntity
  8
0
100
AcDbLine
 62
7
  6
BYLAYER
 10
10.8585280635
 20
23.3897287823
 11
10.718794012
 21
23.2414946714
  0
LINE
  5
22F
100
AcDbEntity
  8
0
100
AcDbLine
 62
7
  6
BYLAYER
 10
11.0100434048
 20
23.5451837407
 11
10.7273127851
 21
23.2656275849
  0
LINE
  5
230
100
AcDbEntity
  8
0
100
AcDbLine
 62
7
  6
BYLAYER
 10
11.4753514021
 20
23.9440062679
 11
11.3437352273
 21
23.8366092976
  0
LINE
  5
231
100
AcDbEntity
  8
0
100
AcDbLine
 62
7
  6
BYLAYER
 10
11.0649356972
 20
23.6196527833
 11
11.0085058304
 21
23.5788364223
  0
LINE
  5
232
100
AcDbEntity
  8
0
100
AcDbLine
 62
7
  6
BYLAYER
 10
11.0982117497
 20
23.6598960873
 11
11.0394145184
 21
23.622536471
  0
LINE
  5
233
100
AcDbEntity
  8
0
100
AcDbLine
 62
7
  6
BYLAYER
 10
9.371162065
 20
22.8169327827
 11
9.3519954043
 21
22.7430541599
  0
LINE
  5
234
100
AcDbEntity
  8
0
100
AcDbLine
 62
7
  6
BYLAYER
 10
9.6652145822
 20
23.8922799559
 11
9.6001014965
 21
23.6618381832
  0
LINE
  5
235
100
AcDbEntity
  8
0
100
AcDbLine
 62
7
  6
BYLAYER
 10
9.3963304598
 20
22.9406719471
 11
9.2791228636
 21
22.5258624511
  0
LINE
  5
236
100
AcDbEntity
  8
0
100
AcDbLine
 62
7
  6
BYLAYER
 10
9.4494615901
 20
23.1287083723
 11
9.271153088
 21
22.609655705
  0
LINE
  5
237
100
AcDbEntity
  8
0
100
AcDbLine
 62
7
  6
BYLAYER
 10
9.6755317816
 20
23.7521168884
 11
9.6101219117
 21
23.5828485956
  0
LINE
  5
238
100
AcDbEntity
  8
0
100
AcDbLine
 62
7
  6
BYLAYER
 10
9.3557670561
 20
22.9547728063
 11
9.2539659003
 21
22.7088501299
  0
LINE
  5
239
100
AcDbEntity
  8
0
100
AcDbLine
 62
7
  6
BYLAYER
 10
9.8795136813
 20
24.0982983484
 11
9.7688360189
 21
23.8774337936
  0
LINE
  5
23A
100
AcDbEntity
  8
0
100
AcDbLine
 62
7
  6
BYLAYER
 10
11.0990836402
 20
23.6974625787
 11
10.9901534552
 21
23.5480914832
  0
LINE
  5
23B
100
AcDbEntity
  8
0
100
AcDbLine
 62
7
  6
BYLAYER
 10
11.0386961554
 20
23.587919276
 11
10.9734008087
 21
23.5089525631
  0
LINE
  5
23C
100
AcDbEntity
  8
0
100
AcDbLine
 62
7
  6
BYLAYER
 10
11.2945134018
 20
23.8631151952
 11
10.7633963436
 21
23.2695242345
  0
LINE
  5
23D
100
AcDbEntity
  8
0
100
AcDbLine
 62
7
  6
BYLAYER
 10
20.2791615983
 20
12.8207478006
 11
4.2791784
 21
12.8207478006
  0
LINE
  5
23E
100
AcDbEntity
  8
0
100
AcDbLine
 62
7
  6
BYLAYER
 10
9.3586761231
 20
22.7805280618
 11
9.3557857352
 21
22.7160050249
  0
LINE
  5
23F
100
AcDbEntity
  8
0
100
AcDbLine
 62
7
  6
BYLAYER
 10
9.3062209699
 20
22.1344028509
 11
9.2776736195
 21
21.8452004796
  0
LINE
  5
240
100
AcDbEntity
  8
0
100
AcDbLine
 62
7
  6
BYLAYER
 10
9.4200571515
 20
23.2496773688
 11
9.3983627848
 21
23.0576719877
  0
LINE
  5
241
100
AcDbEntity
  8
0
100
AcDbLine
 62
7
  6
BYLAYER
 10
9.538442957
 20
23.5679929114
 11
9.5003890646
 21
23.3904940148
  0
LINE
  5
242
100
AcDbEntity
  8
0
100
AcDbLine
 62
7
  6
BYLAYER
 10
9.5872201414
 20
23.7525257189
 11
9.2795676676
 21
22.444079819
  0
LWPOLYLINE
  5
243
100
AcDbEntity
  8
0
100
AcDbPolyline
 62
7
  6
BYLAYER
 90
5
 70
0
 10
10.4829766605
 20
22.5734454432
 10
10.7492631865
 20
23.3278110869
 10
10.9815744507
 20
23.6841691567
 10
11.6366250721
 20
24.0864912707
 10
12.278850716
 20
24.1712104236
  0
LINE
  5
244
100
AcDbEntity
  8
0
100
AcDbLine
 62
7
  6
BYLAYER
 10
12.5557726863
 20
20.5428545858
 11
12.7542960523
 21
20.6170281775
  0
LINE
  5
245
100
AcDbEntity
  8
0
100
AcDbLine
 62
7
  6
BYLAYER
 10
12.4222865247
 20
20.5146618225
 11
12.8644825156
 21
20.6524158066
  0
LINE
  5
246
100
AcDbEntity
  8
0
100
AcDbLine
 62
7
  6
BYLAYER
 10
13.1361402069
 20
20.7390835799
 11
13.2608839042
 21
20.777184003
  0
LINE
  5
247
100
AcDbEntity
  8
0
100
AcDbLine
 62
7
  6
BYLAYER
 10
9.3407121408
 20
22.212403062
 11
9.3524834093
 21
22.022829843
  0
LINE
  5
248
100
AcDbEntity
  8
0
100
AcDbLine
 62
7
  6
BYLAYER
 10
9.3472136443
 20
22.0314351543
 11
9.3627617536
 21
21.7716999954
  0
LINE
  5
249
100
AcDbEntity
  8
0
100
AcDbLine
 62
7
  6
BYLAYER
 10
9.3342969403
 20
22.2064324926
 11
9.3350286723
 21
21.951238011
  0
LINE
  5
24A
100
AcDbEntity
  8
0
100
AcDbLine
 62
7
  6
BYLAYER
 10
10.4564151785
 20
22.4283393544
 11
10.4829766605
 21
22.5734454432
  0
LINE
  5
24B
100
AcDbEntity
  8
0
100
AcDbLine
 62
7
  6
BYLAYER
 10
13.0429650332
 20
20.6566002625
 11
13.4432556053
 21
20.99155101
  0
LINE
  5
24C
100
AcDbEntity
  8
0
100
AcDbLine
 62
7
  6
BYLAYER
 10
13.278322557
 20
20.8565409275
 11
13.5581656346
 21
21.0877202941
  0
LINE
  5
24D
100
AcDbEntity
  8
0
100
AcDbLine
 62
7
  6
BYLAYER
 10
13.0858411984
 20
20.7415673061
 11
13.2527964511
 21
20.8426171218
  0
LINE
  5
24E
100
AcDbEntity
  8
0
100
AcDbLine
 62
7
  6
BYLAYER
 10
13.0161465365
 20
20.7135309448
 11
13.1989708838
 21
20.8132567195
  0
LINE
  5
24F
100
AcDbEntity
  8
0
100
AcDbLine
 62
7
  6
BYLAYER
 10
13.4326825519
 20
20.9291158589
 11
13.4574921851
 21
20.941776768
  0
LINE
  5
250
100
AcDbEntity
  8
0
100
AcDbLine
 62
7
  6
BYLAYER
 10
12.7094089861
 20
20.5890555472
 11
12.7659673202
 21
20.6127391277
  0
LINE
  5
251
100
AcDbEntity
  8
0
100
AcDbLine
 62
7
  6
BYLAYER
 10
12.4752120774
 20
20.4956383863
 11
12.7064669349
 21
20.5887755384
  0
LINE
  5
252
100
AcDbEntity
  8
0
100
AcDbLine
 62
7
  6
BYLAYER
 10
13.2302110103
 20
20.7997117848
 11
13.4442351362
 21
20.885909315
  0
LINE
  5
253
100
AcDbEntity
  8
0
100
AcDbLine
 62
7
  6
BYLAYER
 10
13.6539420569
 20
19.6536937211
 11
13.7556174647
 21
19.6831928465
  0
LINE
  5
254
100
AcDbEntity
  8
0
100
AcDbLine
 62
7
  6
BYLAYER
 10
9.4152448337
 20
21.6110001444
 11
9.450808845
 21
21.3868204358
  0
LINE
  5
255
100
AcDbEntity
  8
0
100
AcDbLine
 62
7
  6
BYLAYER
 10
9.2539659003
 20
22.7088501299
 11
9.2879146734
 21
22.4641262186
  0
LINE
  5
256
100
AcDbEntity
  8
0
100
AcDbLine
 62
7
  6
BYLAYER
 10
10.5197711327
 20
22.1758454778
 11
10.5456552819
 21
21.7233866887
  0
LINE
  5
257
100
AcDbEntity
  8
0
100
AcDbLine
 62
7
  6
BYLAYER
 10
13.565266175
 20
21.0443002288
 11
13.6264313044
 21
21.1448267592
  0
LINE
  5
258
100
AcDbEntity
  8
0
100
AcDbLine
 62
7
  6
BYLAYER
 10
13.4442351362
 20
20.885909315
 11
13.7683884777
 21
21.3626391328
  0
LINE
  5
259
100
AcDbEntity
  8
0
100
AcDbLine
 62
7
  6
BYLAYER
 10
13.7055618543
 20
21.2740218549
 11
13.7869628608
 21
21.3908894207
  0
LINE
  5
25A
100
AcDbEntity
  8
0
100
AcDbLine
 62
7
  6
BYLAYER
 10
13.5782577316
 20
21.1131157149
 11
13.9056324237
 21
21.526901199
  0
LINE
  5
25B
100
AcDbEntity
  8
0
100
AcDbLine
 62
7
  6
BYLAYER
 10
13.4378213128
 20
20.9831666927
 11
13.6551862603
 21
21.2103495856
  0
LINE
  5
25C
100
AcDbEntity
  8
0
100
AcDbLine
 62
7
  6
BYLAYER
 10
13.6535294363
 20
19.6533599029
 11
14.3140815516
 21
20.1877595985
  0
LINE
  5
25D
100
AcDbEntity
  8
0
100
AcDbLine
 62
7
  6
BYLAYER
 10
14.160669107
 20
20.0529602661
 11
14.2378025034
 21
20.1087976287
  0
LINE
  5
25E
100
AcDbEntity
  8
0
100
AcDbLine
 62
7
  6
BYLAYER
 10
14.0923102429
 20
19.9707710934
 11
14.1203126253
 21
19.9871753428
  0
LINE
  5
25F
100
AcDbEntity
  8
0
100
AcDbLine
 62
7
  6
BYLAYER
 10
13.8200091923
 20
19.8139901323
 11
13.9017242677
 21
19.8591227405
  0
LINE
  5
260
100
AcDbEntity
  8
0
100
AcDbLine
 62
7
  6
BYLAYER
 10
13.293131116
 20
19.5495382768
 11
13.6337225194
 21
19.7021229732
  0
LINE
  5
261
100
AcDbEntity
  8
0
100
AcDbLine
 62
7
  6
BYLAYER
 10
9.4424177285
 20
21.5277984701
 11
9.5563645638
 21
21.1789005128
  0
LINE
  5
262
100
AcDbEntity
  8
0
100
AcDbLine
 62
7
  6
BYLAYER
 10
9.2681631656
 20
22.2132943816
 11
9.4475950501
 21
21.5100727845
  0
LINE
  5
263
100
AcDbEntity
  8
0
100
AcDbLine
 62
7
  6
BYLAYER
 10
9.2916264132
 20
22.217376462
 11
9.3529700023
 21
21.9361251982
  0
LINE
  5
264
100
AcDbEntity
  8
0
100
AcDbLine
 62
7
  6
BYLAYER
 10
9.2967316502
 20
22.2174606626
 11
9.3274743473
 21
22.0636686212
  0
LINE
  5
265
100
AcDbEntity
  8
0
100
AcDbLine
 62
7
  6
BYLAYER
 10
9.5120930785
 20
21.1401032151
 11
9.5470474202
 21
20.9652421887
  0
LINE
  5
266
100
AcDbEntity
  8
0
100
AcDbLine
 62
7
  6
BYLAYER
 10
10.4745894915
 20
22.5276261139
 11
10.5418545581
 21
22.0039056975
  0
LINE
  5
267
100
AcDbEntity
  8
0
100
AcDbLine
 62
7
  6
BYLAYER
 10
10.5287334519
 20
22.0689366755
 11
10.5549018535
 21
21.8340528121
  0
LINE
  5
268
100
AcDbEntity
  8
0
100
AcDbLine
 62
7
  6
BYLAYER
 10
13.779040426
 20
21.2939135265
 11
13.8075089318
 21
21.3705716192
  0
LINE
  5
269
100
AcDbEntity
  8
0
100
AcDbLine
 62
7
  6
BYLAYER
 10
13.74980742
 20
21.2675902244
 11
13.8074787327
 21
21.4028397687
  0
LINE
  5
26A
100
AcDbEntity
  8
0
100
AcDbLine
 62
7
  6
BYLAYER
 10
13.988499868
 20
21.8167049599
 11
14.0448366242
 21
21.9407943564
  0
LINE
  5
26B
100
AcDbEntity
  8
0
100
AcDbLine
 62
7
  6
BYLAYER
 10
13.9533088228
 20
21.7255650015
 11
14.0446797172
 21
21.909396378
  0
LINE
  5
26C
100
AcDbEntity
  8
0
100
AcDbLine
 62
7
  6
BYLAYER
 10
14.3445029745
 20
20.1185096825
 11
14.4216051164
 21
20.2322234533
  0
LWPOLYLINE
  5
26D
100
AcDbEntity
  8
0
100
AcDbPolyline
 62
7
  6
BYLAYER
 90
3
 70
0
 10
14.9993085607
 20
21.0523525762
 10
15.1258270852
 20
21.2262297557
 10
15.1373929605
 20
21.3433617306
  0
LINE
  5
26E
100
AcDbEntity
  8
0
100
AcDbLine
 62
7
  6
BYLAYER
 10
14.1129643857
 20
19.9168229744
 11
14.1666820037
 21
19.9825356808
  0
LINE
  5
26F
100
AcDbEntity
  8
0
100
AcDbLine
 62
7
  6
BYLAYER
 10
13.8038652634
 20
19.6826865579
 11
14.920887625
 21
20.7983130761
  0
LINE
  5
270
100
AcDbEntity
  8
0
100
AcDbLine
 62
7
  6
BYLAYER
 10
14.2200730036
 20
20.1117048282
 11
14.4092743609
 21
20.2903031761
  0
LINE
  5
271
100
AcDbEntity
  8
0
100
AcDbLine
 62
7
  6
BYLAYER
 10
13.7549389137
 20
19.6825734043
 11
14.3570089661
 21
20.2321968757
  0
LINE
  5
272
100
AcDbEntity
  8
0
100
AcDbLine
 62
7
  6
BYLAYER
 10
10.0247012602
 20
20.4007460432
 11
10.2876645725
 21
20.0107033011
  0
LINE
  5
273
100
AcDbEntity
  8
0
100
AcDbLine
 62
7
  6
BYLAYER
 10
9.5361678615
 20
21.1707285079
 11
9.5565054368
 21
21.1371944121
  0
LINE
  5
274
100
AcDbEntity
  8
0
100
AcDbLine
 62
7
  6
BYLAYER
 10
9.7095350952
 20
20.8824638877
 11
9.7671983133
 21
20.7826896482
  0
LWPOLYLINE
  5
275
100
AcDbEntity
  8
0
100
AcDbPolyline
 62
7
  6
BYLAYER
 90
3
 70
0
 10
9.9421215886
 20
20.4800211998
 10
10.1277432351
 20
20.1588414391
 10
10.2251241391
 20
20.1034669718
  0
LINE
  5
276
100
AcDbEntity
  8
0
100
AcDbLine
 62
7
  6
BYLAYER
 10
9.8451126336
 20
20.6269928931
 11
9.8754867343
 21
20.5693860329
  0
LINE
  5
277
100
AcDbEntity
  8
0
100
AcDbLine
 62
7
  6
BYLAYER
 10
9.3359986064
 20
21.6129695849
 11
9.4323054033
 21
21.4232678611
  0
LINE
  5
278
100
AcDbEntity
  8
0
100
AcDbLine
 62
7
  6
BYLAYER
 10
9.6332364946
 20
21.0274809012
 11
9.7322873742
 21
20.7996847807
  0
LINE
  5
279
100
AcDbEntity
  8
0
100
AcDbLine
 62
7
  6
BYLAYER
 10
10.6963131198
 20
21.4945852134
 11
10.7265369813
 21
21.4047022238
  0
LWPOLYLINE
  5
27A
100
AcDbEntity
  8
0
100
AcDbPolyline
 62
7
  6
BYLAYER
 90
5
 70
0
 10
10.4533688082
 20
22.4424597912
 10
10.6573583894
 20
21.431444277
 10
11.4433965108
 20
20.6703222144
 10
12.5229220789
 20
20.4875612008
 10
13.0551322891
 20
20.6420595043
  0
LINE
  5
27B
100
AcDbEntity
  8
0
100
AcDbLine
 62
7
  6
BYLAYER
 10
10.4654358936
 20
22.388694908
 11
10.4882264609
 21
22.2702735034
  0
LINE
  5
27C
100
AcDbEntity
  8
0
100
AcDbLine
 62
7
  6
BYLAYER
 10
10.5562359767
 20
21.9111617786
 11
10.56985644
 21
21.8347860979
  0
LINE
  5
27D
100
AcDbEntity
  8
0
100
AcDbLine
 62
7
  6
BYLAYER
 10
13.9638758351
 20
21.6501408807
 11
13.9909125144
 21
21.8330247983
  0
LWPOLYLINE
  5
27E
100
AcDbEntity
  8
0
100
AcDbPolyline
 62
7
  6
BYLAYER
 90
3
 70
0
 10
13.8429681903
 20
21.3514782479
 10
14.1282237475
 20
22.3719822744
 10
14.1166150507
 20
22.4060492002
  0
LWPOLYLINE
  5
27F
100
AcDbEntity
  8
0
100
AcDbPolyline
 62
7
  6
BYLAYER
 90
3
 70
0
 10
15.056215217
 20
21.3439992484
 10
15.31408275
 20
22.0278545287
 10
15.2979392357
 20
22.1236407308
  0
LINE
  5
280
100
AcDbEntity
  8
0
100
AcDbLine
 62
7
  6
BYLAYER
 10
14.8552311975
 20
20.8910598503
 11
14.9269571336
 21
21.0286797228
  0
LINE
  5
281
100
AcDbEntity
  8
0
100
AcDbLine
 62
7
  6
BYLAYER
 10
9.7133150354
 20
20.6983281584
 11
9.8207799802
 21
20.5961704617
  0
LINE
  5
282
100
AcDbEntity
  8
0
100
AcDbLine
 62
7
  6
BYLAYER
 10
9.6566394229
 20
20.7943639538
 11
10.723390315
 21
19.6977299752
  0
LINE
  5
283
100
AcDbEntity
  8
0
100
AcDbLine
 62
7
  6
BYLAYER
 10
10.2140011079
 20
20.2247762174
 11
10.2773779421
 21
20.1562365737
  0
LINE
  5
284
100
AcDbEntity
  8
0
100
AcDbLine
 62
7
  6
BYLAYER
 10
9.6457854162
 20
20.8531926905
 11
10.1530911778
 21
20.277493787
  0
LINE
  5
285
100
AcDbEntity
  8
0
100
AcDbLine
 62
7
  6
BYLAYER
 10
9.6747942711
 20
20.8733295471
 11
10.1006523747
 21
20.3278341946
  0
LINE
  5
286
100
AcDbEntity
  8
0
100
AcDbLine
 62
7
  6
BYLAYER
 10
10.6174693044
 20
21.6291430202
 11
10.7386624789
 21
21.4517012536
  0
LINE
  5
287
100
AcDbEntity
  8
0
100
AcDbLine
 62
7
  6
BYLAYER
 10
10.9046216613
 20
21.1920188263
 11
11.0210136495
 21
21.0117220188
  0
LINE
  5
288
100
AcDbEntity
  8
0
100
AcDbLine
 62
7
  6
BYLAYER
 10
10.9485524606
 20
21.1101625659
 11
11.0153988755
 21
20.9981617218
  0
LINE
  5
289
100
AcDbEntity
  8
0
100
AcDbLine
 62
7
  6
BYLAYER
 10
10.5975780596
 20
21.7277282371
 11
10.8388318402
 21
21.255723223
  0
LINE
  5
28A
100
AcDbEntity
  8
0
100
AcDbLine
 62
7
  6
BYLAYER
 10
10.5107140912
 20
21.9287578895
 11
10.5666613137
 21
21.8107622873
  0
LINE
  5
28B
100
AcDbEntity
  8
0
100
AcDbLine
 62
7
  6
BYLAYER
 10
14.0587273279
 20
22.1648356155
 11
14.0469320509
 21
22.3601009949
  0
LINE
  5
28C
100
AcDbEntity
  8
0
100
AcDbLine
 62
7
  6
BYLAYER
 10
14.0199603267
 20
22.7742989879
 11
14.0163988117
 21
22.8392610902
  0
LINE
  5
28D
100
AcDbEntity
  8
0
100
AcDbLine
 62
7
  6
BYLAYER
 10
14.0455127098
 20
22.0760828789
 11
14.0483274902
 21
22.6393362301
  0
LINE
  5
28E
100
AcDbEntity
  8
0
100
AcDbLine
 62
7
  6
BYLAYER
 10
14.0494527752
 20
22.5930415009
 11
14.0508162728
 21
22.7191271933
  0
LINE
  5
28F
100
AcDbEntity
  8
0
100
AcDbLine
 62
7
  6
BYLAYER
 10
14.0699363063
 20
22.5430328207
 11
14.0724838142
 21
22.5766191986
  0
LINE
  5
290
100
AcDbEntity
  8
0
100
AcDbLine
 62
7
  6
BYLAYER
 10
15.149200628
 20
21.6540332728
 11
15.2036846127
 21
22.0147222589
  0
LINE
  5
291
100
AcDbEntity
  8
0
100
AcDbLine
 62
7
  6
BYLAYER
 10
15.0493490434
 20
21.2441994834
 11
15.1286459117
 21
21.5776126663
  0
LWPOLYLINE
  5
292
100
AcDbEntity
  8
0
100
AcDbPolyline
 62
7
  6
BYLAYER
 90
3
 70
0
 10
14.9337141157
 20
20.8467045018
 10
15.3285167705
 20
22.3362049247
 10
15.3235652397
 20
22.3539490386
  0
LINE
  5
293
100
AcDbEntity
  8
0
100
AcDbLine
 62
7
  6
BYLAYER
 10
15.2779678288
 20
22.0802318992
 11
15.295314281
 21
22.1392156815
  0
LWPOLYLINE
  5
294
100
AcDbEntity
  8
0
100
AcDbPolyline
 62
7
  6
BYLAYER
 90
3
 70
0
 10
14.9049813689
 20
20.8562190843
 10
15.3240791906
 20
22.2079509012
 10
15.3102329817
 20
22.2672243571
  0
LINE
  5
295
100
AcDbEntity
  8
0
100
AcDbLine
 62
7
  6
BYLAYER
 10
12.2633592494
 20
19.2721415296
 11
13.8038652634
 21
19.6826865579
  0
LINE
  5
296
100
AcDbEntity
  8
0
100
AcDbLine
 62
7
  6
BYLAYER
 10
12.2572907555
 20
19.2926159659
 11
12.3648456182
 21
19.3175846293
  0
LWPOLYLINE
  5
297
100
AcDbEntity
  8
0
100
AcDbPolyline
 62
7
  6
BYLAYER
 90
3
 70
0
 10
13.0145011652
 20
19.4692720465
 10
13.6751391791
 20
19.6097250589
 10
13.7349421083
 20
19.6643185292
  0
LINE
  5
298
100
AcDbEntity
  8
0
100
AcDbLine
 62
7
  6
BYLAYER
 10
12.8292250307
 20
19.429881956
 11
13.0411977092
 21
19.4659412509
  0
LINE
  5
299
100
AcDbEntity
  8
0
100
AcDbLine
 62
7
  6
BYLAYER
 10
11.897706291
 20
19.2948740828
 11
12.1187200618
 21
19.3267499001
  0
LINE
  5
29A
100
AcDbEntity
  8
0
100
AcDbLine
 62
7
  6
BYLAYER
 10
12.0317777467
 20
19.3481662846
 11
12.6819191609
 21
19.4079775608
  0
LINE
  5
29B
100
AcDbEntity
  8
0
100
AcDbLine
 62
7
  6
BYLAYER
 10
12.5389071593
 20
19.3891700129
 11
12.7362272885
 21
19.4038002005
  0
LINE
  5
29C
100
AcDbEntity
  8
0
100
AcDbLine
 62
7
  6
BYLAYER
 10
11.9281773096
 20
19.3736860421
 11
12.3462851484
 21
19.3771001268
  0
LINE
  5
29D
100
AcDbEntity
  8
0
100
AcDbLine
 62
7
  6
BYLAYER
 10
11.6506915854
 20
19.395652085
 11
11.7010129392
 21
19.3942973813
  0
LINE
  5
29E
100
AcDbEntity
  8
0
100
AcDbLine
 62
7
  6
BYLAYER
 10
12.7633023473
 20
19.3515303631
 11
12.9414473516
 21
19.3436220125
  0
LINE
  5
29F
100
AcDbEntity
  8
0
100
AcDbLine
 62
7
  6
BYLAYER
 10
12.2767903933
 20
19.3707067947
 11
12.3692863116
 21
19.3628879379
  0
LINE
  5
2A0
100
AcDbEntity
  8
0
100
AcDbLine
 62
7
  6
BYLAYER
 10
11.1783664896
 20
19.4763296016
 11
11.4777538856
 21
19.4451356636
  0
LINE
  5
2A1
100
AcDbEntity
  8
0
100
AcDbLine
 62
7
  6
BYLAYER
 10
11.365727658
 20
19.5119127555
 11
11.7614649048
 21
19.4155750874
  0
LINE
  5
2A2
100
AcDbEntity
  8
0
100
AcDbLine
 62
7
  6
BYLAYER
 10
10.723390315
 20
19.6977299752
 11
12.2633592494
 21
19.2721415296
  0
LWPOLYLINE
  5
2A3
100
AcDbEntity
  8
0
100
AcDbPolyline
 62
7
  6
BYLAYER
 90
3
 70
0
 10
10.7069591674
 20
19.7457894241
 10
12.1153055337
 20
19.2781011897
 10
12.1867969587
 20
19.293300415
  0
LINE
  5
2A4
100
AcDbEntity
  8
0
100
AcDbLine
 62
7
  6
BYLAYER
 10
10.6797268818
 20
19.7719319803
 11
10.8742371975
 21
19.7000091096
  0
LINE
  5
2A5
100
AcDbEntity
  8
0
100
AcDbLine
 62
7
  6
BYLAYER
 10
11.3637434389
 20
19.5127222848
 11
11.897706291
 21
19.2948740828
  0
LINE
  5
2A6
100
AcDbEntity
  8
0
100
AcDbLine
 62
7
  6
BYLAYER
 10
10.2876645725
 20
20.0107033011
 11
10.4606132633
 21
19.9285126778
  0
LINE
  5
2A7
100
AcDbEntity
  8
0
100
AcDbLine
 62
7
  6
BYLAYER
 10
10.4122686517
 20
19.9581465975
 11
10.5612764455
 21
19.8856424943
  0
LINE
  5
2A8
100
AcDbEntity
  8
0
100
AcDbLine
 62
7
  6
BYLAYER
 10
11.1072663638
 20
19.6128541105
 11
11.1686163624
 21
19.5796961065
  0
LINE
  5
2A9
100
AcDbEntity
  8
0
100
AcDbLine
 62
7
  6
BYLAYER
 10
10.415005922
 20
20.0260598446
 11
10.8630279438
 21
19.7372726442
  0
LINE
  5
2AA
100
AcDbEntity
  8
0
100
AcDbLine
 62
7
  6
BYLAYER
 10
10.2324737985
 20
20.1589798899
 11
10.2977856533
 21
20.1132921216
  0
LINE
  5
2AB
100
AcDbEntity
  8
0
100
AcDbLine
 62
7
  6
BYLAYER
 10
11.0106123332
 20
19.5997085991
 11
11.1783664896
 21
19.4763296016
  0
LINE
  5
2AC
100
AcDbEntity
  8
0
100
AcDbLine
 62
7
  6
BYLAYER
 10
10.9365521293
 20
21.1619663794
 11
11.1038184068
 21
20.9948787533
  0
LINE
  5
2AD
100
AcDbEntity
  8
0
100
AcDbLine
 62
7
  6
BYLAYER
 10
10.8084359503
 20
21.3151917727
 11
11.2482377637
 21
20.834515896
  0
LINE
  5
2AE
100
AcDbEntity
  8
0
100
AcDbLine
 62
7
  6
BYLAYER
 10
11.1112239451
 20
20.9454707132
 11
11.2184004295
 21
20.8072157665
  0
LINE
  5
2AF
100
AcDbEntity
  8
0
100
AcDbLine
 62
7
  6
BYLAYER
 10
10.7519554018
 20
21.4195738558
 11
10.8130012863
 21
21.3372779018
  0
LINE
  5
2B0
100
AcDbEntity
  8
0
100
AcDbLine
 62
7
  6
BYLAYER
 10
15.1977288225
 20
23.0173036622
 11
15.1934194058
 21
23.1230841703
  0
LINE
  5
2B1
100
AcDbEntity
  8
0
100
AcDbLine
 62
7
  6
BYLAYER
 10
15.2310497722
 20
21.8076541039
 11
15.2279936628
 21
21.9703158417
  0
LINE
  5
2B2
100
AcDbEntity
  8
0
100
AcDbLine
 62
7
  6
BYLAYER
 10
15.2341323234
 20
22.6744373695
 11
15.2348296806
 21
22.6961018073
  0
LINE
  5
2B3
100
AcDbEntity
  8
0
100
AcDbLine
 62
7
  6
BYLAYER
 10
15.2176693215
 20
22.1629897527
 11
15.2246987151
 21
22.2588993532
  0
LINE
  5
2B4
100
AcDbEntity
  8
0
100
AcDbLine
 62
7
  6
BYLAYER
 10
12.9672077379
 20
20.6670703724
 11
13.0899559156
 21
20.6959207768
  0
LINE
  5
2B5
100
AcDbEntity
  8
0
100
AcDbLine
 62
7
  6
BYLAYER
 10
12.1988431404
 20
20.5404626039
 11
12.3903644268
 21
20.504717372
  0
LINE
  5
2B6
100
AcDbEntity
  8
0
100
AcDbLine
 62
7
  6
BYLAYER
 10
11.9903790977
 20
20.5777194128
 11
12.4334521482
 21
20.4788197087
  0
LINE
  5
2B7
100
AcDbEntity
  8
0
100
AcDbLine
 62
7
  6
BYLAYER
 10
11.3422963299
 20
20.7682176932
 11
11.555795447
 21
20.7010156776
  0
LINE
  5
2B8
100
AcDbEntity
  8
0
100
AcDbLine
 62
7
  6
BYLAYER
 10
11.5974742248
 20
20.6878966637
 11
11.7371700641
 21
20.6342389833
  0
LINE
  5
2B9
100
AcDbEntity
  8
0
100
AcDbLine
 62
7
  6
BYLAYER
 10
11.6864480016
 20
20.6291741971
 11
11.8995795247
 21
20.5119802837
  0
LINE
  5
2BA
100
AcDbEntity
  8
0
100
AcDbLine
 62
7
  6
BYLAYER
 10
11.2577399761
 20
20.875660677
 11
11.5686185943
 21
20.6969794017
  0
LINE
  5
2BB
100
AcDbEntity
  8
0
100
AcDbLine
 62
7
  6
BYLAYER
 10
11.0966231748
 20
21.0002211596
 11
11.4582415161
 21
20.7317222251
  0
LINE
  5
2BC
100
AcDbEntity
  8
0
100
AcDbLine
 62
7
  6
BYLAYER
 10
14.0055114324
 20
22.7260559718
 11
13.9843814646
 21
22.7937370804
  0
LINE
  5
2BD
100
AcDbEntity
  8
0
100
AcDbLine
 62
7
  6
BYLAYER
 10
14.0161210845
 20
22.6514227556
 11
14.0045572827
 21
22.6952980972
  0
LINE
  5
2BE
100
AcDbEntity
  8
0
100
AcDbLine
 62
7
  6
BYLAYER
 10
14.0607062723
 20
22.4213439305
 11
13.9841935952
 21
22.7946537064
  0
LINE
  5
2BF
100
AcDbEntity
  8
0
100
AcDbLine
 62
7
  6
BYLAYER
 10
14.071596224
 20
22.1638352207
 11
14.0531752373
 21
22.3220546649
  0
LINE
  5
2C0
100
AcDbEntity
  8
0
100
AcDbLine
 62
7
  6
BYLAYER
 10
11.8995795247
 20
20.5119802837
 11
12.4255319083
 21
20.5620376359
  0
LINE
  5
2C1
100
AcDbEntity
  8
0
100
AcDbLine
 62
7
  6
BYLAYER
 10
12.6993496971
 20
20.5859090937
 11
12.7970275542
 21
20.5940074208
  0
LINE
  5
2C2
100
AcDbEntity
  8
0
100
AcDbLine
 62
7
  6
BYLAYER
 10
12.4361114073
 20
20.5474885689
 11
12.6948426264
 21
20.5374689861
  0
LINE
  5
2C3
100
AcDbEntity
  8
0
100
AcDbLine
 62
7
  6
BYLAYER
 10
11.7836103433
 20
20.5757478672
 11
11.9058663323
 21
20.5694421325
  0
LINE
  5
2C4
100
AcDbEntity
  8
0
100
AcDbLine
 62
7
  6
BYLAYER
 10
11.6048398586
 20
20.6228740438
 11
11.8354551236
 21
20.5964873341
  0
LINE
  5
2C5
100
AcDbEntity
  8
0
100
AcDbLine
 62
7
  6
BYLAYER
 10
12.1111504055
 20
20.5600729554
 11
12.2345062811
 21
20.5438568321
  0
LINE
  5
2C6
100
AcDbEntity
  8
0
100
AcDbLine
 62
7
  6
BYLAYER
 10
14.049040261
 20
22.7819656865
 11
13.8984339098
 21
23.0463244048
  0
LINE
  5
2C7
100
AcDbEntity
  8
0
100
AcDbLine
 62
7
  6
BYLAYER
 10
13.9161728736
 20
22.9942675741
 11
13.8266820813
 21
23.1771397448
  0
LINE
  5
2C8
100
AcDbEntity
  8
0
100
AcDbLine
 62
7
  6
BYLAYER
 10
13.9019956066
 20
23.0192575027
 11
13.7824516573
 21
23.2674953506
  0
LINE
  5
2C9
100
AcDbEntity
  8
0
100
AcDbLine
 62
7
  6
BYLAYER
 10
13.9511072845
 20
22.8917489194
 11
13.7759338873
 21
23.405813436
  0
LINE
  5
2CA
100
AcDbEntity
  8
0
100
AcDbLine
 62
7
  6
BYLAYER
 10
14.994773516
 20
23.5188152474
 11
14.9216616493
 21
23.7653790209
  0
LINE
  5
2CB
100
AcDbEntity
  8
0
100
AcDbLine
 62
7
  6
BYLAYER
 10
15.11733892
 20
23.0929736811
 11
14.9577650408
 21
23.7760845122
  0
LINE
  5
2CC
100
AcDbEntity
  8
0
100
AcDbLine
 62
7
  6
BYLAYER
 10
15.1952201531
 20
22.7373215439
 11
15.1852829423
 21
22.7920774986
  0
LINE
  5
2CD
100
AcDbEntity
  8
0
100
AcDbLine
 62
7
  6
BYLAYER
 10
15.2855647929
 20
21.952225948
 11
15.2659501996
 21
22.1226769102
  0
LINE
  5
2CE
100
AcDbEntity
  8
0
100
AcDbLine
 62
7
  6
BYLAYER
 10
17.7791699991
 20
10.6707478006
 11
17.7791699991
 21
9.3707478006
  0
LWPOLYLINE
  5
2CF
100
AcDbEntity
  8
0
100
AcDbPolyline
 62
7
  6
BYLAYER
 90
3
 70
0
 10
13.4062494361
 20
23.6831798641
 10
13.0987650177
 20
23.9772450375
 10
12.990655227
 20
23.994991413
  0
LINE
  5
2D0
100
AcDbEntity
  8
0
100
AcDbLine
 62
7
  6
BYLAYER
 10
13.8263092849
 20
23.2639984605
 11
13.795982076
 21
23.2945002895
  0
LINE
  5
2D1
100
AcDbEntity
  8
0
100
AcDbLine
 62
7
  6
BYLAYER
 10
13.8760826505
 20
23.1921064732
 11
13.8049116486
 21
23.2713164521
  0
LINE
  5
2D2
100
AcDbEntity
  8
0
100
AcDbLine
 62
7
  6
BYLAYER
 10
13.6368379055
 20
23.4551933859
 11
13.5428468347
 21
23.5621972661
  0
LINE
  5
2D3
100
AcDbEntity
  8
0
100
AcDbLine
 62
7
  6
BYLAYER
 10
13.6144081957
 20
23.4841055758
 11
13.4600072028
 21
23.6831304801
  0
LWPOLYLINE
  5
2D4
100
AcDbEntity
  8
0
100
AcDbPolyline
 62
7
  6
BYLAYER
 90
3
 70
0
 10
13.8510403059
 20
23.1515526813
 10
13.4397708523
 20
23.7601518894
 10
13.1544118918
 20
23.8721282494
  0
LINE
  5
2D5
100
AcDbEntity
  8
0
100
AcDbLine
 62
7
  6
BYLAYER
 10
14.8626635249
 20
23.7222730355
 11
14.8044533128
 21
23.8251484767
  0
LINE
  5
2D6
100
AcDbEntity
  8
0
100
AcDbLine
 62
7
  6
BYLAYER
 10
15.0727866079
 20
23.2836951646
 11
14.949575135
 21
23.5463965219
  0
LINE
  5
2D7
100
AcDbEntity
  8
0
100
AcDbLine
 62
7
  6
BYLAYER
 10
14.8291584766
 20
23.8570495375
 11
14.769491345
 21
24.0043246625
  0
LINE
  5
2D8
100
AcDbEntity
  8
0
100
AcDbLine
 62
7
  6
BYLAYER
 10
17.8791699991
 20
8.2207478006
 11
17.8791699991
 21
7.0207478006
  0
LINE
  5
2D9
100
AcDbEntity
  8
0
100
AcDbLine
 62
7
  6
BYLAYER
 10
18.0291699991
 20
6.4207478006
 11
18.0291699991
 21
2.8207478006
  0
LINE
  5
2DA
100
AcDbEntity
  8
0
100
AcDbLine
 62
7
  6
BYLAYER
 10
18.6291699991
 20
9.3707478006
 11
18.6291699991
 21
8.2207478006
  0
LINE
  5
2DB
100
AcDbEntity
  8
0
100
AcDbLine
 62
7
  6
BYLAYER
 10
18.6291699991
 20
7.0207478006
 11
18.6291699991
 21
6.4207478006
  0
LINE
  5
2DC
100
AcDbEntity
  8
0
100
AcDbLine
 62
7
  6
BYLAYER
 10
12.6510232482
 20
24.0696606061
 11
12.5299724982
 21
24.1171615584
  0
LINE
  5
2DD
100
AcDbEntity
  8
0
100
AcDbLine
 62
7
  6
BYLAYER
 10
13.333466797
 20
23.7960124063
 11
13.1623674545
 21
23.8660304351
  0
LINE
  5
2DE
100
AcDbEntity
  8
0
100
AcDbLine
 62
7
  6
BYLAYER
 10
13.4810891196
 20
23.6990088491
 11
12.9803550165
 21
23.9404290846
  0
LINE
  5
2DF
100
AcDbEntity
  8
0
100
AcDbLine
 62
7
  6
BYLAYER
 10
12.8740974853
 20
24.0141245316
 11
12.7848775065
 21
24.0645269765
  0
LINE
  5
2E0
100
AcDbEntity
  8
0
100
AcDbLine
 62
7
  6
BYLAYER
 10
13.6139412055
 20
23.5456932963
 11
13.6005192925
 21
23.5548215439
  0
LINE
  5
2E1
100
AcDbEntity
  8
0
100
AcDbLine
 62
7
  6
BYLAYER
 10
13.7759338873
 20
23.405813436
 11
13.3254283592
 21
23.7438182094
  0
LINE
  5
2E2
100
AcDbEntity
  8
0
100
AcDbLine
 62
7
  6
BYLAYER
 10
13.2248251709
 20
23.8225620532
 11
13.1694789276
 21
23.8662158651
  0
LINE
  5
2E3
100
AcDbEntity
  8
0
100
AcDbLine
 62
7
  6
BYLAYER
 10
13.2497458752
 20
23.8105469692
 11
13.1966110123
 21
23.8555690921
  0
LINE
  5
2E4
100
AcDbEntity
  8
0
100
AcDbLine
 62
7
  6
BYLAYER
 10
14.5274647461
 20
24.2234599616
 11
14.4832114791
 21
24.2693861445
  0
LINE
  5
2E5
100
AcDbEntity
  8
0
100
AcDbLine
 62
7
  6
BYLAYER
 10
14.8783344132
 20
23.8592014933
 11
14.3546243874
 21
24.4072167567
  0
LINE
  5
2E6
100
AcDbEntity
  8
0
100
AcDbLine
 62
7
  6
BYLAYER
 10
14.9432626239
 20
23.7210480191
 11
14.4090104184
 21
24.3578268994
  0
LINE
  5
2E7
100
AcDbEntity
  8
0
100
AcDbLine
 62
7
  6
BYLAYER
 10
14.5731197468
 20
24.1622238615
 11
14.4769825821
 21
24.2911706351
  0
LINE
  5
2E8
100
AcDbEntity
  8
0
100
AcDbLine
 62
7
  6
BYLAYER
 10
15.0061555243
 20
23.4999604903
 11
14.9764932915
 21
23.5490971786
  0
LINE
  5
2E9
100
AcDbEntity
  8
0
100
AcDbLine
 62
7
  6
BYLAYER
 10
14.6916602727
 20
24.020934593
 11
14.6033122992
 21
24.1672865838
  0
LINE
  5
2EA
100
AcDbEntity
  8
0
100
AcDbLine
 62
7
  6
BYLAYER
 10
18.9791699991
 20
12.8207478006
 11
18.9791699991
 21
10.6707478006
  0
LINE
  5
2EB
100
AcDbEntity
  8
0
100
AcDbLine
 62
7
  6
BYLAYER
 10
12.2871748576
 20
24.1354446779
 11
12.0981296695
 21
24.0908653916
  0
LINE
  5
2EC
100
AcDbEntity
  8
0
100
AcDbLine
 62
7
  6
BYLAYER
 10
11.9979199654
 20
24.0672346548
 11
11.8180071303
 21
24.0282400012
  0
LINE
  5
2ED
100
AcDbEntity
  8
0
100
AcDbLine
 62
7
  6
BYLAYER
 10
12.0309400392
 20
24.0723266307
 11
11.7080115502
 21
24.0044637033
  0
LINE
  5
2EE
100
AcDbEntity
  8
0
100
AcDbLine
 62
7
  6
BYLAYER
 10
12.1633153507
 20
24.0883653655
 11
11.514777033
 21
23.981220101
  0
LINE
  5
2EF
100
AcDbEntity
  8
0
100
AcDbLine
 62
7
  6
BYLAYER
 10
12.3737834601
 20
24.0863619407
 11
12.3284156573
 21
24.0856342186
  0
LINE
  5
2F0
100
AcDbEntity
  8
0
100
AcDbLine
 62
7
  6
BYLAYER
 10
12.2788904787
 20
24.1705758359
 11
12.2791744826
 21
24.1705705088
  0
LWPOLYLINE
  5
2F1
100
AcDbEntity
  8
0
100
AcDbPolyline
 62
7
  6
BYLAYER
 90
3
 70
0
 10
12.8612481262
 20
24.0615979813
 10
11.7865340928
 20
24.1028158241
 10
11.341435194
 20
23.9036595537
  0
LINE
  5
2F2
100
AcDbEntity
  8
0
100
AcDbLine
 62
7
  6
BYLAYER
 10
12.4733653381
 20
24.0799052819
 11
12.2756157578
 21
24.0877210619
  0
LINE
  5
2F3
100
AcDbEntity
  8
0
100
AcDbLine
 62
7
  6
BYLAYER
 10
12.7501281286
 20
24.0307713287
 11
12.6640134868
 21
24.0465597358
  0
LINE
  5
2F4
100
AcDbEntity
  8
0
100
AcDbLine
 62
7
  6
BYLAYER
 10
12.7920425259
 20
24.0143238983
 11
12.6406163631
 21
24.0524507889
  0
LINE
  5
2F5
100
AcDbEntity
  8
0
100
AcDbLine
 62
7
  6
BYLAYER
 10
12.4384450574
 20
24.1047535243
 11
12.3040513089
 21
24.1394243621
  0
LINE
  5
2F6
100
AcDbEntity
  8
0
100
AcDbLine
 62
7
  6
BYLAYER
 10
13.9873830169
 20
24.7527956008
 11
13.6826351979
 21
24.9095792435
  0
LINE
  5
2F7
100
AcDbEntity
  8
0
100
AcDbLine
 62
7
  6
BYLAYER
 10
13.2303562402
 20
25.1748467927
 11
13.1772376971
 21
25.2058049316
  0
LINE
  5
2F8
100
AcDbEntity
  8
0
100
AcDbLine
 62
7
  6
BYLAYER
 10
14.215471024
 20
24.5885078355
 11
14.1350822633
 21
24.6369477701
  0
LINE
  5
2F9
100
AcDbEntity
  8
0
100
AcDbLine
 62
7
  6
BYLAYER
 10
13.6401887278
 20
24.956540396
 11
13.5096202054
 21
25.0462996835
  0
LINE
  5
2FA
100
AcDbEntity
  8
0
100
AcDbLine
 62
7
  6
BYLAYER
 10
13.767822912
 20
24.9782775589
 11
13.762268595
 21
24.983682884
  0
LINE
  5
2FB
100
AcDbEntity
  8
0
100
AcDbLine
 62
7
  6
BYLAYER
 10
20.2791699991
 20
30.2946780998
 11
20.2791699991
 21
12.8207478006
  0
LWPOLYLINE
  5
2FC
100
AcDbEntity
  8
0
100
AcDbPolyline
 62
7
  6
BYLAYER
 90
6
 70
0
 10
12.2791704725
 20
25.3702849352
 10
11.1642429549
 20
25.1950817002
 10
10.0842776425
 20
24.4809608334
 10
9.5355049692
 20
23.5525546527
 10
9.2954152157
 20
22.754051467
 10
9.2329376935
 20
22.382217242
  0
LINE
  5
2FD
100
AcDbEntity
  8
0
100
AcDbLine
 62
7
  6
BYLAYER
 10
12.6843100953
 20
25.3434299838
 11
12.2893444199
 21
25.2921347266
  0
LINE
  5
2FE
100
AcDbEntity
  8
0
100
AcDbLine
 62
7
  6
BYLAYER
 10
12.8342735211
 20
25.2803195881
 11
12.5738532473
 21
25.2723825292
  0
LINE
  5
2FF
100
AcDbEntity
  8
0
100
AcDbLine
 62
7
  6
BYLAYER
 10
12.5725576114
 20
25.2517554589
 11
12.5170146351
 21
25.2552109631
  0
LINE
  5
300
100
AcDbEntity
  8
0
100
AcDbLine
 62
7
  6
BYLAYER
 10
13.0458546931
 20
25.1912780675
 11
12.8777810449
 21
25.2127543373
  0
LINE
  5
301
100
AcDbEntity
  8
0
100
AcDbLine
 62
7
  6
BYLAYER
 10
13.4837851943
 20
25.0640599534
 11
13.1861535221
 21
25.1315152544
  0
LINE
  5
302
100
AcDbEntity
  8
0
100
AcDbLine
 62
7
  6
BYLAYER
 10
13.762268595
 20
24.983682884
 11
12.2730873405
 21
25.3454470607
  0
LINE
  5
303
100
AcDbEntity
  8
0
100
AcDbLine
 62
7
  6
BYLAYER
 10
12.6350362703
 20
25.2767041522
 11
12.4881736113
 21
25.3179572098
  0
LINE
  5
304
100
AcDbEntity
  8
0
100
AcDbLine
 62
7
  6
BYLAYER
 10
13.8087809642
 20
24.9464362794
 11
12.7873199218
 21
25.2365858372
  0
LINE
  5
305
100
AcDbEntity
  8
0
100
AcDbLine
 62
7
  6
BYLAYER
 10
13.1337396752
 20
25.1363703064
 11
12.5020250466
 21
25.3606795127
  0
LINE
  5
306
100
AcDbEntity
  8
0
100
AcDbLine
 62
7
  6
BYLAYER
 10
13.601068592
 20
24.9528981733
 11
13.2978682568
 21
25.0780915359
  0
LINE
  5
307
100
AcDbEntity
  8
0
100
AcDbLine
 62
7
  6
BYLAYER
 10
13.1907258247
 20
25.1303107057
 11
12.6843100953
 21
25.3434299838
  0
CIRCLE
  5
308
100
AcDbEntity
  8
0
100
AcDbCircle
 62
7
  6
BYLAYER
 10
9.8291699991
 20
22.3207478006
 40
0.6
  0
ARC
  5
309
100
AcDbEntity
  8
0
100
AcDbCircle
 62
7
  6
BYLAYER
 10
12.2791699991
 20
-0.3792521994
 40
31.7
100
AcDbArc
 50
75.3824399485
 51
104.6175600515
  0
ARC
  5
30A
100
AcDbEntity
  8
0
100
AcDbCircle
 62
7
  6
BYLAYER
 10
12.2037888607
 20
22.2813582308
 40
3.1320710672
100
AcDbArc
 50
28.6138642761
 51
30.6529979323
  0
ARC
  5
30B
100
AcDbEntity
  8
0
100
AcDbCircle
 62
7
  6
BYLAYER
 10
12.2571283191
 20
22.2944707203
 40
3.0803622561
100
AcDbArc
 50
29.8726888254
 51
30.8354219396
  0
ARC
  5
30C
100
AcDbEntity
  8
0
100
AcDbCircle
 62
7
  6
BYLAYER
 10
12.2675227405
 20
22.3004341105
 40
3.0683786848
100
AcDbArc
 50
28.7455712317
 51
29.8728033993
  0
ARC
  5
30D
100
AcDbEntity
  8
0
100
AcDbCircle
 62
7
  6
BYLAYER
 10
12.262177943
 20
22.3092868321
 40
3.064871881
100
AcDbArc
 50
357.6115452699
 51
357.9234509853
  0
ARC
  5
30E
100
AcDbEntity
  8
0
100
AcDbCircle
 62
7
  6
BYLAYER
 10
12.2710562064
 20
22.3088958332
 40
3.0559850361
100
AcDbArc
 50
356.4979338716
 51
357.6119326847
  0
ARC
  5
30F
100
AcDbEntity
  8
0
100
AcDbCircle
 62
7
  6
BYLAYER
 10
12.2796628037
 20
22.295289627
 40
3.0264888802
100
AcDbArc
 50
298.9486912498
 51
299.4516367736
  0
ARC
  5
310
100
AcDbEntity
  8
0
100
AcDbCircle
 62
7
  6
BYLAYER
 10
12.2132569687
 20
22.2948543883
 40
2.9793686467
100
AcDbArc
 50
209.0428617955
 51
209.3150626242
  0
ARC
  5
311
100
AcDbEntity
  8
0
100
AcDbCircle
 62
7
  6
BYLAYER
 10
12.2143466952
 20
22.2738062535
 40
2.9700803856
100
AcDbArc
 50
209.1993939308
 51
210.0374732402
  0
ARC
  5
312
100
AcDbEntity
  8
0
100
AcDbCircle
 62
7
  6
BYLAYER
 10
12.2044979544
 20
22.2900134419
 40
2.969360915
100
AcDbArc
 50
208.0789869623
 51
209.0432468196
  0
ARC
  5
313
100
AcDbEntity
  8
0
100
AcDbCircle
 62
7
  6
BYLAYER
 10
12.200247208
 20
22.2656377473
 40
2.953785606
100
AcDbArc
 50
210.0372068547
 51
211.173086506
  0
ARC
  5
314
100
AcDbEntity
  8
0
100
AcDbCircle
 62
7
  6
BYLAYER
 10
12.2237509906
 20
22.2405000411
 40
2.952518462
100
AcDbArc
 50
230.7721115404
 51
231.5618414548
  0
ARC
  5
315
100
AcDbEntity
  8
0
100
AcDbCircle
 62
7
  6
BYLAYER
 10
12.1858106676
 20
22.2800868896
 40
2.9482008181
100
AcDbArc
 50
206.4861692781
 51
208.079719537
  0
ARC
  5
316
100
AcDbEntity
  8
0
100
AcDbCircle
 62
7
  6
BYLAYER
 10
12.184436242
 20
22.2560782319
 40
2.9353093792
100
AcDbArc
 50
211.1731833397
 51
212.2268201745
  0
ARC
  5
317
100
AcDbEntity
  8
0
100
AcDbCircle
 62
7
  6
BYLAYER
 10
12.2782706136
 20
22.1746348366
 40
2.9038842536
100
AcDbArc
 50
268.8517959201
 51
269.5832370362
  0
ARC
  5
318
100
AcDbEntity
  8
0
100
AcDbCircle
 62
7
  6
BYLAYER
 10
12.2444465242
 20
22.2799858608
 40
1.9017096403
100
AcDbArc
 50
48.6490355323
 51
50.7094416161
  0
ARC
  5
319
100
AcDbEntity
  8
0
100
AcDbCircle
 62
7
  6
BYLAYER
 10
12.2729946841
 20
22.2675779547
 40
1.9016896184
100
AcDbArc
 50
82.087962842
 51
84.0868712636
  0
ARC
  5
31A
100
AcDbEntity
  8
0
100
AcDbCircle
 62
7
  6
BYLAYER
 10
12.2329002131
 20
22.2949740775
 40
1.9011262669
100
AcDbArc
 50
27.105920318
 51
28.6350305293
  0
ARC
  5
31B
100
AcDbEntity
  8
0
100
AcDbCircle
 62
7
  6
BYLAYER
 10
12.2336106495
 20
22.2938577862
 40
1.9010652903
100
AcDbArc
 50
28.7601902448
 51
31.3479715987
  0
ARC
  5
31C
100
AcDbEntity
  8
0
100
AcDbCircle
 62
7
  6
BYLAYER
 10
12.273090434
 20
22.2685281282
 40
1.9007346364
100
AcDbArc
 50
84.0867914747
 51
85.8776015244
  0
ARC
  5
31D
100
AcDbEntity
  8
0
100
AcDbCircle
 62
7
  6
BYLAYER
 10
12.2345341823
 20
22.2943654651
 40
1.9000114164
100
AcDbArc
 50
28.1020553536
 51
28.7601691551
  0
ARC
  5
31E
100
AcDbEntity
  8
0
100
AcDbCircle
 62
7
  6
BYLAYER
 10
12.2286623288
 20
22.313078461
 40
1.8992492202
100
AcDbArc
 50
8.1322581858
 51
14.4455766996
  0
ARC
  5
31F
100
AcDbEntity
  8
0
100
AcDbCircle
 62
7
  6
BYLAYER
 10
12.2744860532
 20
22.2701950929
 40
1.8989300149
100
AcDbArc
 50
87.2182156448
 51
87.7923990593
  0
ARC
  5
320
100
AcDbEntity
  8
0
100
AcDbCircle
 62
7
  6
BYLAYER
 10
12.2356747577
 20
22.2949740485
 40
1.8987186342
100
AcDbArc
 50
27.3722611465
 51
28.1020681245
  0
ARC
  5
321
100
AcDbEntity
  8
0
100
AcDbCircle
 62
7
  6
BYLAYER
 10
12.2352027491
 20
22.2961482813
 40
1.8985416178
100
AcDbArc
 50
25.3357787984
 51
27.1060375455
  0
ARC
  5
322
100
AcDbEntity
  8
0
100
AcDbCircle
 62
7
  6
BYLAYER
 10
12.2732749774
 20
22.271030311
 40
1.8982256611
100
AcDbArc
 50
85.877728014
 51
86.9294354313
  0
ARC
  5
323
100
AcDbEntity
  8
0
100
AcDbCircle
 62
7
  6
BYLAYER
 10
12.2745448731
 20
22.2717485396
 40
1.8973754554
100
AcDbArc
 50
87.7923669563
 51
88.5717718222
  0
ARC
  5
324
100
AcDbEntity
  8
0
100
AcDbCircle
 62
7
  6
BYLAYER
 10
12.2746122539
 20
22.2746017604
 40
1.8945214415
100
AcDbArc
 50
88.5716582373
 51
89.757259112
  0
ARC
  5
325
100
AcDbEntity
  8
0
100
AcDbCircle
 62
7
  6
BYLAYER
 10
12.2735403422
 20
22.2764874473
 40
1.8927621451
100
AcDbArc
 50
86.9286080617
 51
89.581982985
  0
ARC
  5
326
100
AcDbEntity
  8
0
100
AcDbCircle
 62
7
  6
BYLAYER
 10
12.2746311171
 20
22.2782965255
 40
1.8908266297
100
AcDbArc
 50
89.7573563724
 51
90.6051813618
  0
ARC
  5
327
100
AcDbEntity
  8
0
100
AcDbCircle
 62
7
  6
BYLAYER
 10
12.2557100316
 20
22.2891426051
 40
1.8874848291
100
AcDbArc
 50
42.8051256406
 51
49.0058153091
  0
ARC
  5
328
100
AcDbEntity
  8
0
100
AcDbCircle
 62
7
  6
BYLAYER
 10
12.2745223266
 20
22.285521601
 40
1.8836008084
100
AcDbArc
 50
90.6041936318
 51
92.9577772993
  0
ARC
  5
329
100
AcDbEntity
  8
0
100
AcDbCircle
 62
7
  6
BYLAYER
 10
12.2729598374
 20
22.2872727487
 40
1.8820912288
100
AcDbArc
 50
89.0366048363
 51
89.9997695556
  0
ARC
  5
32A
100
AcDbEntity
  8
0
100
AcDbCircle
 62
7
  6
BYLAYER
 10
12.2893123828
 20
22.2996427032
 40
1.8711689237
100
AcDbArc
 50
97.9730368818
 51
99.394846744
  0
ARC
  5
32B
100
AcDbEntity
  8
0
100
AcDbCircle
 62
7
  6
BYLAYER
 10
12.2810318841
 20
22.2989862918
 40
1.8695690285
100
AcDbArc
 50
111.8959149506
 51
114.3049213774
  0
ARC
  5
32C
100
AcDbEntity
  8
0
100
AcDbCircle
 62
7
  6
BYLAYER
 10
12.2657359173
 20
22.3137023274
 40
1.8623556052
100
AcDbArc
 50
357.9675145412
 51
1.5304805647
  0
ARC
  5
32D
100
AcDbEntity
  8
0
100
AcDbCircle
 62
7
  6
BYLAYER
 10
12.2879494841
 20
22.3093859156
 40
1.8613308509
100
AcDbArc
 50
96.5152373547
 51
97.9730900824
  0
ARC
  5
32E
100
AcDbEntity
  8
0
100
AcDbCircle
 62
7
  6
BYLAYER
 10
12.2841792901
 20
22.3112219676
 40
1.8569716671
100
AcDbArc
 50
74.1184891326
 51
76.2401850109
  0
ARC
  5
32F
100
AcDbEntity
  8
0
100
AcDbCircle
 62
7
  6
BYLAYER
 10
12.2747834029
 20
22.3128761175
 40
1.8543384581
100
AcDbArc
 50
114.3056099324
 51
116.1653686537
  0
ARC
  5
330
100
AcDbEntity
  8
0
100
AcDbCircle
 62
7
  6
BYLAYER
 10
12.2822972425
 20
22.3093792663
 40
1.8401015351
100
AcDbArc
 50
323.6082986189
 51
324.6311176098
  0
ARC
  5
331
100
AcDbEntity
  8
0
100
AcDbCircle
 62
7
  6
BYLAYER
 10
12.2791699991
 20
22.3207478006
 40
9.0
100
AcDbArc
 50
207.2660444507
 51
332.7339555493
  0
CIRCLE
  5
332
100
AcDbEntity
  8
0
100
AcDbCircle
 62
7
  6
BYLAYER
 10
12.2791699991
 20
22.3207478006
 40
7.5
  0
CIRCLE
  5
333
100
AcDbEntity
  8
0
100
AcDbCircle
 62
7
  6
BYLAYER
 10
12.2791699991
 20
22.3207478006
 40
7.0
  0
CIRCLE
  5
334
100
AcDbEntity
  8
0
100
AcDbCircle
 62
7
  6
BYLAYER
 10
12.2791699991
 20
22.3207478006
 40
3.3601520154
  0
ARC
  5
335
100
AcDbEntity
  8
0
100
AcDbCircle
 62
7
  6
BYLAYER
 10
12.2799539722
 20
22.4085472255
 40
3.1347733007
100
AcDbArc
 50
268.2873978924
 51
268.9529841432
  0
ARC
  5
336
100
AcDbEntity
  8
0
100
AcDbCircle
 62
7
  6
BYLAYER
 10
12.1954504934
 20
22.3261046588
 40
3.130858686
100
AcDbArc
 50
358.9172751346
 51
359.2315076146
  0
CIRCLE
  5
337
100
AcDbEntity
  8
0
100
AcDbCircle
 62
7
  6
BYLAYER
 10
12.2791699991
 20
22.3207478006
 40
3.0999999942
  0
ARC
  5
338
100
AcDbEntity
  8
0
100
AcDbCircle
 62
7
  6
BYLAYER
 10
12.2072889493
 20
22.3462295466
 40
2.9738618693
100
AcDbArc
 50
152.0767312161
 51
155.4029057833
  0
ARC
  5
339
100
AcDbEntity
  8
0
100
AcDbCircle
 62
7
  6
BYLAYER
 10
12.2717176967
 20
22.4311942324
 40
2.939328958
100
AcDbArc
 50
89.9727418625
 51
91.1407270567
  0
ARC
  5
33A
100
AcDbEntity
  8
0
100
AcDbCircle
 62
7
  6
BYLAYER
 10
12.1594620428
 20
22.3432801231
 40
2.9281959328
100
AcDbArc
 50
170.4036592489
 51
171.1800537277
  0
ARC
  5
33B
100
AcDbEntity
  8
0
100
AcDbCircle
 62
7
  6
BYLAYER
 10
12.2714124254
 20
22.4476096441
 40
2.9229107223
100
AcDbArc
 50
91.141150257
 51
91.8656890988
  0
ARC
  5
33C
100
AcDbEntity
  8
0
100
AcDbCircle
 62
7
  6
BYLAYER
 10
12.2417100217
 20
22.3590188462
 40
1.9017153454
100
AcDbArc
 50
313.5703677682
 51
315.1941254441
  0
ARC
  5
33D
100
AcDbEntity
  8
0
100
AcDbCircle
 62
7
  6
BYLAYER
 10
12.2441973152
 20
22.359839775
 40
1.9006147594
100
AcDbArc
 50
310.5494112505
 51
314.3391811998
  0
ARC
  5
33E
100
AcDbEntity
  8
0
100
AcDbCircle
 62
7
  6
BYLAYER
 10
12.2427370802
 20
22.3579294772
 40
1.9002181717
100
AcDbArc
 50
311.2188527413
 51
313.5705700563
  0
ARC
  5
33F
100
AcDbEntity
  8
0
100
AcDbCircle
 62
7
  6
BYLAYER
 10
12.2803874649
 20
22.3616098369
 40
1.8890017102
100
AcDbArc
 50
274.6478384233
 51
275.9616454076
  0
ARC
  5
340
100
AcDbEntity
  8
0
100
AcDbCircle
 62
7
  6
BYLAYER
 10
12.2589407053
 20
22.3523926868
 40
1.8856488609
100
AcDbArc
 50
293.5441160071
 51
294.8138163987
  0
ARC
  5
341
100
AcDbEntity
  8
0
100
AcDbCircle
 62
7
  6
BYLAYER
 10
12.2683098753
 20
22.3548455091
 40
1.8838552391
100
AcDbArc
 50
296.3468698746
 51
297.389824013
  0
ARC
  5
342
100
AcDbEntity
  8
0
100
AcDbCircle
 62
7
  6
BYLAYER
 10
12.2466153435
 20
22.3334060458
 40
1.8829906551
100
AcDbArc
 50
327.8948619093
 51
330.4608962819
  0
ARC
  5
343
100
AcDbEntity
  8
0
100
AcDbCircle
 62
7
  6
BYLAYER
 10
12.245238884
 20
22.3187715396
 40
1.88203419
100
AcDbArc
 50
12.5002794006
 51
14.2562184706
  0
ARC
  5
344
100
AcDbEntity
  8
0
100
AcDbCircle
 62
7
  6
BYLAYER
 10
12.2608397097
 20
22.3480577005
 40
1.8809161833
100
AcDbArc
 50
292.9641412162
 51
293.54383316
  0
ARC
  5
345
100
AcDbEntity
  8
0
100
AcDbCircle
 62
7
  6
BYLAYER
 10
12.2828215498
 20
22.3525521711
 40
1.8800332798
100
AcDbArc
 50
250.60992817
 51
254.3085731872
  0
ARC
  5
346
100
AcDbEntity
  8
0
100
AcDbCircle
 62
7
  6
BYLAYER
 10
12.2731924783
 20
22.3455346888
 40
1.8733419865
100
AcDbArc
 50
297.3882372821
 51
300.0958944926
  0
ARC
  5
347
100
AcDbEntity
  8
0
100
AcDbCircle
 62
7
  6
BYLAYER
 10
12.2866460385
 20
22.3238580104
 40
1.852516073
100
AcDbArc
 50
267.078615363
 51
268.4736083212
  0
ARC
  5
348
100
AcDbEntity
  8
0
100
AcDbCircle
 62
7
  6
BYLAYER
 10
12.2860965568
 20
22.3172856458
 40
1.8513002932
100
AcDbArc
 50
226.0700285574
 51
228.1686895354
  0
ARC
  5
349
100
AcDbEntity
  8
0
100
AcDbCircle
 62
7
  6
BYLAYER
 10
12.2697918211
 20
22.3176554146
 40
1.8427490808
100
AcDbArc
 50
149.2181724744
 51
149.746049775
  0
ARC
  5
34A
100
AcDbEntity
  8
0
100
AcDbCircle
 62
7
  6
BYLAYER
 10
12.2637944265
 20
22.3525446238
 40
1.8147801629
100
AcDbArc
 50
122.8616079411
 51
124.4319173396
  0
CIRCLE
  5
34B
100
AcDbEntity
  8
0
100
AcDbCircle
 62
7
  6
BYLAYER
 10
12.2791699991
 20
22.3207478006
 40
1.5
  0
ARC
  5
34C
100
AcDbEntity
  8
0
100
AcDbCircle
 62
7
  6
BYLAYER
 10
12.3364702102
 20
22.3085810205
 40
3.1053966156
100
AcDbArc
 50
175.934487523
 51
178.6664061277
  0
ARC
  5
34D
100
AcDbEntity
  8
0
100
AcDbCircle
 62
7
  6
BYLAYER
 10
12.2963070275
 20
22.2203705286
 40
2.9482008181
100
AcDbArc
 50
282.640015432
 51
284.2335656908
  0
ARC
  5
34E
100
AcDbEntity
  8
0
100
AcDbCircle
 62
7
  6
BYLAYER
 10
12.3701757941
 20
22.2500241504
 40
2.9347591457
100
AcDbArc
 50
317.7969732328
 51
320.8031317163
  0
ARC
  5
34F
100
AcDbEntity
  8
0
100
AcDbCircle
 62
7
  6
BYLAYER
 10
12.3451750362
 20
22.2099702945
 40
2.9210501456
100
AcDbArc
 50
301.136496254
 51
303.4565585332
  0
ARC
  5
350
100
AcDbEntity
  8
0
100
AcDbCircle
 62
7
  6
BYLAYER
 10
12.3858837348
 20
22.2466108245
 40
2.9200634267
100
AcDbArc
 50
326.3399792219
 51
327.0388103593
  0
ARC
  5
351
100
AcDbEntity
  8
0
100
AcDbCircle
 62
7
  6
BYLAYER
 10
12.3241676299
 20
22.1985646737
 40
2.9197965931
100
AcDbArc
 50
288.3809375118
 51
289.1365547803
  0
ARC
  5
352
100
AcDbEntity
  8
0
100
AcDbCircle
 62
7
  6
BYLAYER
 10
12.3530238058
 20
22.212890427
 40
2.9192798582
100
AcDbArc
 50
303.1331520753
 51
307.4705719709
  0
ARC
  5
353
100
AcDbEntity
  8
0
100
AcDbCircle
 62
7
  6
BYLAYER
 10
12.3487384172
 20
22.2047508533
 40
2.9147414222
100
AcDbArc
 50
299.1585556179
 51
300.5343162224
  0
ARC
  5
354
100
AcDbEntity
  8
0
100
AcDbCircle
 62
7
  6
BYLAYER
 10
12.4179891304
 20
22.3123948189
 40
2.9109297399
100
AcDbArc
 50
356.5552533917
 51
358.2584192306
  0
ARC
  5
355
100
AcDbEntity
  8
0
100
AcDbCircle
 62
7
  6
BYLAYER
 10
12.3913297001
 20
22.2324154303
 40
2.9072368441
100
AcDbArc
 50
320.8085986415
 51
322.5083718218
  0
ARC
  5
356
100
AcDbEntity
  8
0
100
AcDbCircle
 62
7
  6
BYLAYER
 10
12.3971088956
 20
22.2392375993
 40
2.9066352146
100
AcDbArc
 50
324.5205237252
 51
324.9797314537
  0
ARC
  5
357
100
AcDbEntity
  8
0
100
AcDbCircle
 62
7
  6
BYLAYER
 10
12.3993147441
 20
22.2376458105
 40
2.9039152634
100
AcDbArc
 50
324.9804759284
 51
326.3403270196
  0
ARC
  5
358
100
AcDbEntity
  8
0
100
AcDbCircle
 62
7
  6
BYLAYER
 10
12.3294799438
 20
22.1832847814
 40
2.9036195819
100
AcDbArc
 50
289.1363635714
 51
290.5774172254
  0
ARC
  5
359
100
AcDbEntity
  8
0
100
AcDbCircle
 62
7
  6
BYLAYER
 10
12.4215765485
 20
22.2847088512
 40
2.9031039704
100
AcDbArc
 50
345.0055746382
 51
345.8314322892
  0
ARC
  5
35A
100
AcDbEntity
  8
0
100
AcDbCircle
 62
7
  6
BYLAYER
 10
12.3565680514
 20
22.1913863537
 40
2.8992523651
100
AcDbArc
 50
300.5352259175
 51
301.1336830095
  0
ARC
  5
35B
100
AcDbEntity
  8
0
100
AcDbCircle
 62
7
  6
BYLAYER
 10
12.3203950417
 20
22.2867610524
 40
1.9015913661
100
AcDbArc
 50
139.6722845977
 51
140.2697770008
  0
ARC
  5
35C
100
AcDbEntity
  8
0
100
AcDbCircle
 62
7
  6
BYLAYER
 10
12.2941036617
 20
22.2710953133
 40
1.9000114164
100
AcDbArc
 50
104.255901508
 51
104.9140153098
  0
ARC
  5
35D
100
AcDbEntity
  8
0
100
AcDbCircle
 62
7
  6
BYLAYER
 10
12.2927076929
 20
22.2714028393
 40
1.8993295542
100
AcDbArc
 50
102.2715696419
 51
103.2597075314
  0
ARC
  5
35E
100
AcDbEntity
  8
0
100
AcDbCircle
 62
7
  6
BYLAYER
 10
12.2937857202
 20
22.2723483892
 40
1.8987186343
100
AcDbArc
 50
103.5261073004
 51
104.2559142789
  0
ARC
  5
35F
100
AcDbEntity
  8
0
100
AcDbCircle
 62
7
  6
BYLAYER
 10
12.292287489
 20
22.2733305701
 40
1.8973565574
100
AcDbArc
 50
101.4893442975
 51
102.2715433064
  0
ARC
  5
360
100
AcDbEntity
  8
0
100
AcDbCircle
 62
7
  6
BYLAYER
 10
12.3066552568
 20
22.2820595884
 40
1.8956125152
100
AcDbArc
 50
129.0057421514
 51
130.4718448655
  0
ARC
  5
361
100
AcDbEntity
  8
0
100
AcDbCircle
 62
7
  6
BYLAYER
 10
12.2917167189
 20
22.2761581642
 40
1.894471934
100
AcDbArc
 50
100.2911075799
 51
101.4894617456
  0
ARC
  5
362
100
AcDbEntity
  8
0
100
AcDbCircle
 62
7
  6
BYLAYER
 10
12.3140204197
 20
22.2910776267
 40
1.89433167
100
AcDbArc
 50
139.4806266868
 51
140.2560136736
  0
ARC
  5
363
100
AcDbEntity
  8
0
100
AcDbCircle
 62
7
  6
BYLAYER
 10
12.2941731399
 20
22.2863217588
 40
1.885837313
100
AcDbArc
 50
120.5010923503
 51
120.8059809832
  0
ARC
  5
364
100
AcDbEntity
  8
0
100
AcDbCircle
 62
7
  6
BYLAYER
 10
12.2912010196
 20
22.2884289543
 40
1.8825405571
100
AcDbArc
 50
99.3958451144
 51
101.8644753201
  0
ARC
  5
365
100
AcDbEntity
  8
0
100
AcDbCircle
 62
7
  6
BYLAYER
 10
12.291859604
 20
22.2901653307
 40
1.8813512074
100
AcDbArc
 50
120.805411704
 51
122.5489479478
  0
ARC
  5
366
100
AcDbEntity
  8
0
100
AcDbCircle
 62
7
  6
BYLAYER
 10
12.2929000885
 20
22.311968995
 40
1.8647043043
100
AcDbArc
 50
124.4646033176
 51
139.5469757521
  0
ARC
  5
367
100
AcDbEntity
  8
0
100
AcDbCircle
 62
7
  6
BYLAYER
 10
12.2996752141
 20
22.2963543026
 40
1.8183848875
100
AcDbArc
 50
319.7467282359
 51
323.6137951208
  0
ARC
  5
368
100
AcDbEntity
  8
0
100
AcDbCircle
 62
7
  6
BYLAYER
 10
12.3441946247
 20
22.364802223
 40
3.1255004879
100
AcDbArc
 50
209.3850731702
 51
210.2994782619
  0
ARC
  5
369
100
AcDbEntity
  8
0
100
AcDbCircle
 62
7
  6
BYLAYER
 10
12.3481640272
 20
22.3250449826
 40
3.1160423922
100
AcDbArc
 50
176.5518732678
 51
177.3959678784
  0
ARC
  5
36A
100
AcDbEntity
  8
0
100
AcDbCircle
 62
7
  6
BYLAYER
 10
12.3380733946
 20
22.3256834611
 40
3.105931626
100
AcDbArc
 50
174.7095430581
 51
176.5524344883
  0
ARC
  5
36B
100
AcDbEntity
  8
0
100
AcDbCircle
 62
7
  6
BYLAYER
 10
12.3381761189
 20
22.3593756589
 40
2.9796562139
100
AcDbArc
 50
24.4698642044
 51
26.4783440423
  0
ARC
  5
36C
100
AcDbEntity
  8
0
100
AcDbCircle
 62
7
  6
BYLAYER
 10
12.3613526113
 20
22.3708447713
 40
2.9537972551
100
AcDbArc
 50
26.4796518782
 51
27.6077628727
  0
ARC
  5
36D
100
AcDbEntity
  8
0
100
AcDbCircle
 62
7
  6
BYLAYER
 10
12.370780714
 20
22.3532600453
 40
2.9528498801
100
AcDbArc
 50
23.622950694
 51
24.6799905057
  0
ARC
  5
36E
100
AcDbEntity
  8
0
100
AcDbCircle
 62
7
  6
BYLAYER
 10
12.3821264475
 20
22.3582487604
 40
2.940455835
100
AcDbArc
 50
23.2324931835
 51
23.6224780858
  0
ARC
  5
36F
100
AcDbEntity
  8
0
100
AcDbCircle
 62
7
  6
BYLAYER
 10
12.3989392313
 20
22.3653897826
 40
2.9221895009
100
AcDbArc
 50
21.4975324949
 51
23.2338667308
  0
ARC
  5
370
100
AcDbEntity
  8
0
100
AcDbCircle
 62
7
  6
BYLAYER
 10
12.4042426025
 20
22.3677499786
 40
2.9163901583
100
AcDbArc
 50
18.6827163312
 51
21.4925713454
  0
ARC
  5
371
100
AcDbEntity
  8
0
100
AcDbCircle
 62
7
  6
BYLAYER
 10
12.4084450981
 20
22.3605348004
 40
2.9147414223
100
AcDbArc
 50
15.3124017718
 51
16.6881623763
  0
ARC
  5
372
100
AcDbEntity
  8
0
100
AcDbCircle
 62
7
  6
BYLAYER
 10
12.3205018509
 20
22.4535341009
 40
2.9109297399
100
AcDbArc
 50
72.7090995454
 51
74.4122653843
  0
ARC
  5
373
100
AcDbEntity
  8
0
100
AcDbCircle
 62
7
  6
BYLAYER
 10
12.3880140935
 20
22.4169942858
 40
2.9047053491
100
AcDbArc
 50
40.6747979968
 51
42.4937919387
  0
ARC
  5
374
100
AcDbEntity
  8
0
100
AcDbCircle
 62
7
  6
BYLAYER
 10
12.4226056452
 20
22.3647271009
 40
2.8999734197
100
AcDbArc
 50
16.6891631108
 51
17.4676196666
  0
ARC
  5
375
100
AcDbEntity
  8
0
100
AcDbCircle
 62
7
  6
BYLAYER
 10
12.2978545295
 20
22.3730502474
 40
1.9035933082
100
AcDbArc
 50
247.1031705882
 51
254.234588753
  0
ARC
  5
376
100
AcDbEntity
  8
0
100
AcDbCircle
 62
7
  6
BYLAYER
 10
12.3073615827
 20
22.3662736926
 40
1.9017102064
100
AcDbArc
 50
237.4165161802
 51
238.8743840744
  0
ARC
  5
377
100
AcDbEntity
  8
0
100
AcDbCircle
 62
7
  6
BYLAYER
 10
12.3221180092
 20
22.3526790817
 40
1.9016792813
100
AcDbArc
 50
212.5995887836
 51
219.2102219038
  0
ARC
  5
378
100
AcDbEntity
  8
0
100
AcDbCircle
 62
7
  6
BYLAYER
 10
12.3179517524
 20
22.357698753
 40
1.9016221903
100
AcDbArc
 50
219.4704841096
 51
223.308364394
  0
ARC
  5
379
100
AcDbEntity
  8
0
100
AcDbCircle
 62
7
  6
BYLAYER
 10
12.3087565208
 20
22.3640595637
 40
1.9006147594
100
AcDbArc
 50
234.3955650963
 51
238.1853350452
  0
ARC
  5
37A
100
AcDbEntity
  8
0
100
AcDbCircle
 62
7
  6
BYLAYER
 10
12.3065522756
 20
22.3650202027
 40
1.9002181717
100
AcDbArc
 50
235.0650065866
 51
237.4167239019
  0
ARC
  5
37B
100
AcDbEntity
  8
0
100
AcDbCircle
 62
7
  6
BYLAYER
 10
12.3066423291
 20
22.3630448709
 40
1.8985962043
100
AcDbArc
 50
239.5258666775
 51
240.4191873687
  0
ARC
  5
37C
100
AcDbEntity
  8
0
100
AcDbCircle
 62
7
  6
BYLAYER
 10
12.3076585973
 20
22.3622981664
 40
1.8985392024
100
AcDbArc
 50
238.1854680546
 51
238.9546040919
  0
ARC
  5
37D
100
AcDbEntity
  8
0
100
AcDbCircle
 62
7
  6
BYLAYER
 10
12.3239581214
 20
22.3292948591
 40
1.8939190791
100
AcDbArc
 50
192.1229881579
 51
196.6518528337
  0
ARC
  5
37E
100
AcDbEntity
  8
0
100
AcDbCircle
 62
7
  6
BYLAYER
 10
12.3223457487
 20
22.3315984493
 40
1.8926618975
100
AcDbArc
 50
198.8965972374
 51
200.4221221852
  0
ARC
  5
37F
100
AcDbEntity
  8
0
100
AcDbCircle
 62
7
  6
BYLAYER
 10
12.3176366327
 20
22.3405311742
 40
1.8915707745
100
AcDbArc
 50
201.8706215238
 51
203.2580522108
  0
ARC
  5
380
100
AcDbEntity
  8
0
100
AcDbCircle
 62
7
  6
BYLAYER
 10
12.3126820086
 20
22.3385479914
 40
1.8862339883
100
AcDbArc
 50
200.2240359504
 51
201.8707797499
  0
ARC
  5
381
100
AcDbEntity
  8
0
100
AcDbCircle
 62
7
  6
BYLAYER
 10
12.3156303211
 20
22.3227223094
 40
1.8848062961
100
AcDbArc
 50
174.3389854129
 51
176.3232402113
  0
ARC
  5
382
100
AcDbEntity
  8
0
100
AcDbCircle
 62
7
  6
BYLAYER
 10
12.3154973359
 20
22.3245996739
 40
1.884611016
100
AcDbArc
 50
176.3761694247
 51
178.0176052269
  0
SPLINE
  5
383
100
AcDbEntity
  8
0
100
AcDbSpline
 62
7
  6
BYLAYER
 70
0
 71
3
 72
27
 73
23
 74
0
 42
0.0000001
 43
0.0000001
 44
0.0000000001
 40
0.0
 40
0.0
 40
0.0
 40
0.0
 40
0.0625392839
 40
0.1249898936
 40
0.1562213781
 40
0.1874663949
 40
0.2499756009
 40
0.3125301252
 40
0.3750286091
 40
0.4062690474
 40
0.4375007551
 40
0.4999623778
 40
0.5625058735
 40
0.6250428751
 40
0.6874925371
 40
0.718723002
 40
0.7499664833
 40
0.8124730011
 40
0.8750271242
 40
0.937527244
 40
0.9687683891
 40
1.0
 40
1.0
 40
1.0
 40
1.0
 10
9.2345803048
 20
22.1928861423
 30
0.0
 10
9.2414270225
 20
22.0283250331
 30
0.0
 10
9.2811186494
 20
21.6999610054
 30
0.0
 10
9.3956986554
 20
21.3027925398
 30
0.0
 10
9.5261483386
 20
21.0003611319
 30
0.0
 10
9.6814788443
 20
20.7097860118
 30
0.0
 10
9.9194203229
 20
20.3714975632
 30
0.0
 10
10.2650772553
 20
20.0159050809
 30
0.0
 10
10.5965438045
 20
19.7685953135
 30
0.0
 10
10.8827260389
 20
19.6053753115
 30
0.0
 10
11.1815617255
 20
19.4668708293
 30
0.0
 10
11.575483752
 20
19.3412737987
 30
0.0
 10
12.0659324043
 20
19.2677592535
 30
0.0
 10
12.5618130122
 20
19.2721515995
 30
0.0
 10
12.969338323
 20
19.3417857086
 30
0.0
 10
13.2844151833
 20
19.4376781522
 30
0.0
 10
13.5904845228
 20
19.5596455984
 30
0.0
 10
13.9531651024
 20
19.7584139151
 30
0.0
 10
14.3450427697
 20
20.0623003671
 30
0.0
 10
14.6277775276
 20
20.3641420646
 30
0.0
 10
14.8219033427
 20
20.6302943866
 30
0.0
 10
14.9074696845
 20
20.7711047067
 30
0.0
 10
14.9471865204
 20
20.8431317541
 30
0.0
  0
SPLINE
  5
384
100
AcDbEntity
  8
0
100
AcDbSpline
 62
7
  6
BYLAYER
 70
0
 71
3
 72
25
 73
21
 74
0
 42
0.0000001
 43
0.0000001
 44
0.0000000001
 40
0.0
 40
0.0
 40
0.0
 40
0.0
 40
0.062519666
 40
0.1250724327
 40
0.1875525475
 40
0.21878932
 40
0.2500290667
 40
0.3125210232
 40
0.3750764345
 40
0.4375867424
 40
0.4688334025
 40
0.5000679419
 40
0.5625290892
 40
0.6250771453
 40
0.6876123782
 40
0.7500452031
 40
0.8124487658
 40
0.8749423885
 40
0.9374850136
 40
1.0
 40
1.0
 40
1.0
 40
1.0
 10
13.0551264052
 20
20.6420567612
 30
0.0
 10
13.1496141486
 20
20.6861425474
 30
0.0
 10
13.3315136338
 20
20.7905670778
 30
0.0
 10
13.5745415571
 20
20.9895426468
 30
0.0
 10
13.7470427127
 20
21.1867286979
 30
0.0
 10
13.8629526536
 20
21.3601980741
 30
0.0
 10
13.9630963074
 20
21.5432436861
 30
0.0
 10
14.0582877477
 20
21.7873362376
 30
0.0
 10
14.1225870333
 20
22.0948239959
 30
0.0
 10
14.1333197856
 20
22.3566262483
 30
0.0
 10
14.1152736906
 20
22.5645249422
 30
0.0
 10
14.0791047937
 20
22.7699767062
 30
0.0
 10
14.0002563684
 20
23.0197884566
 30
0.0
 10
13.8572446403
 20
23.2995060122
 30
0.0
 10
13.670363262
 20
23.5520255513
 30
0.0
 10
13.4440642749
 20
23.7697841166
 30
0.0
 10
13.1830504848
 20
23.9443443932
 30
0.0
 10
12.896307544
 20
24.0724406058
 30
0.0
 10
12.5923567383
 20
24.1517699336
 30
0.0
 10
12.3834321715
 20
24.1703484151
 30
0.0
 10
12.2791738148
 20
24.1705889216
 30
0.0
  0
SPLINE
  5
385
100
AcDbEntity
  8
0
100
AcDbSpline
 62
7
  6
BYLAYER
 70
0
 71
3
 72
23
 73
19
 74
0
 42
0.0000001
 43
0.0000001
 44
0.0000000001
 40
0.0
 40
0.0
 40
0.0
 40
0.0
 40
0.0624610488
 40
0.1249959172
 40
0.1875617428
 40
0.2500904877
 40
0.3125444953
 40
0.3749708329
 40
0.4374612417
 40
0.5000172938
 40
0.5625780855
 40
0.6250761374
 40
0.6874931568
 40
0.749906336
 40
0.812389721
 40
0.8749312155
 40
0.9374798467
 40
1.0
 40
1.0
 40
1.0
 40
1.0
 10
14.9471865204
 20
20.8431317541
 30
0.0
 10
15.0107869095
 20
20.9584719655
 30
0.0
 10
15.1227495584
 20
21.198085564
 30
0.0
 10
15.2429688648
 20
21.5759527985
 30
0.0
 10
15.3145565106
 20
21.966170815
 30
0.0
 10
15.3361929716
 20
22.3621321681
 30
0.0
 10
15.3066902748
 20
22.7573887602
 30
0.0
 10
15.2241840466
 20
23.1450217614
 30
0.0
 10
15.0911937388
 20
23.5184870063
 30
0.0
 10
14.9116337947
 20
23.8721878086
 30
0.0
 10
14.6889293496
 20
24.200457881
 30
0.0
 10
14.4265567857
 20
24.4976292936
 30
0.0
 10
14.1278126093
 20
24.7578918409
 30
0.0
 10
13.7966584224
 20
24.9753522188
 30
0.0
 10
13.4399601118
 20
25.1481061045
 30
0.0
 10
13.0639526345
 20
25.2742871567
 30
0.0
 10
12.6750085769
 20
25.3519897862
 30
0.0
 10
12.4110081809
 20
25.3701385008
 30
0.0
 10
12.2791707012
 20
25.3704555249
 30
0.0
  0
SPLINE
  5
386
100
AcDbEntity
  8
0
100
AcDbSpline
 62
7
  6
BYLAYER
 70
0
 71
3
 72
12
 73
8
 74
0
 42
0.0000001
 43
0.0000001
 44
0.0000000001
 40
0.0
 40
0.0
 40
0.0
 40
0.0
 40
0.2502536716
 40
0.5001769892
 40
0.6251086554
 40
0.7500459081
 40
1.0
 40
1.0
 40
1.0
 40
1.0
 10
14.8875843974
 20
23.896012794
 30
0.0
 10
14.8198492419
 20
24.0085949247
 30
0.0
 10
14.6701304829
 20
24.2253223169
 30
0.0
 10
14.4498903831
 20
24.4699531973
 30
0.0
 10
14.2556241579
 20
24.6466259503
 30
0.0
 10
14.049836332
 20
24.8096921251
 30
0.0
 10
13.8835685897
 20
24.9163923734
 30
0.0
 10
13.7688170623
 20
24.9800600136
 30
0.0
  0
SPLINE
  5
387
100
AcDbEntity
  8
0
100
AcDbSpline
 62
7
  6
BYLAYER
 70
0
 71
3
 72
19
 73
15
 74
0
 42
0.0000001
 43
0.0000001
 44
0.0000000001
 40
0.0
 40
0.0
 40
0.0
 40
0.0
 40
0.2124793151
 40
0.4051972386
 40
0.5744581708
 40
0.7181064636
 40
0.7795702547
 40
0.8334233262
 40
0.8791273331
 40
0.9164527589
 40
0.945830174
 40
0.9681346105
 40
0.9850701751
 40
1.0
 40
1.0
 40
1.0
 40
1.0
 10
12.2754371584
 20
24.4538853125
 30
0.0
 10
12.2778489851
 20
24.4335326436
 30
0.0
 10
12.28201689
 20
24.3946619656
 30
0.0
 10
12.285428482
 20
24.3393339499
 30
0.0
 10
12.2844617703
 20
24.2904586665
 30
0.0
 10
12.2791395758
 20
24.2546761927
 30
0.0
 10
12.2743734604
 20
24.2301590468
 30
0.0
 10
12.2713765722
 20
24.2149200789
 30
0.0
 10
12.2692383382
 20
24.2018822205
 30
0.0
 10
12.2685225702
 20
24.191038785
 30
0.0
 10
12.2691898146
 20
24.1824360546
 30
0.0
 10
12.2710755673
 20
24.1760257632
 30
0.0
 10
12.2743283181
 20
24.171671562
 30
0.0
 10
12.2774506911
 20
24.1706275057
 30
0.0
 10
12.2788898504
 20
24.170575933
 30
0.0
  0
SPLINE
  5
388
100
AcDbEntity
  8
0
100
AcDbSpline
 62
7
  6
BYLAYER
 70
0
 71
3
 72
28
 73
24
 74
0
 42
0.0000001
 43
0.0000001
 44
0.0000000001
 40
0.0
 40
0.0
 40
0.0
 40
0.0
 40
0.0083500534
 40
0.0117089226
 40
0.014919645
 40
0.0222087045
 40
0.0321906569
 40
0.0452615342
 40
0.0611343689
 40
0.0794503817
 40
0.1000256409
 40
0.1229020391
 40
0.1480904812
 40
0.2052304713
 40
0.2706233446
 40
0.3428955416
 40
0.4206440286
 40
0.5025076684
 40
0.5871542508
 40
0.6731724858
 40
0.7589911875
 40
0.8430538922
 40
1.0
 40
1.0
 40
1.0
 40
1.0
 10
12.2791688318
 20
25.370455529
 30
0.0
 10
12.2765885848
 20
25.3704620864
 30
0.0
 10
12.2728360661
 20
25.370084228
 30
0.0
 10
12.2688076592
 20
25.3676936115
 30
0.0
 10
12.2660311973
 20
25.3643104277
 30
0.0
 10
12.2649019114
 20
25.3577613454
 30
0.0
 10
12.2665318688
 20
25.3485102238
 30
0.0
 10
12.2696610243
 20
25.336890694
 30
0.0
 10
12.2735376854
 20
25.3228122699
 30
0.0
 10
12.2771147733
 20
25.3062515295
 30
0.0
 10
12.2793988042
 20
25.2872798374
 30
0.0
 10
12.2806815532
 20
25.2661020267
 30
0.0
 10
12.2814109289
 20
25.2335962578
 30
0.0
 10
12.2811702011
 20
25.1879462465
 30
0.0
 10
12.2806235534
 20
25.1277527313
 30
0.0
 10
12.2795265591
 20
25.0611957208
 30
0.0
 10
12.2780377243
 20
24.9895569827
 30
0.0
 10
12.2770186808
 20
24.9140823915
 30
0.0
 10
12.2776242485
 20
24.8360438787
 30
0.0
 10
12.2796778684
 20
24.7568143051
 30
0.0
 10
12.2814332699
 20
24.6777548215
 30
0.0
 10
12.2810915676
 20
24.5767490634
 30
0.0
 10
12.2780196613
 20
24.5023145215
 30
0.0
 10
12.2754371584
 20
24.4538853125
 30
0.0
  0
SPLINE
  5
389
100
AcDbEntity
  8
0
100
AcDbSpline
 62
7
  6
BYLAYER
 70
0
 71
3
 72
36
 73
32
 74
0
 42
0.0000001
 43
0.0000001
 44
0.0000000001
 40
0.0
 40
0.0
 40
0.0
 40
0.0
 40
0.0001699123
 40
0.0006427806
 40
0.0014143717
 40
0.0024804303
 40
0.0038367079
 40
0.0054789659
 40
0.0096045168
 40
0.0148234098
 40
0.0211007686
 40
0.0283815012
 40
0.0365952094
 40
0.0555392377
 40
0.0773710494
 40
0.1015845129
 40
0.1278338368
 40
0.1558066184
 40
0.1851956218
 40
0.2473105091
 40
0.3129290802
 40
0.3811301449
 40
0.451439464
 40
0.5235518858
 40
0.5601589501
 40
0.5971555032
 40
0.6725995397
 40
0.7504153743
 40
0.8310143625
 40
0.9145668463
 40
1.0
 40
1.0
 40
1.0
 40
1.0
 10
10.4181238742
 20
22.4353485261
 30
0.0
 10
10.4180909556
 20
22.4355177248
 30
0.0
 10
10.4182466748
 20
22.4361742596
 30
0.0
 10
10.4183053312
 20
22.437594935
 30
0.0
 10
10.4186093507
 20
22.4399286536
 30
0.0
 10
10.4189565937
 20
22.4431461991
 30
0.0
 10
10.4194515831
 20
22.4472413901
 30
0.0
 10
10.4203307949
 20
22.4544141619
 30
0.0
 10
10.4217655527
 20
22.4654677595
 30
0.0
 10
10.4239221088
 20
22.4811681528
 30
0.0
 10
10.4266641077
 20
22.5000187684
 30
0.0
 10
10.4300119777
 20
22.52185064
 30
0.0
 10
10.4355757556
 20
22.5563419438
 30
0.0
 10
10.4440995178
 20
22.6053065358
 30
0.0
 10
10.4565251623
 20
22.6700585565
 30
0.0
 10
10.4717325629
 20
22.7418103005
 30
0.0
 10
10.4897648811
 20
22.8193162104
 30
0.0
 10
10.5107098883
 20
22.9015180206
 30
0.0
 10
10.5432757143
 20
23.0182756147
 30
0.0
 10
10.5918237941
 20
23.1701819021
 30
0.0
 10
10.66292514
 20
23.3559238775
 30
0.0
 10
10.7496573587
 20
23.5441864022
 30
0.0
 10
10.8548887522
 20
23.7304384644
 30
0.0
 10
10.9597035933
 20
23.8793447585
 30
0.0
 10
11.057019528
 20
23.9908052332
 30
0.0
 10
11.165489786
 20
24.0963771215
 30
0.0
 10
11.3211562931
 20
24.2122275912
 30
0.0
 10
11.5332902876
 20
24.3207509634
 30
0.0
 10
11.7675857904
 20
24.3969134167
 30
0.0
 10
12.0171815926
 20
24.4428584756
 30
0.0
 10
12.1887551115
 20
24.4537465662
 30
0.0
 10
12.2754244153
 20
24.4539381725
 30
0.0
  0
ENDSEC
  0
SECTION
  2
OBJECTS
  0
DICTIONARY
  5
C
100
AcDbDictionary
280
0
281
1
  3
ACAD_GROUP
350
D
  3
ACAD_MLINESTYLE
350
17
  3
ACAD_LAYOUT
350
1A
  3
ACAD_PLOTSETTINGS
350
19
  3
ACAD_PLOTSTYLENAME
350
E
  0
DICTIONARY
  5
D
102
{ACAD_REACTORS
330
C
102
}
100
AcDbDictionary
280
0
281
1
  0
ACDBDICTIONARYWDFLT
  5
E
102
{ACAD_REACTORS
330
C
102
}
100
AcDbDictionary
281
1
  3
Normal
350
F
100
AcDbDictionaryWithDefault
340
F
  0
DICTIONARY
  5
17
102
{ACAD_REACTORS
330
C
102
}
100
AcDbDictionary
280
0
281
1
  3
Standard
350
18
  0
DICTIONARY
  5
19
102
{ACAD_REACTORS
330
C
102
}
100
AcDbDictionary
281
1
  0
DICTIONARY
  5
1A
102
{ACAD_REACTORS
330
C
102
}
100
AcDbDictionary
281
1
  3
Model
350
38A
  3
Layout1
350
38B
  0
ACDBPLACEHOLDER
  5
F
102
{ACAD_REACTORS
330
E
102
}
  0
MLINESTYLE
  5
18
102
{ACAD_REACTORS
330
17
102
}
100
AcDbMlineStyle
  2
STANDARD
 70
0
  3

 62
256
 51
90.0
 52
90.0
 71
2
 49
0.5
 62
256
  6
BYLAYER
 49
-0.5
 62
256
  6
BYLAYER
  0
LAYOUT
  5
38A
102
{ACAD_REACTORS
330
1A
102
}
100
AcDbPlotSettings
  1

  2
none_device
  4

  6

 40
0.0
 41
0.0
 42
0.0
 43
0.0
 44
210.0
 45
297.0
 46
0.0
 47
0.0
 48
0.0
 49
0.0
140
0.0
141
0.0
142
1.0
143
1.0
 70
1024
 72
1
 73
0
 74
0
  7

 75
0
147
1.0
148
0.0
149
0.0
100
AcDbLayout
  1
Model
 70
0
 71
0
 10
0.0
 20
0.0
 11
210.0
 21
297.0
 12
0.0
 22
0.0
 32
0.0
 14
0.0
 24
0.0
 34
0.0
 15
0.0
 25
0.0
 35
0.0
146
0.0
 13
0.0
 23
0.0
 33
0.0
 16
1.0
 26
0.0
 36
0.0
 17
0.0
 27
1.0
 37
0.0
 76
0
330
210
345
0
346
0
  0
LAYOUT
  5
38B
102
{ACAD_REACTORS
330
1A
102
}
100
AcDbPlotSettings
  1

  2
none_device
  4

  6

 40
0.0
 41
0.0
 42
0.0
 43
0.0
 44
210.0
 45
297.0
 46
0.0
 47
0.0
 48
0.0
 49
0.0
140
0.0
141
0.0
142
1.0
143
1.0
 70
0
 72
1
 73
0
 74
0
  7

 75
0
147
1.0
148
0.0
149
0.0
100
AcDbLayout
  1
Layout1
 70
0
 71
1
 10
0.0
 20
0.0
 11
210.0
 21
297.0
 12
0.0
 22
0.0
 32
0.0
 14
0.0
 24
0.0
 34
0.0
 15
0.0
 25
0.0
 35
0.0
146
0.0
 13
0.0
 23
0.0
 33
0.0
 16
1.0
 26
0.0
 36
0.0
 17
0.0
 27
1.0
 37
0.0
 76
0
330
211
345
0
346
0
  0
ENDSEC
  0
EOF
