999
DXF file: C:\Users\sesa63760\Dev\_Creo\CAD\MCADID0004480_3D-CAD\drw0001_1.dxf
999
Pro/ENGINEER 2019471 by Parametric Technology Corporation
  0
SECTION
  2
HEADER
  9
$ACADVER
  1
AC1024
  9
$DWGCODEPAGE
  3
ANSI_1252
  9
$EXTMAX
 10
72.1235085711
 20
102.0032478363
 30
0.0
  9
$EXTMIN
 10
0.0
 20
0.0
 30
0.0
  9
$LIMMIN
 10
0.0
 20
0.0
  9
$LIMMAX
 10
72.1235085711
 20
102.0032478363
  9
$VIEWCTR
 10
36.0617542856
 20
51.0016239182
  9
$VIEWSIZE
 40
102.0032478363
  9
$CLAYER
  8
0
  9
$LTSCALE
 40
6.6491005997
  9
$CELTYPE
  6
BYLAYER
  9
$DIMSCALE
 40
1.0
  9
$DIMASZ
 40
0.8586131973
  9
$DIMEXO
 40
1.0
  9
$DIMDLI
 40
4.5939240507
  9
$DIMEXE
 40
1.0
  9
$DIMCEN
 40
1.0880346436
  9
$DIMLFAC
 40
1.0
  9
$DIMBLK
  1
_FILLED
  9
$DIMALT
 70
0
  9
$DIMALTF
 40
0.0393700787
  9
$DIMTXT
 40
1.2020584762
  9
$DIMTOL
 70
1
  9
$DIMLIM
 70
0
  9
$DIMTFAC
 40
1.0
  9
$DIMTP
 40
0.01
  9
$DIMTM
 40
0.01
  9
$DIMGAP
 40
0.625
  9
$DIMDSEP
 70
46
  9
$AUNITS
 70
0
  9
$PDMODE
 70
3
  9
$PDSIZE
 40
0.3125
  9
$HANDSEED
  5
2B5
  9
$TILEMODE
 70
1
  9
$MEASUREMENT
 70
1
  9
$INSUNITS
 70
4
  0
ENDSEC
  0
SECTION
  2
CLASSES
  0
CLASS
  1
ACDBDICTIONARYWDFLT
  2
AcDbDictionaryWithDefault
  3
AutoCAD 2000
 90
0
 91
1
280
0
281
0
  0
CLASS
  1
ACDBPLACEHOLDER
  2
AcDbPlaceHolder
  3
AutoCAD 2000
 90
0
 91
1
280
0
281
0
  0
CLASS
  1
LAYOUT
  2
AcDbLayout
  3
AutoCAD 2000
 90
0
 91
0
280
0
281
0
  0
ENDSEC
  0
SECTION
  2
TABLES
  0
TABLE
  2
VPORT
  5
8
100
AcDbSymbolTable
 70
2
  0
VPORT
  5
1F4
100
AcDbSymbolTableRecord
100
AcDbViewportTableRecord
  2
*ACTIVE
 70
0
 10
0.0
 20
0.0
 11
1.0
 21
1.0
 12
36.0617542856
 22
51.0016239182
 13
0.0
 23
0.0
 14
1.0
 24
1.0
 15
0.0
 25
0.0
 16
0.0
 26
0.0
 36
1.0
 17
0.0
 27
0.0
 37
0.0
 40
102.0032478363
 41
0.7070707071
 42
50.0
 43
0.0
 44
0.0
 50
0.0
 51
0.0
 71
0
 72
100
 73
1
 74
1
 75
0
 76
0
 77
0
 78
0
  0
ENDTAB
  0
TABLE
  2
LTYPE
  5
5
100
AcDbSymbolTable
 70
6
  0
LTYPE
  5
14
100
AcDbSymbolTableRecord
100
AcDbLinetypeTableRecord
  2
BYBLOCK
 70
0
  3

 72
65
 73
0
 40
0.0
  0
LTYPE
  5
15
100
AcDbSymbolTableRecord
100
AcDbLinetypeTableRecord
  2
BYLAYER
 70
0
  3

 72
65
 73
0
 40
0.0
  0
LTYPE
  5
16
100
AcDbSymbolTableRecord
100
AcDbLinetypeTableRecord
  2
CONTINUOUS
 70
64
  3
Solid line
 72
65
 73
0
 40
0.0
  0
LTYPE
  5
1F5
100
AcDbSymbolTableRecord
100
AcDbLinetypeTableRecord
  2
CENTER
 70
64
  3
____ _ ____ _ ____ _ ____ _ ____ _ ____ _ ____
 72
65
 73
4
 40
0.6
 49
0.375
 74
0
 49
-0.075
 74
0
 49
0.075
 74
0
 49
-0.075
 74
0
  0
LTYPE
  5
1F6
100
AcDbSymbolTableRecord
100
AcDbLinetypeTableRecord
  2
HIDDEN
 70
64
  3
- - - - - - - - - - - - - - - - - - - -
 72
65
 73
2
 40
0.2
 49
0.1
 74
0
 49
-0.1
 74
0
  0
LTYPE
  5
1F7
100
AcDbSymbolTableRecord
100
AcDbLinetypeTableRecord
  2
PHANTOM
 70
64
  3
_____ _ _ _____ _ _ _____ _ _ _____
 72
65
 73
6
 40
0.8
 49
0.45
 74
0
 49
-0.05
 74
0
 49
0.1
 74
0
 49
-0.05
 74
0
 49
0.1
 74
0
 49
-0.05
 74
0
  0
LTYPE
  5
1F8
100
AcDbSymbolTableRecord
100
AcDbLinetypeTableRecord
  2
DOT
 70
64
  3
. . . . . . . . . . . . . . . . . . . .
 72
65
 73
2
 40
0.2
 49
0.1
 74
0
 49
-0.1
 74
0
  0
LTYPE
  5
1F9
100
AcDbSymbolTableRecord
100
AcDbLinetypeTableRecord
  2
DASHED
 70
64
  3
- - - - - - - - - - - - - - - - - - - -
 72
65
 73
2
 40
0.2
 49
0.1
 74
0
 49
-0.1
 74
0
  0
ENDTAB
  0
TABLE
  2
LAYER
  5
2
100
AcDbSymbolTable
 70
36
  0
LAYER
  5
10
100
AcDbSymbolTableRecord
100
AcDbLayerTableRecord
  2
0
 70
0
 62
7
  6
CONTINUOUS
370
-3
390
F
  0
LAYER
  5
1FA
100
AcDbSymbolTableRecord
100
AcDbLayerTableRecord
  2
DEFAULT_1
 70
0
 62
7
  6
CENTER
370
-3
390
F
  0
LAYER
  5
1FB
100
AcDbSymbolTableRecord
100
AcDbLayerTableRecord
  2
DEFAULT_2
 70
0
 62
7
  6
HIDDEN
370
-3
390
F
  0
LAYER
  5
1FC
100
AcDbSymbolTableRecord
100
AcDbLayerTableRecord
  2
DEFAULT_3
 70
0
 62
7
  6
PHANTOM
370
-3
390
F
  0
LAYER
  5
1FD
100
AcDbSymbolTableRecord
100
AcDbLayerTableRecord
  2
00_COMPONENTS
 70
0
 62
7
  6
CONTINUOUS
370
-3
390
F
  0
LAYER
  5
1FE
100
AcDbSymbolTableRecord
100
AcDbLayerTableRecord
  2
01_1_DEFAULT_DATUMS
 70
0
 62
7
  6
CONTINUOUS
370
-3
390
F
  0
LAYER
  5
1FF
100
AcDbSymbolTableRecord
100
AcDbLayerTableRecord
  2
01_PLANES
 70
0
 62
7
  6
CONTINUOUS
370
-3
390
F
  0
LAYER
  5
200
100
AcDbSymbolTableRecord
100
AcDbLayerTableRecord
  2
02_COORD_SYS
 70
0
 62
7
  6
CONTINUOUS
370
-3
390
F
  0
LAYER
  5
201
100
AcDbSymbolTableRecord
100
AcDbLayerTableRecord
  2
03_AXES
 70
0
 62
7
  6
CONTINUOUS
370
-3
390
F
  0
LAYER
  5
202
100
AcDbSymbolTableRecord
100
AcDbLayerTableRecord
  2
04_POINTS
 70
0
 62
7
  6
CONTINUOUS
370
-3
390
F
  0
LAYER
  5
203
100
AcDbSymbolTableRecord
100
AcDbLayerTableRecord
  2
05_CURVES
 70
0
 62
7
  6
CONTINUOUS
370
-3
390
F
  0
LAYER
  5
204
100
AcDbSymbolTableRecord
100
AcDbLayerTableRecord
  2
06_SURFS
 70
0
 62
7
  6
CONTINUOUS
370
-3
390
F
  0
LAYER
  5
205
100
AcDbSymbolTableRecord
100
AcDbLayerTableRecord
  2
07_COSMETICS
 70
0
 62
7
  6
CONTINUOUS
370
-3
390
F
  0
LAYER
  5
206
100
AcDbSymbolTableRecord
100
AcDbLayerTableRecord
  2
10_NOTES
 70
0
 62
7
  6
CONTINUOUS
370
-3
390
F
  0
LAYER
  5
207
100
AcDbSymbolTableRecord
100
AcDbLayerTableRecord
  2
11_NOTES_PUB
 70
0
 62
7
  6
CONTINUOUS
370
-3
390
F
  0
LAYER
  5
208
100
AcDbSymbolTableRecord
100
AcDbLayerTableRecord
  2
13_REF_GTOL
 70
0
 62
7
  6
CONTINUOUS
370
-3
390
F
  0
LAYER
  5
209
100
AcDbSymbolTableRecord
100
AcDbLayerTableRecord
  2
16_MISC
 70
0
 62
7
  6
CONTINUOUS
370
-3
390
F
  0
LAYER
  5
20A
100
AcDbSymbolTableRecord
100
AcDbLayerTableRecord
  2
17_NO_PRINT
 70
0
 62
7
  6
CONTINUOUS
370
-3
390
F
  0
LAYER
  5
20B
100
AcDbSymbolTableRecord
100
AcDbLayerTableRecord
  2
18_DATUM_CAMS_JOINTS
 70
0
 62
7
  6
CONTINUOUS
370
-3
390
F
  0
LAYER
  5
20C
100
AcDbSymbolTableRecord
100
AcDbLayerTableRecord
  2
19_DATUM_FUNCTIONAL
 70
0
 62
7
  6
CONTINUOUS
370
-3
390
F
  0
LAYER
  5
20D
100
AcDbSymbolTableRecord
100
AcDbLayerTableRecord
  2
20_DATUM_KINEMATIC_SCHEME
 70
0
 62
7
  6
CONTINUOUS
370
-3
390
F
  0
ENDTAB
  0
TABLE
  2
STYLE
  5
3
100
AcDbSymbolTable
 70
1
  0
STYLE
  5
11
100
AcDbSymbolTableRecord
100
AcDbTextStyleTableRecord
  2
STANDARD
 70
0
 40
0.0
 41
1.0
 50
0.0
 71
0
 42
0.2
  3
ARIAL.TTF
  4

  0
STYLE
  5
20E
100
AcDbSymbolTableRecord
100
AcDbTextStyleTableRecord
  2
TEXTSTYLE_1
 70
0
 40
0.0
 41
0.8
 50
0.0
 71
0
 42
0.2
  3
gdt
  4

  0
ENDTAB
  0
TABLE
  2
VIEW
  5
6
100
AcDbSymbolTable
 70
0
  0
ENDTAB
  0
TABLE
  2
UCS
  5
7
100
AcDbSymbolTable
 70
0
  0
ENDTAB
  0
TABLE
  2
APPID
  5
9
100
AcDbSymbolTable
 70
1
  0
APPID
  5
20F
100
AcDbSymbolTableRecord
100
AcDbRegAppTableRecord
  2
ACAD
 70
0
  0
ENDTAB
  0
TABLE
  2
BLOCK_RECORD
  5
1
100
AcDbSymbolTable
 70
0
  0
BLOCK_RECORD
  5
210
100
AcDbSymbolTableRecord
100
AcDbBlockTableRecord
  2
*Model_Space
  0
BLOCK_RECORD
  5
211
100
AcDbSymbolTableRecord
100
AcDbBlockTableRecord
  2
*Paper_Space
  0
BLOCK_RECORD
  5
212
100
AcDbSymbolTableRecord
100
AcDbBlockTableRecord
  2
_FILLED
  0
ENDTAB
  0
TABLE
  2
DIMSTYLE
  5
A
100
AcDbSymbolTable
 70
1
100
AcDbDimStyleTable
 71
0
  0
DIMSTYLE
105
213
100
AcDbSymbolTableRecord
100
AcDbDimStyleTableRecord
  2
STANDARD
 70
0
  3

  4

 40
1.0
 41
0.8586131973
 42
1.0
 43
0.38
 44
1.0
 45
0.0
 46
0.0
 47
0.01
 48
0.01
140
1.2020584762
141
0.09
142
0.0
143
25.4
144
1.0
145
0.0
146
1.0
147
0.625
 71
1
 72
0
 73
0
 74
0
 75
0
 76
0
 77
1
 78
8
 79
2
170
0
171
1
172
0
173
0
174
0
175
0
176
0
177
0
178
0
270
2
179
2
271
2
272
2
273
2
274
2
275
0
280
0
281
0
282
0
283
1
284
8
285
0
286
0
287
3
288
0
340
11
278
46
341
212
342
212
343
212
344
212
  0
ENDTAB
  0
ENDSEC
  0
SECTION
  2
BLOCKS
  0
BLOCK
  5
20
100
AcDbEntity
  8
0
100
AcDbBlockBegin
  2
*Model_Space
 70
0
 10
0.0
 20
0.0
 30
0.0
  3
*Model_Space
  1

  0
ENDBLK
  5
21
100
AcDbEntity
  8
0
100
AcDbBlockEnd
  0
BLOCK
  5
1C
100
AcDbEntity
  8
0
100
AcDbBlockBegin
  2
*Paper_Space
 70
0
 10
0.0
 20
0.0
 30
0.0
  3
*Paper_Space
  1

  0
ENDBLK
  5
1D
100
AcDbEntity
  8
0
100
AcDbBlockEnd
  0
BLOCK
  5
214
100
AcDbEntity
  8
0
100
AcDbBlockBegin
  2
_FILLED
 70
64
 10
0.0
 20
0.0
  3
_FILLED
  1

  0
SOLID
  5
215
100
AcDbEntity
  8
0
  6
BYBLOCK
 62
0
100
AcDbTrace
 10
0.0
 20
0.0
 11
-1.0
 21
0.25
 12
-1.0
 22
-0.25
 13
-1.0
 23
-0.25
  0
ENDBLK
  5
216
100
AcDbEntity
  8
0
  6
BYBLOCK
 62
0
100
AcDbBlockEnd
  0
ENDSEC
  0
SECTION
  2
ENTITIES
  0
LINE
  5
217
100
AcDbEntity
  8
0
100
AcDbLine
 62
7
  6
BYLAYER
 10
18.6344716345
 20
77.7918597806
 11
38.4333790765
 21
89.222696089
  0
LINE
  5
218
100
AcDbEntity
  8
0
100
AcDbLine
 62
7
  6
BYLAYER
 10
20.0344653669
 20
77.6531917994
 11
39.8333728089
 21
89.0840281078
  0
LINE
  5
219
100
AcDbEntity
  8
0
100
AcDbLine
 62
7
  6
BYLAYER
 10
21.2308235352
 20
20.3728100785
 11
34.1768904071
 21
12.8985639749
  0
LINE
  5
21A
100
AcDbEntity
  8
0
100
AcDbLine
 62
7
  6
BYLAYER
 10
32.762674406
 20
14.3914684902
 11
21.8166158607
 21
20.7110353702
  0
LINE
  5
21B
100
AcDbEntity
  8
0
100
AcDbLine
 62
7
  6
BYLAYER
 10
8.3671567949
 20
60.1727505469
 11
8.3671567949
 21
54.9950761394
  0
LINE
  5
21C
100
AcDbEntity
  8
0
100
AcDbLine
 62
7
  6
BYLAYER
 10
9.6387183587
 20
62.520805174
 11
16.333746813
 21
66.3861585813
  0
LINE
  5
21D
100
AcDbEntity
  8
0
100
AcDbLine
 62
7
  6
BYLAYER
 10
10.1468677564
 20
62.7313494029
 11
16.8841419837
 21
66.621093273
  0
LINE
  5
21E
100
AcDbEntity
  8
0
100
AcDbLine
 62
7
  6
BYLAYER
 10
16.7095857019
 20
64.7570448505
 11
14.9741685273
 21
63.7551072583
  0
LINE
  5
21F
100
AcDbEntity
  8
0
100
AcDbLine
 62
7
  6
BYLAYER
 10
16.333843724
 20
66.3860038375
 11
16.8843972311
 21
66.6211556256
  0
LINE
  5
220
100
AcDbEntity
  8
0
100
AcDbLine
 62
7
  6
BYLAYER
 10
21.8166158607
 20
33.3504927873
 11
32.762674406
 21
27.0309259074
  0
LINE
  5
221
100
AcDbEntity
  8
0
100
AcDbLine
 62
7
  6
BYLAYER
 10
10.1468677564
 20
62.7313494029
 11
9.6387214523
 21
62.520799815
  0
LINE
  5
222
100
AcDbEntity
  8
0
100
AcDbLine
 62
7
  6
BYLAYER
 10
15.9834164386
 20
64.1392751756
 11
14.9741685273
 21
63.7551072583
  0
LINE
  5
223
100
AcDbEntity
  8
0
100
AcDbLine
 62
7
  6
BYLAYER
 10
34.1768904072
 20
27.8474389762
 11
35.5911015307
 21
27.0309327061
  0
LINE
  5
224
100
AcDbEntity
  8
0
100
AcDbLine
 62
7
  6
BYLAYER
 10
47.1228494805
 20
20.3728723154
 11
46.5370689308
 21
20.7110947908
  0
LINE
  5
225
100
AcDbEntity
  8
0
100
AcDbLine
 62
7
  6
BYLAYER
 10
34.1768820804
 20
29.4804190494
 11
23.2308235352
 21
35.7999859293
  0
LINE
  5
226
100
AcDbEntity
  8
0
100
AcDbLine
 62
7
  6
BYLAYER
 10
18.0545581365
 20
76.5100591441
 11
18.0545581365
 21
68.7170963937
  0
LINE
  5
227
100
AcDbEntity
  8
0
100
AcDbLine
 62
7
  6
BYLAYER
 10
20.2183138954
 20
74.8852513233
 11
20.2183138954
 21
58.9797842377
  0
LINE
  5
228
100
AcDbEntity
  8
0
100
AcDbLine
 62
7
  6
BYLAYER
 10
53.9755673118
 20
80.9192130174
 11
34.1766598698
 21
69.488376709
  0
LINE
  5
229
100
AcDbEntity
  8
0
100
AcDbLine
 62
7
  6
BYLAYER
 10
21.2308235352
 20
20.3728196934
 11
21.2308235352
 21
35.3216850796
  0
LINE
  5
22A
100
AcDbEntity
  8
0
100
AcDbLine
 62
7
  6
BYLAYER
 10
21.8166158607
 20
20.7110353702
 11
21.8166158607
 21
33.3504927873
  0
LINE
  5
22B
100
AcDbEntity
  8
0
100
AcDbLine
 62
7
  6
BYLAYER
 10
33.9929303546
 20
66.9325152869
 11
20.2183138954
 21
58.9797842377
  0
LINE
  5
22C
100
AcDbEntity
  8
0
100
AcDbLine
 62
7
  6
BYLAYER
 10
36.1565671003
 20
66.0590958283
 11
55.9554745422
 21
77.4899321367
  0
LINE
  5
22D
100
AcDbEntity
  8
0
100
AcDbLine
 62
7
  6
BYLAYER
 10
31.8369437289
 20
41.4450948768
 11
8.3671567949
 21
54.9950761394
  0
LINE
  5
22E
100
AcDbEntity
  8
0
100
AcDbLine
 62
7
  6
BYLAYER
 10
28.9205233909
 20
69.8611419891
 11
28.9205233909
 21
69.6351652619
  0
LINE
  5
22F
100
AcDbEntity
  8
0
100
AcDbLine
 62
7
  6
BYLAYER
 10
55.9554745422
 20
69.6969693864
 11
54.6119772515
 21
68.921305494
  0
LINE
  5
230
100
AcDbEntity
  8
0
100
AcDbLine
 62
7
  6
BYLAYER
 10
37.6414851584
 20
59.1234458011
 11
36.1565671003
 21
58.266133078
  0
LINE
  5
231
100
AcDbEntity
  8
0
100
AcDbLine
 62
7
  6
BYLAYER
 10
34.1767909352
 20
42.1196054313
 11
45.1228494805
 21
35.8000385513
  0
LINE
  5
232
100
AcDbEntity
  8
0
100
AcDbLine
 62
7
  6
BYLAYER
 10
34.1767826085
 20
42.7959934201
 11
47.1228238731
 21
35.3217621007
  0
LINE
  5
233
100
AcDbEntity
  8
0
100
AcDbLine
 62
7
  6
BYLAYER
 10
32.762674406
 20
27.0309259074
 11
32.762674406
 21
14.3914684902
  0
LINE
  5
234
100
AcDbEntity
  8
0
100
AcDbLine
 62
7
  6
BYLAYER
 10
33.9928113413
 20
51.0272543396
 11
33.9928113413
 21
66.9327214253
  0
LINE
  5
235
100
AcDbEntity
  8
0
100
AcDbLine
 62
7
  6
BYLAYER
 10
34.1767909352
 20
42.1196054313
 11
34.1767825718
 21
42.7959933989
  0
LINE
  5
236
100
AcDbEntity
  8
0
100
AcDbLine
 62
7
  6
BYLAYER
 10
34.1768820804
 20
29.4804190494
 11
34.1768904072
 21
27.8474389762
  0
LINE
  5
237
100
AcDbEntity
  8
0
100
AcDbLine
 62
7
  6
BYLAYER
 10
35.5911015307
 20
14.3914752889
 11
35.5911015307
 21
27.0309327061
  0
LINE
  5
238
100
AcDbEntity
  8
0
100
AcDbLine
 62
7
  6
BYLAYER
 10
36.1565671003
 20
58.266133078
 11
36.1565671003
 21
66.0590958283
  0
LINE
  5
239
100
AcDbEntity
  8
0
100
AcDbLine
 62
7
  6
BYLAYER
 10
20.2183138954
 20
58.9797842377
 11
33.9928113413
 21
51.0272543396
  0
LINE
  5
23A
100
AcDbEntity
  8
0
100
AcDbLine
 62
7
  6
BYLAYER
 10
37.0756693746
 20
75.8094907242
 11
37.0756693746
 21
80.1840228085
  0
LINE
  5
23B
100
AcDbEntity
  8
0
100
AcDbLine
 62
7
  6
BYLAYER
 10
39.2369567094
 20
49.7472968691
 11
42.6403055693
 21
51.7122095206
  0
LINE
  5
23C
100
AcDbEntity
  8
0
100
AcDbLine
 62
7
  6
BYLAYER
 10
55.773936059
 20
59.2948693569
 11
59.0358641514
 21
61.1781331775
  0
LWPOLYLINE
  5
23D
100
AcDbEntity
  8
0
100
AcDbPolyline
 62
7
  6
BYLAYER
 90
9
 70
0
 10
41.3047089042
 20
52.7979600886
 10
42.7317942081
 20
52.5473401314
 10
45.4443533083
 20
53.3267584469
 10
46.8439199035
 20
54.1381196304
 10
49.5435723623
 20
56.4911823302
 10
51.8764649579
 20
59.6009777874
 10
53.5859726839
 20
63.1231982519
 10
54.4952560598
 20
66.6990074508
 10
54.6119772515
 20
68.3859435897
  0
LINE
  5
23E
100
AcDbEntity
  8
0
100
AcDbLine
 62
7
  6
BYLAYER
 10
44.0642574804
 20
43.1495783144
 11
39.2369567094
 21
49.7472968691
  0
LINE
  5
23F
100
AcDbEntity
  8
0
100
AcDbLine
 62
7
  6
BYLAYER
 10
34.1767826085
 20
42.7959934201
 11
21.2308408156
 21
35.3216950566
  0
LINE
  5
240
100
AcDbEntity
  8
0
100
AcDbLine
 62
7
  6
BYLAYER
 10
23.2308235352
 20
35.7999859293
 11
34.1767909352
 21
42.1196054313
  0
LINE
  5
241
100
AcDbEntity
  8
0
100
AcDbLine
 62
7
  6
BYLAYER
 10
42.6403055693
 20
51.7122095206
 11
44.1233746361
 21
50.7870541346
  0
LINE
  5
242
100
AcDbEntity
  8
0
100
AcDbLine
 62
7
  6
BYLAYER
 10
45.8439684418
 20
36.060092925
 11
45.8439684418
 21
38.5359927431
  0
LINE
  5
243
100
AcDbEntity
  8
0
100
AcDbLine
 62
7
  6
BYLAYER
 10
46.5370689308
 20
33.350552208
 11
46.5370689308
 21
20.7110947908
  0
LINE
  5
244
100
AcDbEntity
  8
0
100
AcDbLine
 62
7
  6
BYLAYER
 10
61.8098564672
 20
45.0256803131
 11
61.6628294952
 21
45.1105644546
  0
LINE
  5
245
100
AcDbEntity
  8
0
100
AcDbLine
 62
7
  6
BYLAYER
 10
46.7749751137
 20
52.8192200952
 11
46.7749751137
 21
52.4229692411
  0
LINE
  5
246
100
AcDbEntity
  8
0
100
AcDbLine
 62
7
  6
BYLAYER
 10
47.1228494805
 20
20.3728723154
 11
47.1228494805
 21
35.3217377015
  0
LINE
  5
247
100
AcDbEntity
  8
0
100
AcDbLine
 62
7
  6
BYLAYER
 10
46.7561365178
 20
52.5086528589
 11
46.7750114646
 21
52.8191673103
  0
LINE
  5
248
100
AcDbEntity
  8
0
100
AcDbLine
 62
7
  6
BYLAYER
 10
63.8631649223
 20
54.5804146228
 11
59.9543060439
 21
52.3236473682
  0
LINE
  5
249
100
AcDbEntity
  8
0
100
AcDbLine
 62
7
  6
BYLAYER
 10
50.8015317076
 20
47.0393221845
 11
44.0642574804
 21
43.1495783144
  0
LINE
  5
24A
100
AcDbEntity
  8
0
100
AcDbLine
 62
7
  6
BYLAYER
 10
33.9928113413
 20
66.9327214253
 11
20.2183138954
 21
74.8852513233
  0
LINE
  5
24B
100
AcDbEntity
  8
0
100
AcDbLine
 62
7
  6
BYLAYER
 10
50.3431251874
 20
55.5559345001
 11
50.3431251874
 21
48.334042093
  0
LINE
  5
24C
100
AcDbEntity
  8
0
100
AcDbLine
 62
7
  6
BYLAYER
 10
52.5054032073
 20
42.3819509408
 11
52.5054032073
 21
39.6537837847
  0
LINE
  5
24D
100
AcDbEntity
  8
0
100
AcDbLine
 62
7
  6
BYLAYER
 10
45.8439684418
 20
38.5359927431
 11
52.5054032073
 21
42.3819509408
  0
LINE
  5
24E
100
AcDbEntity
  8
0
100
AcDbLine
 62
7
  6
BYLAYER
 10
61.8098564672
 20
47.7538474692
 11
64.3369591926
 21
49.2128621988
  0
LINE
  5
24F
100
AcDbEntity
  8
0
100
AcDbLine
 62
7
  6
BYLAYER
 10
34.1766598698
 20
69.488376709
 11
20.0344653669
 21
77.6531917994
  0
LINE
  5
250
100
AcDbEntity
  8
0
100
AcDbLine
 62
7
  6
BYLAYER
 10
47.0092453064
 20
62.9773018713
 11
43.079228333
 21
65.2462468984
  0
LINE
  5
251
100
AcDbEntity
  8
0
100
AcDbLine
 62
7
  6
BYLAYER
 10
54.6119772515
 20
68.921305494
 11
54.6119772515
 21
68.3859435897
  0
LINE
  5
252
100
AcDbEntity
  8
0
100
AcDbLine
 62
7
  6
BYLAYER
 10
55.3672214084
 20
56.1459978703
 11
55.3672214084
 21
47.6741934647
  0
LINE
  5
253
100
AcDbEntity
  8
0
100
AcDbLine
 62
7
  6
BYLAYER
 10
55.9554745422
 20
77.4899321367
 11
55.9554745422
 21
69.6969693864
  0
LINE
  5
254
100
AcDbEntity
  8
0
100
AcDbLine
 62
7
  6
BYLAYER
 10
45.1228494805
 20
35.8000385513
 11
34.1768820804
 21
29.4804190494
  0
LINE
  5
255
100
AcDbEntity
  8
0
100
AcDbLine
 62
7
  6
BYLAYER
 10
52.5054032073
 20
39.6537837847
 11
61.8098564672
 21
45.0256803131
  0
LINE
  5
256
100
AcDbEntity
  8
0
100
AcDbLine
 62
7
  6
BYLAYER
 10
21.2308235352
 20
20.3728100785
 11
21.8166158607
 21
20.7110353702
  0
LINE
  5
257
100
AcDbEntity
  8
0
100
AcDbLine
 62
7
  6
BYLAYER
 10
34.1768904072
 20
27.8474389762
 11
32.762674406
 21
27.0309259074
  0
LINE
  5
258
100
AcDbEntity
  8
0
100
AcDbLine
 62
7
  6
BYLAYER
 10
14.9741685273
 20
63.7551072583
 11
10.1468677564
 21
62.7313494029
  0
LINE
  5
259
100
AcDbEntity
  8
0
100
AcDbLine
 62
7
  6
BYLAYER
 10
64.334748122
 20
44.0339112368
 11
47.1228494805
 21
34.0966762401
  0
LINE
  5
25A
100
AcDbEntity
  8
0
100
AcDbLine
 62
7
  6
BYLAYER
 10
35.5911015307
 20
27.0309327061
 11
46.5370689308
 21
33.350552208
  0
LINE
  5
25B
100
AcDbEntity
  8
0
100
AcDbLine
 62
7
  6
BYLAYER
 10
61.6628294952
 20
45.1105644546
 11
61.6628294952
 21
48.7154330024
  0
LINE
  5
25C
100
AcDbEntity
  8
0
100
AcDbLine
 62
7
  6
BYLAYER
 10
61.8098564672
 20
45.0256803131
 11
61.8098564672
 21
47.7538474692
  0
LINE
  5
25D
100
AcDbEntity
  8
0
100
AcDbLine
 62
7
  6
BYLAYER
 10
54.6271933854
 20
68.3771587494
 11
54.6119772515
 21
68.3859435897
  0
LINE
  5
25E
100
AcDbEntity
  8
0
100
AcDbLine
 62
7
  6
BYLAYER
 10
59.0358641514
 20
61.1781331775
 11
63.8631649223
 21
54.5804146228
  0
LINE
  5
25F
100
AcDbEntity
  8
0
100
AcDbLine
 62
7
  6
BYLAYER
 10
64.3369591926
 20
49.2128621988
 11
64.3369591926
 21
44.0351877913
  0
LINE
  5
260
100
AcDbEntity
  8
0
100
AcDbLine
 62
7
  6
BYLAYER
 10
64.8765826864
 20
44.7891472623
 11
64.8765826864
 21
51.577684983
  0
LINE
  5
261
100
AcDbEntity
  8
0
100
AcDbLine
 62
7
  6
BYLAYER
 10
46.5370689308
 20
20.7110947908
 11
35.5911015307
 21
14.3914752889
  0
LINE
  5
262
100
AcDbEntity
  8
0
100
AcDbLine
 62
7
  6
BYLAYER
 10
47.1228494805
 20
20.3728723153
 11
34.1768904072
 21
12.8985639749
  0
LINE
  5
263
100
AcDbEntity
  8
0
100
AcDbLine
 62
7
  6
BYLAYER
 10
39.8333728089
 20
89.0840281078
 11
53.9755673118
 21
80.9192130174
  0
ARC
  5
264
100
AcDbEntity
  8
0
100
AcDbCircle
 62
7
  6
BYLAYER
 10
30.1506679758
 20
27.2871448692
 40
38.924070952
100
AcDbArc
 50
40.0318896592
 51
47.7190256869
  0
ARC
  5
265
100
AcDbEntity
  8
0
100
AcDbCircle
 62
7
  6
BYLAYER
 10
54.5343014346
 20
35.0036565227
 40
21.1586140644
100
AcDbArc
 50
85.1111744218
 51
87.7440204043
  0
ARC
  5
266
100
AcDbEntity
  8
0
100
AcDbCircle
 62
7
  6
BYLAYER
 10
55.0779764929
 20
48.4208762653
 40
10.7293731652
100
AcDbArc
 50
30.3734251257
 51
35.0353586655
  0
ARC
  5
267
100
AcDbEntity
  8
0
100
AcDbCircle
 62
7
  6
BYLAYER
 10
64.5974791695
 20
68.9282468721
 40
9.9855043306
100
AcDbArc
 50
180.039828905
 51
183.1636933994
  0
ARC
  5
268
100
AcDbEntity
  8
0
100
AcDbCircle
 62
7
  6
BYLAYER
 10
47.4587066207
 20
59.1256815039
 40
9.8172217169
100
AcDbArc
 50
180.0130481248
 51
183.1904741796
  0
ARC
  5
269
100
AcDbEntity
  8
0
100
AcDbCircle
 62
7
  6
BYLAYER
 10
50.5680467069
 20
41.8183220439
 40
6.519601019
100
AcDbArc
 50
91.9770552653
 51
94.6498107852
  0
ARC
  5
26A
100
AcDbEntity
  8
0
100
AcDbCircle
 62
7
  6
BYLAYER
 10
26.0618483386
 20
25.2586548269
 40
3.6508317312
100
AcDbArc
 50
66.4799489534
 51
70.6562871544
  0
ARC
  5
26B
100
AcDbEntity
  8
0
100
AcDbCircle
 62
7
  6
BYLAYER
 10
53.4668676801
 20
41.4450524215
 40
2.7967657481
100
AcDbArc
 50
56.5778144654
 51
57.3284890634
  0
SPLINE
  5
26C
100
AcDbEntity
  8
0
100
AcDbSpline
 62
7
  6
BYLAYER
 70
0
 71
3
 72
14
 73
10
 74
0
 42
0.0000001
 43
0.0000001
 44
0.0000000001
 40
0.0
 40
0.0
 40
0.0
 40
0.0
 40
0.1138327667
 40
0.2288931494
 40
0.3463481691
 40
0.4672413306
 40
0.5924659
 40
0.7227168147
 40
1.0
 40
1.0
 40
1.0
 40
1.0
 10
25.4330281287
 20
28.6335241159
 30
0.0
 10
25.4953719181
 20
28.6695127765
 30
0.0
 10
25.625536629
 20
28.733890239
 30
0.0
 10
25.8331132658
 20
28.8054689428
 30
0.0
 10
26.0522833312
 20
28.8519084016
 30
0.0
 10
26.281713642
 20
28.8730557423
 30
0.0
 10
26.5201450398
 20
28.8687847195
 30
0.0
 10
26.8550869555
 20
28.8286604627
 30
0.0
 10
27.1056583969
 20
28.7614132876
 30
0.0
 10
27.2711292265
 20
28.7033916911
 30
0.0
  0
SPLINE
  5
26D
100
AcDbEntity
  8
0
100
AcDbSpline
 62
7
  6
BYLAYER
 70
0
 71
3
 72
19
 73
15
 74
0
 42
0.0000001
 43
0.0000001
 44
0.0000000001
 40
0.0
 40
0.0
 40
0.0
 40
0.0
 40
0.0558394198
 40
0.1142074102
 40
0.1748216077
 40
0.2374040357
 40
0.3670130522
 40
0.4999966723
 40
0.63298134
 40
0.7625920824
 40
0.8251770088
 40
0.8857945298
 40
0.9441485011
 40
1.0
 40
1.0
 40
1.0
 40
1.0
 10
27.2896451334
 20
28.7699951415
 30
0.0
 10
27.4317605165
 20
28.6879466431
 30
0.0
 10
27.7152347172
 20
28.5074328631
 30
0.0
 10
28.126414064
 20
28.198680159
 30
0.0
 10
28.529562451
 20
27.8484696017
 30
0.0
 10
29.0572028875
 20
27.3248138242
 30
0.0
 10
29.6705535321
 20
26.5887133248
 30
0.0
 10
30.3086452634
 20
25.6140952323
 30
0.0
 10
30.8336545633
 20
24.5741829874
 30
0.0
 10
31.1644842494
 20
23.6749475793
 30
0.0
 10
31.3541726899
 20
22.9561485552
 30
0.0
 10
31.4558781299
 20
22.4319296387
 30
0.0
 10
31.5177160505
 20
21.921462163
 30
0.0
 10
31.5322982379
 20
21.585714162
 30
0.0
 10
31.5323000582
 20
21.4215788831
 30
0.0
  0
SPLINE
  5
26E
100
AcDbEntity
  8
0
100
AcDbSpline
 62
7
  6
BYLAYER
 70
0
 71
3
 72
14
 73
10
 74
0
 42
0.0000001
 43
0.0000001
 44
0.0000000001
 40
0.0
 40
0.0
 40
0.0
 40
0.0
 40
0.2823702667
 40
0.4138245385
 40
0.5392847694
 40
0.6595060076
 40
0.7755007655
 40
0.8885202406
 40
1.0
 40
1.0
 40
1.0
 40
1.0
 10
31.5085914458
 20
21.7341574256
 30
0.0
 10
31.486718828
 20
21.5286879212
 30
0.0
 10
31.4311431317
 20
21.2287454926
 30
0.0
 10
31.3013542603
 20
20.8554490698
 30
0.0
 10
31.1826593358
 20
20.6056119225
 30
0.0
 10
31.0410570315
 20
20.3812161137
 30
0.0
 10
30.8774251849
 20
20.1839005934
 30
0.0
 10
30.6929199984
 20
20.0152775756
 30
0.0
 10
30.5564507035
 20
19.9225990116
 30
0.0
 10
30.4857996473
 20
19.8818148868
 30
0.0
  0
SPLINE
  5
26F
100
AcDbEntity
  8
0
100
AcDbSpline
 62
7
  6
BYLAYER
 70
0
 71
3
 72
11
 73
7
 74
0
 42
0.0000001
 43
0.0000001
 44
0.0000000001
 40
0.0
 40
0.0
 40
0.0
 40
0.0
 40
0.2436564612
 40
0.4930137935
 40
0.7457324488
 40
1.0
 40
1.0
 40
1.0
 40
1.0
 10
21.2308408156
 20
35.3216950566
 30
0.0
 10
21.3769570202
 20
35.406054785
 30
0.0
 10
21.6889345739
 20
35.5491682774
 30
0.0
 10
22.1855943404
 20
35.6952598141
 30
0.0
 10
22.7033961792
 20
35.7811453656
 30
0.0
 10
23.0547556639
 20
35.7999855061
 30
0.0
 10
23.2308235352
 20
35.7999859293
 30
0.0
  0
SPLINE
  5
270
100
AcDbEntity
  8
0
100
AcDbSpline
 62
7
  6
BYLAYER
 70
0
 71
3
 72
11
 73
7
 74
0
 42
0.0000001
 43
0.0000001
 44
0.0000000001
 40
0.0
 40
0.0
 40
0.0
 40
0.0
 40
0.2436589471
 40
0.4930148874
 40
0.7457321348
 40
1.0
 40
1.0
 40
1.0
 40
1.0
 10
47.1228238732
 20
35.3217621007
 30
0.0
 10
46.9767063181
 20
35.4061212063
 30
0.0
 10
46.6647369692
 20
35.549249537
 30
0.0
 10
46.1680731828
 20
35.6953260441
 30
0.0
 10
45.6502721686
 20
35.7811788764
 30
0.0
 10
45.2989166685
 20
35.8000389745
 30
0.0
 10
45.1228494805
 20
35.8000385513
 30
0.0
  0
SPLINE
  5
271
100
AcDbEntity
  8
0
100
AcDbSpline
 62
7
  6
BYLAYER
 70
0
 71
3
 72
36
 73
32
 74
0
 42
0.0000001
 43
0.0000001
 44
0.0000000001
 40
0.0
 40
0.0
 40
0.0
 40
0.0
 40
0.0325459934
 40
0.066565774
 40
0.1018947638
 40
0.1383709412
 40
0.2139135708
 40
0.2914230562
 40
0.368933087
 40
0.4444765326
 40
0.4809540288
 40
0.5162847942
 40
0.5502962217
 40
0.5828490573
 40
0.6138433115
 40
0.6432295322
 40
0.6710158339
 40
0.6972786519
 40
0.7221732888
 40
0.7459372734
 40
0.768890174
 40
0.79141852
 40
0.8139468953
 40
0.8368994553
 40
0.8606629409
 40
0.8855579388
 40
0.8985131549
 40
0.9118323291
 40
0.9396171664
 40
0.9690123131
 40
1.0
 40
1.0
 40
1.0
 40
1.0
 10
27.2896451334
 20
18.971966136
 30
0.0
 10
27.1475285638
 20
19.0540153195
 30
0.0
 10
26.8640520111
 20
19.2345307401
 30
0.0
 10
26.4528693984
 20
19.543286495
 30
0.0
 10
26.0497179402
 20
19.8935007231
 30
0.0
 10
25.5220737616
 20
20.4171621499
 30
0.0
 10
24.9087195284
 20
21.1532706615
 30
0.0
 10
24.2706255898
 20
22.1278988485
 30
0.0
 10
23.7456166155
 20
23.1678216531
 30
0.0
 10
23.4147894131
 20
24.0670633032
 30
0.0
 10
23.2251046591
 20
24.7858706945
 30
0.0
 10
23.1234025865
 20
25.3100837597
 30
0.0
 10
23.0615693949
 20
25.8205849604
 30
0.0
 10
23.040200587
 20
26.3125585743
 30
0.0
 10
23.0595859985
 20
26.7813579667
 30
0.0
 10
23.119572757
 20
27.2225723309
 30
0.0
 10
23.2197397361
 20
27.6320522548
 30
0.0
 10
23.3593545664
 20
28.0059004837
 30
0.0
 10
23.5373035337
 20
28.3404958312
 30
0.0
 10
23.7522180855
 20
28.6323876013
 30
0.0
 10
24.0021936014
 20
28.8783712063
 30
0.0
 10
24.2847484881
 20
29.0755940438
 30
0.0
 10
24.5968202358
 20
29.2216864346
 30
0.0
 10
24.9348336588
 20
29.3151902333
 30
0.0
 10
25.2950539344
 20
29.3553764359
 30
0.0
 10
25.606588906
 20
29.3445188642
 30
0.0
 10
25.862479133
 20
29.3105428444
 30
0.0
 10
26.130083506
 20
29.2578995758
 30
0.0
 10
26.472132918
 20
29.1581950711
 30
0.0
 10
26.884169392
 20
28.9895259479
 30
0.0
 10
27.1543331245
 20
28.848115799
 30
0.0
 10
27.2896451334
 20
28.7699951415
 30
0.0
  0
SPLINE
  5
272
100
AcDbEntity
  8
0
100
AcDbSpline
 62
7
  6
BYLAYER
 70
0
 71
3
 72
15
 73
11
 74
0
 42
0.0000001
 43
0.0000001
 44
0.0000000001
 40
0.0
 40
0.0
 40
0.0
 40
0.0
 40
0.1080136259
 40
0.2180628767
 40
0.3320010569
 40
0.4513636029
 40
0.5772739888
 40
0.7104923664
 40
0.8514362958
 40
1.0
 40
1.0
 40
1.0
 40
1.0
 10
30.4857996473
 20
19.8818148868
 30
0.0
 10
30.4029545976
 20
19.8339916407
 30
0.0
 10
30.2270735658
 20
19.7516120763
 30
0.0
 10
29.9424732477
 20
19.6729326258
 30
0.0
 10
29.6390877627
 20
19.6390706522
 30
0.0
 10
29.3201476494
 20
19.6501932009
 30
0.0
 10
28.9887209219
 20
19.7057672086
 30
0.0
 10
28.6478691953
 20
19.805129559
 30
0.0
 10
28.3008628739
 20
19.947184687
 30
0.0
 10
28.0733565796
 20
20.0662627326
 30
0.0
 10
27.959413888
 20
20.132046088
 30
0.0
  0
SPLINE
  5
273
100
AcDbEntity
  8
0
100
AcDbSpline
 62
7
  6
BYLAYER
 70
0
 71
3
 72
11
 73
7
 74
0
 42
0.0000001
 43
0.0000001
 44
0.0000000001
 40
0.0
 40
0.0
 40
0.0
 40
0.0
 40
0.2542687675
 40
0.5069887971
 40
0.7563454478
 40
1.0
 40
1.0
 40
1.0
 40
1.0
 10
35.5911015307
 20
14.3914752889
 30
0.0
 10
35.5030666567
 20
14.2389935679
 30
0.0
 10
35.3110690644
 20
13.9441222021
 30
0.0
 10
34.977786552
 20
13.5386289882
 30
0.0
 10
34.6029359631
 20
13.1815502325
 30
0.0
 10
34.3230063034
 20
12.9829249812
 30
0.0
 10
34.1768904072
 20
12.898563975
 30
0.0
  0
SPLINE
  5
274
100
AcDbEntity
  8
0
100
AcDbSpline
 62
7
  6
BYLAYER
 70
0
 71
3
 72
11
 73
7
 74
0
 42
0.0000001
 43
0.0000001
 44
0.0000000001
 40
0.0
 40
0.0
 40
0.0
 40
0.0
 40
0.2542690821
 40
0.5069877159
 40
0.7563431216
 40
1.0
 40
1.0
 40
1.0
 40
1.0
 10
32.762674406
 20
14.3914684902
 30
0.0
 10
32.8507101014
 20
14.2389870393
 30
0.0
 10
33.0427264179
 20
13.9441293251
 30
0.0
 10
33.3759852897
 20
13.5386210724
 30
0.0
 10
33.7508315106
 20
13.1815346616
 30
0.0
 10
34.030772846
 20
12.9829252401
 30
0.0
 10
34.1768904072
 20
12.898563975
 30
0.0
  0
SPLINE
  5
275
100
AcDbEntity
  8
0
100
AcDbSpline
 62
7
  6
BYLAYER
 70
0
 71
3
 72
24
 73
20
 74
0
 42
0.0000001
 43
0.0000001
 44
0.0000000001
 40
0.0
 40
0.0
 40
0.0
 40
0.0
 40
0.0743002043
 40
0.144745591
 40
0.2113555935
 40
0.2743134282
 40
0.3339913734
 40
0.3909588257
 40
0.4459818543
 40
0.4999870559
 40
0.5539922603
 40
0.6090142761
 40
0.6659802244
 40
0.7256586395
 40
0.7567149553
 40
0.7886437591
 40
0.8552497587
 40
0.925716037
 40
1.0
 40
1.0
 40
1.0
 40
1.0
 10
31.5323000582
 20
21.4215788831
 30
0.0
 10
31.5323017913
 20
21.265299514
 30
0.0
 10
31.5197089348
 20
20.9606380392
 30
0.0
 10
31.4597268998
 20
20.5194429521
 30
0.0
 10
31.3595634058
 20
20.1099494418
 30
0.0
 10
31.219951449
 20
19.7360959067
 30
0.0
 10
31.042004568
 20
19.4014935385
 30
0.0
 10
30.8270913397
 20
19.1095956398
 30
0.0
 10
30.5771163882
 20
18.8636062738
 30
0.0
 10
30.2945613079
 20
18.6663783242
 30
0.0
 10
29.9824886567
 20
18.5202815363
 30
0.0
 10
29.644473697
 20
18.4267741535
 30
0.0
 10
29.2842513467
 20
18.3865852415
 30
0.0
 10
28.9727143218
 20
18.3974413124
 30
0.0
 10
28.7168223119
 20
18.4314165551
 30
0.0
 10
28.4492159484
 20
18.484059325
 30
0.0
 10
28.107163859
 20
18.5837637911
 30
0.0
 10
27.6951240892
 20
18.7524337007
 30
0.0
 10
27.424958218
 20
18.8938448575
 30
0.0
 10
27.2896451334
 20
18.971966136
 30
0.0
  0
SPLINE
  5
276
100
AcDbEntity
  8
0
100
AcDbSpline
 62
7
  6
BYLAYER
 70
0
 71
3
 72
25
 73
21
 74
0
 42
0.0000001
 43
0.0000001
 44
0.0000000001
 40
0.0
 40
0.0
 40
0.0
 40
0.0
 40
0.0623807091
 40
0.1287230298
 40
0.1983133405
 40
0.2702903621
 40
0.3436669645
 40
0.4173984128
 40
0.4904226855
 40
0.5617093361
 40
0.6303068447
 40
0.6953947218
 40
0.7563426177
 40
0.8127802614
 40
0.8646812423
 40
0.9124565655
 40
0.9351017252
 40
0.9571070731
 40
0.978667814
 40
1.0
 40
1.0
 40
1.0
 40
1.0
 10
27.959413888
 20
20.132046088
 30
0.0
 10
27.7778815121
 20
20.2368514831
 30
0.0
 10
27.4172416795
 20
20.477862826
 30
0.0
 10
26.9065218514
 20
20.9076431652
 30
0.0
 10
26.4183338479
 20
21.4088938257
 30
0.0
 10
25.9630992943
 20
21.9708414121
 30
0.0
 10
25.5504676292
 20
22.581592718
 30
0.0
 10
25.1892354221
 20
23.2280990039
 30
0.0
 10
24.8871114264
 20
23.8965794456
 30
0.0
 10
24.6505351471
 20
24.5727886842
 30
0.0
 10
24.4845469336
 20
25.2423680517
 30
0.0
 10
24.392708283
 20
25.8911925012
 30
0.0
 10
24.3770624732
 20
26.5056896757
 30
0.0
 10
24.43830703
 20
27.0732247345
 30
0.0
 10
24.5757260658
 20
27.5819871572
 30
0.0
 10
24.7560160678
 20
27.9548800559
 30
0.0
 10
24.9360855938
 20
28.2086636708
 30
0.0
 10
25.0854545871
 20
28.3742961574
 30
0.0
 10
25.2506086398
 20
28.5175257213
 30
0.0
 10
25.3709478856
 20
28.5976875903
 30
0.0
 10
25.4330281287
 20
28.6335241159
 30
0.0
  0
SPLINE
  5
277
100
AcDbEntity
  8
0
100
AcDbSpline
 62
7
  6
BYLAYER
 70
0
 71
3
 72
11
 73
7
 74
0
 42
0.0000001
 43
0.0000001
 44
0.0000000001
 40
0.0
 40
0.0
 40
0.0
 40
0.0
 40
0.2542694718
 40
0.5069881939
 40
0.7563434358
 40
1.0
 40
1.0
 40
1.0
 40
1.0
 10
46.5370689308
 20
33.350552208
 30
0.0
 10
46.6251034117
 20
33.5030332482
 30
0.0
 10
46.7844485805
 20
33.8167512025
 30
0.0
 10
46.9689983206
 20
34.3081127695
 30
0.0
 10
47.09081995
 20
34.8112786084
 30
0.0
 10
47.1228494817
 20
35.1530169479
 30
0.0
 10
47.1228494805
 20
35.3217377016
 30
0.0
  0
SPLINE
  5
278
100
AcDbEntity
  8
0
100
AcDbSpline
 62
7
  6
BYLAYER
 70
0
 71
3
 72
11
 73
7
 74
0
 42
0.0000001
 43
0.0000001
 44
0.0000000001
 40
0.0
 40
0.0
 40
0.0
 40
0.0
 40
0.2542693529
 40
0.506989597
 40
0.7563460605
 40
1.0
 40
1.0
 40
1.0
 40
1.0
 10
21.8166158607
 20
33.3504927873
 30
0.0
 10
21.7285803138
 20
33.502973981
 30
0.0
 10
21.5692131606
 20
33.8166839684
 30
0.0
 10
21.3846871837
 20
34.3080605514
 30
0.0
 10
21.2628735356
 20
34.8112281394
 30
0.0
 10
21.2308241435
 20
35.1529654265
 30
0.0
 10
21.2308235352
 20
35.3216850797
 30
0.0
  0
SPLINE
  5
279
100
AcDbEntity
  8
0
100
AcDbSpline
 62
7
  6
BYLAYER
 70
0
 71
3
 72
11
 73
7
 74
0
 42
0.0000001
 43
0.0000001
 44
0.0000000001
 40
0.0
 40
0.0
 40
0.0
 40
0.0
 40
0.2279701893
 40
0.4747775069
 40
0.7344930157
 40
1.0
 40
1.0
 40
1.0
 40
1.0
 10
54.8595251235
 20
43.6665134082
 30
0.0
 10
54.691576349
 20
43.5695487169
 30
0.0
 10
54.3224855085
 20
43.4002738546
 30
0.0
 10
53.7205881897
 20
43.2259551095
 30
0.0
 10
53.069724337
 20
43.1264044268
 30
0.0
 10
52.6218737026
 20
43.112743142
 30
0.0
 10
52.3961088685
 20
43.1193725079
 30
0.0
  0
SPLINE
  5
27A
100
AcDbEntity
  8
0
100
AcDbSpline
 62
7
  6
BYLAYER
 70
0
 71
3
 72
9
 73
5
 74
0
 42
0.0000001
 43
0.0000001
 44
0.0000000001
 40
0.0
 40
0.0
 40
0.0
 40
0.0
 40
0.2563596194
 40
1.0
 40
1.0
 40
1.0
 40
1.0
 10
52.3583762353
 20
43.3435364741
 30
0.0
 10
52.3760022193
 20
43.262269096
 30
0.0
 10
52.4400313489
 20
42.9442709
 30
0.0
 10
52.4848061921
 20
42.6222889014
 30
0.0
 10
52.5054032073
 20
42.3819509408
 30
0.0
  0
SPLINE
  5
27B
100
AcDbEntity
  8
0
100
AcDbSpline
 62
7
  6
BYLAYER
 70
0
 71
3
 72
15
 73
11
 74
0
 42
0.0000001
 43
0.0000001
 44
0.0000000001
 40
0.0
 40
0.0
 40
0.0
 40
0.0
 40
0.1080095103
 40
0.2180556759
 40
0.3319964091
 40
0.4513533399
 40
0.5772589867
 40
0.7104907894
 40
0.8514573704
 40
1.0
 40
1.0
 40
1.0
 40
1.0
 10
43.2157096494
 20
79.3270267706
 30
0.0
 10
43.2157204479
 20
79.2107925339
 30
0.0
 10
43.1955171829
 20
78.9756618396
 30
0.0
 10
43.1054476454
 20
78.6283501868
 30
0.0
 10
42.9566906618
 20
78.2885410315
 30
0.0
 10
42.7512679374
 20
77.959634536
 30
0.0
 10
42.4913850277
 20
77.6446400163
 30
0.0
 10
42.1797135757
 20
77.3462800377
 30
0.0
 10
41.8193488794
 20
77.0674390566
 30
0.0
 10
41.5558181626
 20
76.9003551729
 30
0.0
 10
41.4173804355
 20
76.820428591
 30
0.0
  0
SPLINE
  5
27C
100
AcDbEntity
  8
0
100
AcDbSpline
 62
7
  6
BYLAYER
 70
0
 71
3
 72
20
 73
16
 74
0
 42
0.0000001
 43
0.0000001
 44
0.0000000001
 40
0.0
 40
0.0
 40
0.0
 40
0.0
 40
0.0975703365
 40
0.151854882
 40
0.2097091593
 40
0.2708823562
 40
0.3349730749
 40
0.4014685428
 40
0.4697704561
 40
0.6090316469
 40
0.74727498
 40
0.8143374344
 40
0.8791496825
 40
0.9412011451
 40
1.0
 40
1.0
 40
1.0
 40
1.0
 10
42.7764137845
 20
77.9819604989
 30
0.0
 10
42.5756316639
 20
78.2716715815
 30
0.0
 10
42.1817413277
 20
78.6679743958
 30
0.0
 10
41.559095772
 20
79.1002811696
 30
0.0
 10
41.0075741482
 20
79.3996292458
 30
0.0
 10
40.3973155321
 20
79.6572280435
 30
0.0
 10
39.7370771903
 20
79.8697269056
 30
0.0
 10
39.0367995857
 20
80.03389577
 30
0.0
 10
38.0576647603
 20
80.1859082897
 30
0.0
 10
36.8051723327
 20
80.2419457352
 30
0.0
 10
35.5614353113
 20
80.1226533718
 30
0.0
 10
34.6059140839
 20
79.9204629671
 30
0.0
 10
33.9334110999
 20
79.7211363899
 30
0.0
 10
33.3083188657
 20
79.475666608
 30
0.0
 10
32.918033054
 20
79.2780359232
 30
0.0
 10
32.7340730107
 20
79.1718271767
 30
0.0
  0
SPLINE
  5
27D
100
AcDbEntity
  8
0
100
AcDbSpline
 62
7
  6
BYLAYER
 70
0
 71
3
 72
11
 73
7
 74
0
 42
0.0000001
 43
0.0000001
 44
0.0000000001
 40
0.0
 40
0.0
 40
0.0
 40
0.0
 40
0.2543404772
 40
0.5093066432
 40
0.7593895571
 40
1.0
 40
1.0
 40
1.0
 40
1.0
 10
50.8013227976
 20
47.0396525146
 30
0.0
 10
50.9784356874
 20
46.7477414317
 30
0.0
 10
51.3151543897
 20
46.1520490914
 30
0.0
 10
51.754579215
 20
45.2311354607
 30
0.0
 10
52.1123662391
 20
44.2950179308
 30
0.0
 10
52.289420811
 20
43.6590976613
 30
0.0
 10
52.3583762353
 20
43.3435359787
 30
0.0
  0
SPLINE
  5
27E
100
AcDbEntity
  8
0
100
AcDbSpline
 62
7
  6
BYLAYER
 70
0
 71
3
 72
14
 73
10
 74
0
 42
0.0000001
 43
0.0000001
 44
0.0000000001
 40
0.0
 40
0.0
 40
0.0
 40
0.0
 40
0.1441332395
 40
0.2803760196
 40
0.5321878526
 40
0.6508142362
 40
0.7668906039
 40
0.8825526257
 40
1.0
 40
1.0
 40
1.0
 40
1.0
 10
47.9180583397
 20
50.2990922594
 30
0.0
 10
47.8259945919
 20
50.3816807661
 30
0.0
 10
47.6517816617
 20
50.5480070874
 30
0.0
 10
47.3456379613
 20
50.8870895704
 30
0.0
 10
47.0953808058
 20
51.246833168
 30
0.0
 10
46.9183573042
 20
51.6258770002
 30
0.0
 10
46.8248402052
 20
51.9124563734
 30
0.0
 10
46.7686885285
 20
52.2075787385
 30
0.0
 10
46.7565878947
 20
52.4078570352
 30
0.0
 10
46.7565632983
 20
52.5086375417
 30
0.0
  0
SPLINE
  5
27F
100
AcDbEntity
  8
0
100
AcDbSpline
 62
7
  6
BYLAYER
 70
0
 71
3
 72
9
 73
5
 74
0
 42
0.0000001
 43
0.0000001
 44
0.0000000001
 40
0.0
 40
0.0
 40
0.0
 40
0.0
 40
0.5194026042
 40
1.0
 40
1.0
 40
1.0
 40
1.0
 10
49.833569294
 20
48.6614173123
 30
0.0
 10
49.4802462369
 20
48.9181616313
 30
0.0
 10
48.8152852864
 20
49.4341590058
 30
0.0
 10
48.1975323568
 20
50.0071833788
 30
0.0
 10
47.9180583397
 20
50.2990922594
 30
0.0
  0
SPLINE
  5
280
100
AcDbEntity
  8
0
100
AcDbSpline
 62
7
  6
BYLAYER
 70
0
 71
3
 72
15
 73
11
 74
0
 42
0.0000001
 43
0.0000001
 44
0.0000000001
 40
0.0
 40
0.0
 40
0.0
 40
0.0
 40
0.1150542084
 40
0.2325562335
 40
0.3530915083
 40
0.4769034611
 40
0.6038619012
 40
0.7336481891
 40
0.8659028061
 40
1.0
 40
1.0
 40
1.0
 40
1.0
 10
37.6568134007
 20
58.5792343321
 30
0.0
 10
37.6752800269
 20
58.2426355063
 30
0.0
 10
37.7759498372
 20
57.5643591137
 30
0.0
 10
38.1025222476
 20
56.5781186221
 30
0.0
 10
38.5875581819
 20
55.6312224264
 30
0.0
 10
39.208861158
 20
54.734893695
 30
0.0
 10
39.9443933084
 20
53.8942603024
 30
0.0
 10
40.7734096599
 20
53.1100515571
 30
0.0
 10
41.6773197229
 20
52.3804587837
 30
0.0
 10
42.3150855591
 20
51.929857827
 30
0.0
 10
42.6416096124
 20
51.7113339025
 30
0.0
  0
SPLINE
  5
281
100
AcDbEntity
  8
0
100
AcDbSpline
 62
7
  6
BYLAYER
 70
0
 71
3
 72
24
 73
20
 74
0
 42
0.0000001
 43
0.0000001
 44
0.0000000001
 40
0.0
 40
0.0
 40
0.0
 40
0.0
 40
0.0213338387
 40
0.0428959545
 40
0.0874746948
 40
0.1352542643
 40
0.1871594242
 40
0.2436011238
 40
0.3045533544
 40
0.3696461399
 40
0.4382485498
 40
0.5095399775
 40
0.5825694795
 40
0.6563061064
 40
0.7296870857
 40
0.801670035
 40
0.8712630885
 40
0.9376185338
 40
1.0
 40
1.0
 40
1.0
 40
1.0
 10
43.0567919777
 20
58.1696026018
 30
0.0
 10
42.9813605071
 20
58.2131612676
 30
0.0
 10
42.8351265361
 20
58.3105864649
 30
0.0
 10
42.5646307829
 20
58.5450132864
 30
0.0
 10
42.2729585818
 20
58.9133832241
 30
0.0
 10
42.0151530682
 20
59.4472914016
 30
0.0
 10
41.8480065831
 20
60.0656665267
 30
0.0
 10
41.773630497
 20
60.7552717549
 30
0.0
 10
41.7926220411
 20
61.5019992491
 30
0.0
 10
41.904231629
 20
62.2904221902
 30
0.0
 10
42.10593648
 20
63.1040687192
 30
0.0
 10
42.3934085743
 20
63.9257724327
 30
0.0
 10
42.7605266485
 20
64.7380872472
 30
0.0
 10
43.1994663682
 20
65.5237009198
 30
0.0
 10
43.7008760866
 20
66.2658654296
 30
0.0
 10
44.2540637181
 20
66.9487055069
 30
0.0
 10
44.84728704
 20
67.5578499148
 30
0.0
 10
45.4679163109
 20
68.0800915511
 30
0.0
 10
45.9061540901
 20
68.3729890879
 30
0.0
 10
46.126731205
 20
68.5003385844
 30
0.0
  0
SPLINE
  5
282
100
AcDbEntity
  8
0
100
AcDbSpline
 62
7
  6
BYLAYER
 70
0
 71
3
 72
15
 73
11
 74
0
 42
0.0000001
 43
0.0000001
 44
0.0000000001
 40
0.0
 40
0.0
 40
0.0
 40
0.0
 40
0.1485417129
 40
0.2895056526
 40
0.4227356905
 40
0.5486411854
 40
0.6679989003
 40
0.7819404326
 40
0.8919882586
 40
1.0
 40
1.0
 40
1.0
 40
1.0
 10
46.126731205
 20
68.5003385844
 30
0.0
 10
46.2651677483
 20
68.5802644828
 30
0.0
 10
46.5416281765
 20
68.7249443617
 30
0.0
 10
46.9632890146
 20
68.8976026717
 30
0.0
 10
47.3775066267
 20
69.0183356792
 30
0.0
 10
47.7802394489
 20
69.0859003784
 30
0.0
 10
48.1677928126
 20
69.0993521828
 30
0.0
 10
48.5364567894
 20
69.0582715401
 30
0.0
 10
48.8822778078
 20
68.962622587
 30
0.0
 10
49.0960115784
 20
68.862551358
 30
0.0
 10
49.1966704322
 20
68.8044248846
 30
0.0
  0
SPLINE
  5
283
100
AcDbEntity
  8
0
100
AcDbSpline
 62
7
  6
BYLAYER
 70
0
 71
3
 72
15
 73
11
 74
0
 42
0.0000001
 43
0.0000001
 44
0.0000000001
 40
0.0
 40
0.0
 40
0.0
 40
0.0
 40
0.1485687374
 40
0.2895102823
 40
0.4227283755
 40
0.548640452
 40
0.6680039036
 40
0.7819440079
 40
0.8919874687
 40
1.0
 40
1.0
 40
1.0
 40
1.0
 10
18.0545581365
 20
68.7170963937
 30
0.0
 10
18.0545581365
 20
68.4566925224
 30
0.0
 10
18.0335324318
 20
67.9489053572
 30
0.0
 10
17.933619301
 20
67.2135596809
 30
0.0
 10
17.766632061
 20
66.5310153588
 30
0.0
 10
17.5339188336
 20
65.9079498377
 30
0.0
 10
17.2373616684
 20
65.3502743845
 30
0.0
 10
16.8790931168
 20
64.8637920702
 30
0.0
 10
16.4626162762
 20
64.4538512292
 30
0.0
 10
16.147394679
 20
64.2338944846
 30
0.0
 10
15.9834395647
 20
64.13923512
 30
0.0
  0
SPLINE
  5
284
100
AcDbEntity
  8
0
100
AcDbSpline
 62
7
  6
BYLAYER
 70
0
 71
3
 72
10
 73
6
 74
0
 42
0.0000001
 43
0.0000001
 44
0.0000000001
 40
0.0
 40
0.0
 40
0.0
 40
0.0
 40
0.4695099962
 40
0.7271958006
 40
1.0
 40
1.0
 40
1.0
 40
1.0
 10
42.1756650995
 20
59.1355434054
 30
0.0
 10
42.4718369225
 20
59.1520257017
 30
0.0
 10
42.9279099197
 20
59.2490949961
 30
0.0
 10
43.5155741889
 20
59.4819575414
 30
0.0
 10
43.8137122616
 20
59.6367289856
 30
0.0
 10
43.962975446
 20
59.7229056109
 30
0.0
  0
SPLINE
  5
285
100
AcDbEntity
  8
0
100
AcDbSpline
 62
7
  6
BYLAYER
 70
0
 71
3
 72
11
 73
7
 74
0
 42
0.0000001
 43
0.0000001
 44
0.0000000001
 40
0.0
 40
0.0
 40
0.0
 40
0.0
 40
0.2366960351
 40
0.4790836335
 40
0.7321985251
 40
1.0
 40
1.0
 40
1.0
 40
1.0
 10
40.8929404162
 20
78.0061823919
 30
0.0
 10
41.007037723
 20
78.0720420903
 30
0.0
 10
41.2515691641
 20
78.1831603851
 30
0.0
 10
41.649902409
 20
78.2791205776
 30
0.0
 10
42.0759243102
 20
78.3048538796
 30
0.0
 10
42.3656893213
 20
78.2761286484
 30
0.0
 10
42.5126812594
 20
78.251422394
 30
0.0
  0
SPLINE
  5
286
100
AcDbEntity
  8
0
100
AcDbSpline
 62
7
  6
BYLAYER
 70
0
 71
3
 72
15
 73
11
 74
0
 42
0.0000001
 43
0.0000001
 44
0.0000000001
 40
0.0
 40
0.0
 40
0.0
 40
0.0
 40
0.101120888
 40
0.2055007145
 40
0.3159057415
 40
0.4343206264
 40
0.5618836453
 40
0.6989552339
 40
0.8452562838
 40
1.0
 40
1.0
 40
1.0
 40
1.0
 10
27.1185387729
 20
67.3713492087
 30
0.0
 10
26.9856959085
 20
67.4480606646
 30
0.0
 10
26.7326049185
 20
67.6352979479
 30
0.0
 10
26.4165771766
 20
68.0000217206
 30
0.0
 10
26.1661220055
 20
68.4424957493
 30
0.0
 10
25.9845488878
 20
68.9542040479
 30
0.0
 10
25.873766006
 20
69.5265300831
 30
0.0
 10
25.8348848411
 20
70.1502131296
 30
0.0
 10
25.8681327986
 20
70.8151924938
 30
0.0
 10
25.9362691704
 20
71.2675704611
 30
0.0
 10
25.9813622749
 20
71.4979459284
 30
0.0
  0
SPLINE
  5
287
100
AcDbEntity
  8
0
100
AcDbSpline
 62
7
  6
BYLAYER
 70
0
 71
3
 72
10
 73
6
 74
0
 42
0.0000001
 43
0.0000001
 44
0.0000000001
 40
0.0
 40
0.0
 40
0.0
 40
0.0
 40
0.4992647517
 40
0.7496712344
 40
1.0
 40
1.0
 40
1.0
 40
1.0
 10
64.3347247852
 20
53.8460084822
 30
0.0
 10
64.5328665927
 20
53.508084786
 30
0.0
 10
64.7364309451
 20
52.9429634059
 30
0.0
 10
64.8578432786
 20
52.1675481987
 30
0.0
 10
64.8765842681
 20
51.7740975566
 30
0.0
 10
64.8765831864
 20
51.5776860269
 30
0.0
  0
SPLINE
  5
288
100
AcDbEntity
  8
0
100
AcDbSpline
 62
7
  6
BYLAYER
 70
0
 71
3
 72
10
 73
6
 74
0
 42
0.0000001
 43
0.0000001
 44
0.0000000001
 40
0.0
 40
0.0
 40
0.0
 40
0.0
 40
0.4695099962
 40
0.7271958006
 40
1.0
 40
1.0
 40
1.0
 40
1.0
 10
26.2374118947
 20
68.3372900123
 30
0.0
 10
26.5335837177
 20
68.3537723086
 30
0.0
 10
26.9896567149
 20
68.450841603
 30
0.0
 10
27.5773209841
 20
68.6837041483
 30
0.0
 10
27.8754590568
 20
68.8384755924
 30
0.0
 10
28.0247222412
 20
68.9246522177
 30
0.0
  0
SPLINE
  5
289
100
AcDbEntity
  8
0
100
AcDbSpline
 62
7
  6
BYLAYER
 70
0
 71
3
 72
15
 73
11
 74
0
 42
0.0000001
 43
0.0000001
 44
0.0000000001
 40
0.0
 40
0.0
 40
0.0
 40
0.0
 40
0.1108941672
 40
0.2278053408
 40
0.3498849633
 40
0.4761946438
 40
0.6056045365
 40
0.7368834213
 40
0.8688040436
 40
1.0
 40
1.0
 40
1.0
 40
1.0
 10
55.9554745422
 20
69.6969693864
 30
0.0
 10
55.9554745422
 20
69.3569759851
 30
0.0
 10
55.9931541018
 20
68.6581890142
 30
0.0
 10
56.1505722541
 20
67.5957612017
 30
0.0
 10
56.4082958887
 20
66.5045335949
 30
0.0
 10
56.7623846794
 20
65.4005120952
 30
0.0
 10
57.2078091137
 20
64.2996639363
 30
0.0
 10
57.7380160276
 20
63.2178903691
 30
0.0
 10
58.3453036208
 20
62.1711852907
 30
0.0
 10
58.7983486191
 20
61.5027577884
 30
0.0
 10
59.0358641514
 20
61.1781331775
 30
0.0
  0
SPLINE
  5
28A
100
AcDbEntity
  8
0
100
AcDbSpline
 62
7
  6
BYLAYER
 70
0
 71
3
 72
15
 73
11
 74
0
 42
0.0000001
 43
0.0000001
 44
0.0000000001
 40
0.0
 40
0.0
 40
0.0
 40
0.0
 40
0.1141465952
 40
0.2373352439
 40
0.366975646
 40
0.4999989181
 40
0.6330223406
 40
0.7626631822
 40
0.8858525235
 40
1.0
 40
1.0
 40
1.0
 40
1.0
 10
53.9755673118
 20
80.9192130174
 30
0.0
 10
54.1110979712
 20
80.8409661249
 30
0.0
 10
54.3788135943
 20
80.6532806749
 30
0.0
 10
54.7471980419
 20
80.3086725623
 30
0.0
 10
55.086641802
 20
79.901261146
 30
0.0
 10
55.3844398576
 20
79.4464420919
 30
0.0
 10
55.6294282564
 20
78.9611325104
 30
0.0
 10
55.8125382294
 20
78.463459207
 30
0.0
 10
55.926789125
 20
77.9721229164
 30
0.0
 10
55.9554745422
 20
77.6464297852
 30
0.0
 10
55.9554745422
 20
77.4899321367
 30
0.0
  0
SPLINE
  5
28B
100
AcDbEntity
  8
0
100
AcDbSpline
 62
7
  6
BYLAYER
 70
0
 71
3
 72
24
 73
20
 74
0
 42
0.0000001
 43
0.0000001
 44
0.0000000001
 40
0.0
 40
0.0
 40
0.0
 40
0.0
 40
0.0623811613
 40
0.1287357071
 40
0.1983286298
 40
0.2703115983
 40
0.3436930412
 40
0.4174307025
 40
0.4904615443
 40
0.561754312
 40
0.6303577435
 40
0.6954510123
 40
0.7564031924
 40
0.8128443997
 40
0.864748705
 40
0.9125272039
 40
0.9571049062
 40
0.9786665637
 40
1.0
 40
1.0
 40
1.0
 40
1.0
 10
41.4173804355
 20
76.820428591
 30
0.0
 10
41.1968060103
 20
76.6930806474
 30
0.0
 10
40.7240382067
 20
76.4600085695
 30
0.0
 10
39.9614594572
 20
76.183653543
 30
0.0
 10
39.1373243315
 20
75.9744781786
 30
0.0
 10
38.2693793371
 20
75.8368198946
 30
0.0
 10
37.3759421122
 20
75.7736610844
 30
0.0
 10
36.4761056928
 20
75.7863264652
 30
0.0
 10
35.5890519933
 20
75.874543442
 30
0.0
 10
34.7336894953
 20
76.0364304625
 30
0.0
 10
33.9281907686
 20
76.2685652596
 30
0.0
 10
33.1895885736
 20
76.5661126676
 30
0.0
 10
32.5334092669
 20
76.9230199711
 30
0.0
 10
31.9733860019
 20
77.3322216866
 30
0.0
 10
31.5214357034
 20
77.7861469435
 30
0.0
 10
31.1879654139
 20
78.2763503111
 30
0.0
 10
31.0147823444
 20
78.713115382
 30
0.0
 10
30.9470107778
 20
79.0645743719
 30
0.0
 10
30.9357518889
 20
79.2399242538
 30
0.0
 10
30.9357437968
 20
79.3270268768
 30
0.0
  0
SPLINE
  5
28C
100
AcDbEntity
  8
0
100
AcDbSpline
 62
7
  6
BYLAYER
 70
0
 71
3
 72
9
 73
5
 74
0
 42
0.0000001
 43
0.0000001
 44
0.0000000001
 40
0.0
 40
0.0
 40
0.0
 40
0.0
 40
0.4863880542
 40
1.0
 40
1.0
 40
1.0
 40
1.0
 10
28.0247222412
 20
68.9246522177
 30
0.0
 10
28.2114768257
 20
69.0324743838
 30
0.0
 10
28.5832524242
 20
69.275664828
 30
0.0
 10
28.9298939189
 20
69.5531503511
 30
0.0
 10
29.1014392976
 20
69.7029049508
 30
0.0
  0
SPLINE
  5
28D
100
AcDbEntity
  8
0
100
AcDbSpline
 62
7
  6
BYLAYER
 70
0
 71
3
 72
9
 73
5
 74
0
 42
0.0000001
 43
0.0000001
 44
0.0000000001
 40
0.0
 40
0.0
 40
0.0
 40
0.0
 40
0.2650996862
 40
1.0
 40
1.0
 40
1.0
 40
1.0
 10
32.3172989837
 20
77.1675450764
 30
0.0
 10
32.3029620837
 20
77.2684638335
 30
0.0
 10
32.2362474006
 20
77.6470227327
 30
0.0
 10
32.1150592021
 20
78.0176517045
 30
0.0
 10
31.9891623747
 20
78.2706284484
 30
0.0
  0
SPLINE
  5
28E
100
AcDbEntity
  8
0
100
AcDbSpline
 62
7
  6
BYLAYER
 70
0
 71
3
 72
13
 73
9
 74
0
 42
0.0000001
 43
0.0000001
 44
0.0000000001
 40
0.0
 40
0.0
 40
0.0
 40
0.0
 40
0.1111939352
 40
0.2239493617
 40
0.3397796707
 40
0.4599537821
 40
0.7167965292
 40
1.0
 40
1.0
 40
1.0
 40
1.0
 10
9.6387225162
 20
62.520797972
 30
0.0
 10
9.5497475272
 20
62.4694446739
 30
0.0
 10
9.3779963076
 20
62.3524819835
 30
0.0
 10
9.1463008413
 20
62.1391583953
 30
0.0
 10
8.9414575575
 20
61.8891192436
 30
0.0
 10
8.7007364386
 20
61.5012841019
 30
0.0
 10
8.4778278381
 20
60.9276660123
 30
0.0
 10
8.391931035
 20
60.4332246173
 30
0.0
 10
8.3671567949
 20
60.1727505469
 30
0.0
  0
SPLINE
  5
28F
100
AcDbEntity
  8
0
100
AcDbSpline
 62
7
  6
BYLAYER
 70
0
 71
3
 72
13
 73
9
 74
0
 42
0.0000001
 43
0.0000001
 44
0.0000000001
 40
0.0
 40
0.0
 40
0.0
 40
0.0
 40
0.1080947724
 40
0.2182340858
 40
0.3322580584
 40
0.4516863355
 40
0.7106233083
 40
1.0
 40
1.0
 40
1.0
 40
1.0
 10
38.4333893676
 20
89.2226782643
 30
0.0
 10
38.4792948656
 20
89.2491816593
 30
0.0
 10
38.5767529787
 20
89.2948515396
 30
0.0
 10
38.7344736859
 20
89.3384107812
 30
0.0
 10
38.9025825629
 20
89.3571904494
 30
0.0
 10
39.1446313594
 20
89.3487850941
 30
0.0
 10
39.4662289598
 20
89.2712921982
 30
0.0
 10
39.7104803104
 20
89.1549785197
 30
0.0
 10
39.8333728089
 20
89.0840281078
 30
0.0
  0
SPLINE
  5
290
100
AcDbEntity
  8
0
100
AcDbSpline
 62
7
  6
BYLAYER
 70
0
 71
3
 72
13
 73
9
 74
0
 42
0.0000001
 43
0.0000001
 44
0.0000000001
 40
0.0
 40
0.0
 40
0.0
 40
0.0
 40
0.1080942654
 40
0.2182331488
 40
0.3322568368
 40
0.4516850086
 40
0.7106223278
 40
1.0
 40
1.0
 40
1.0
 40
1.0
 10
18.6344819256
 20
77.7918419559
 30
0.0
 10
18.5885754136
 20
77.7653379754
 30
0.0
 10
18.5002928732
 20
77.7037706024
 30
0.0
 10
18.3837064302
 20
77.5889573759
 30
0.0
 10
18.2833863315
 20
77.4527569644
 30
0.0
 10
18.1696393434
 20
77.2389275131
 30
0.0
 10
18.075951269
 20
76.9216594598
 30
0.0
 10
18.0545581365
 20
76.6519666567
 30
0.0
 10
18.0545581365
 20
76.5100591441
 30
0.0
  0
SPLINE
  5
291
100
AcDbEntity
  8
0
100
AcDbSpline
 62
7
  6
BYLAYER
 70
0
 71
3
 72
12
 73
8
 74
0
 42
0.0000001
 43
0.0000001
 44
0.0000000001
 40
0.0
 40
0.0
 40
0.0
 40
0.0
 40
0.1081682922
 40
0.2183712366
 40
0.4513247513
 40
0.7105366624
 40
1.0
 40
1.0
 40
1.0
 40
1.0
 10
64.8765734542
 20
44.7891472623
 30
0.0
 10
64.876572041
 20
44.7541240855
 30
0.0
 10
64.8704397326
 20
44.6832753856
 30
0.0
 10
64.8336608763
 20
44.5412531245
 30
0.0
 10
64.7392562786
 20
44.3669998962
 30
0.0
 10
64.5631358713
 20
44.1822981244
 30
0.0
 10
64.415846106
 20
44.0808924776
 30
0.0
 10
64.334748122
 20
44.0339112368
 30
0.0
  0
SPLINE
  5
292
100
AcDbEntity
  8
0
100
AcDbSpline
 62
7
  6
BYLAYER
 70
0
 71
3
 72
14
 73
10
 74
0
 42
0.0000001
 43
0.0000001
 44
0.0000000001
 40
0.0
 40
0.0
 40
0.0
 40
0.0
 40
0.1080441103
 40
0.218133838
 40
0.3321071546
 40
0.4514836163
 40
0.5774329654
 40
0.7107568073
 40
1.0
 40
1.0
 40
1.0
 40
1.0
 10
55.8113945094
 20
44.9932958572
 30
0.0
 10
55.8113959344
 20
44.9317714957
 30
0.0
 10
55.8007461144
 20
44.8073029261
 30
0.0
 10
55.7529945863
 20
44.6234826129
 30
0.0
 10
55.6743121393
 20
44.4436042333
 30
0.0
 10
55.5655804671
 20
44.2695242285
 30
0.0
 10
55.4280057337
 20
44.1027544559
 30
0.0
 10
55.2019427465
 20
43.88644675
 30
0.0
 10
55.0021648324
 20
43.748865991
 30
0.0
 10
54.8595251235
 20
43.6665134082
 30
0.0
  0
SPLINE
  5
293
100
AcDbEntity
  8
0
100
AcDbSpline
 62
7
  6
BYLAYER
 70
0
 71
3
 72
11
 73
7
 74
0
 42
0.0000001
 43
0.0000001
 44
0.0000000001
 40
0.0
 40
0.0
 40
0.0
 40
0.0
 40
0.2247953405
 40
0.4724585039
 40
0.7343919244
 40
1.0
 40
1.0
 40
1.0
 40
1.0
 10
54.9766228872
 20
43.7993119366
 30
0.0
 10
54.7830890901
 20
43.9234290427
 30
0.0
 10
54.3445349117
 20
44.1356689144
 30
0.0
 10
53.6182257033
 20
44.3385817788
 30
0.0
 10
52.8282049688
 20
44.4332420658
 30
0.0
 10
52.2866027682
 20
44.4201259967
 30
0.0
 10
52.0162501061
 20
44.3935484723
 30
0.0
  0
SPLINE
  5
294
100
AcDbEntity
  8
0
100
AcDbSpline
 62
7
  6
BYLAYER
 70
0
 71
3
 72
11
 73
7
 74
0
 42
0.0000001
 43
0.0000001
 44
0.0000000001
 40
0.0
 40
0.0
 40
0.0
 40
0.0
 40
0.2683818322
 40
0.5216439528
 40
0.7637754952
 40
1.0
 40
1.0
 40
1.0
 40
1.0
 10
31.6013317655
 20
78.2449129439
 30
0.0
 10
31.7516736554
 20
78.2719683937
 30
0.0
 10
32.0481063393
 20
78.3045233925
 30
0.0
 10
32.4843201462
 20
78.2821326344
 30
0.0
 10
32.8919676536
 20
78.186337871
 30
0.0
 10
33.141982443
 20
78.0734079356
 30
0.0
 10
33.2584172274
 20
78.0061714915
 30
0.0
  0
SPLINE
  5
295
100
AcDbEntity
  8
0
100
AcDbSpline
 62
7
  6
BYLAYER
 70
0
 71
3
 72
10
 73
6
 74
0
 42
0.0000001
 43
0.0000001
 44
0.0000000001
 40
0.0
 40
0.0
 40
0.0
 40
0.0
 40
0.270904029
 40
0.5280285495
 40
1.0
 40
1.0
 40
1.0
 40
1.0
 10
32.7340730107
 20
79.1718271767
 30
0.0
 10
32.5960077988
 20
79.0921156652
 30
0.0
 10
32.3330665904
 20
78.925421124
 30
0.0
 10
31.867234489
 20
78.5653452336
 30
0.0
 10
31.5678799271
 20
78.2507959773
 30
0.0
 10
31.4056631822
 20
78.0253397747
 30
0.0
  0
SPLINE
  5
296
100
AcDbEntity
  8
0
100
AcDbSpline
 62
7
  6
BYLAYER
 70
0
 71
3
 72
20
 73
16
 74
0
 42
0.0000001
 43
0.0000001
 44
0.0000000001
 40
0.0
 40
0.0
 40
0.0
 40
0.0
 40
0.0589342552
 40
0.1211481576
 40
0.186142873
 40
0.2533967593
 40
0.3919961614
 40
0.531495089
 40
0.5998428399
 40
0.6663230515
 40
0.7303317904
 40
0.7913557847
 40
0.8489986702
 40
0.9030209825
 40
1.0
 40
1.0
 40
1.0
 40
1.0
 10
43.962975446
 20
59.7229056109
 30
0.0
 10
44.148376879
 20
59.8299465391
 30
0.0
 10
44.517513334
 20
60.0712019567
 30
0.0
 10
45.0464670155
 20
60.4937811559
 30
0.0
 10
45.5587966417
 20
60.9813525915
 30
0.0
 10
46.2155301416
 20
61.7151116867
 30
0.0
 10
46.9435894443
 20
62.742571421
 30
0.0
 10
47.5214170577
 20
63.8657262153
 30
0.0
 10
47.8771906925
 20
64.7974382468
 30
0.0
 10
48.0823259747
 20
65.4907945028
 30
0.0
 10
48.2244306984
 20
66.1726943795
 30
0.0
 10
48.30137722
 20
66.8326975271
 30
0.0
 10
48.3117218793
 20
67.4613890301
 30
0.0
 10
48.239496179
 20
68.2162759339
 30
0.0
 10
48.0843711043
 20
68.7534958351
 30
0.0
 10
47.9274155795
 20
69.0688818415
 30
0.0
  0
SPLINE
  5
297
100
AcDbEntity
  8
0
100
AcDbSpline
 62
7
  6
BYLAYER
 70
0
 71
3
 72
11
 73
7
 74
0
 42
0.0000001
 43
0.0000001
 44
0.0000000001
 40
0.0
 40
0.0
 40
0.0
 40
0.0
 40
0.2668817407
 40
0.5198243167
 40
0.762595321
 40
1.0
 40
1.0
 40
1.0
 40
1.0
 10
48.0347151716
 20
68.5980921012
 30
0.0
 10
47.9822100742
 20
68.4645763781
 30
0.0
 10
47.8622423356
 20
68.2109104991
 30
0.0
 10
47.6307545102
 20
67.8703919002
 30
0.0
 10
47.3552811875
 20
67.5857499186
 30
0.0
 10
47.1434261424
 20
67.4352053011
 30
0.0
 10
47.0328957789
 20
67.3714045277
 30
0.0
  0
SPLINE
  5
298
100
AcDbEntity
  8
0
100
AcDbSpline
 62
7
  6
BYLAYER
 70
0
 71
3
 72
11
 73
7
 74
0
 42
0.0000001
 43
0.0000001
 44
0.0000000001
 40
0.0
 40
0.0
 40
0.0
 40
0.0
 40
0.2403650965
 40
0.4893292433
 40
0.7436868209
 40
1.0
 40
1.0
 40
1.0
 40
1.0
 10
55.3672214084
 20
47.6741934647
 30
0.0
 10
54.9791679306
 20
47.7998707153
 30
0.0
 10
54.1759177036
 20
48.0161293949
 30
0.0
 10
52.9311738379
 20
48.2333373824
 30
0.0
 10
51.645550657
 20
48.3461055302
 30
0.0
 10
50.777790174
 20
48.3500899952
 30
0.0
 10
50.3431251874
 20
48.334042093
 30
0.0
  0
SPLINE
  5
299
100
AcDbEntity
  8
0
100
AcDbSpline
 62
7
  6
BYLAYER
 70
0
 71
3
 72
11
 73
7
 74
0
 42
0.0000001
 43
0.0000001
 44
0.0000000001
 40
0.0
 40
0.0
 40
0.0
 40
0.0
 40
0.2361776375
 40
0.4821443435
 40
0.7370900634
 40
1.0
 40
1.0
 40
1.0
 40
1.0
 10
61.6628294952
 20
45.1105644546
 30
0.0
 10
61.19967111
 20
45.3815508026
 30
0.0
 10
60.2319895216
 20
45.897540808
 30
0.0
 10
58.701028503
 20
46.5793899126
 30
0.0
 10
57.0716538161
 20
47.1801249674
 30
0.0
 10
55.9440117801
 20
47.5188372313
 30
0.0
 10
55.3672214084
 20
47.6741934647
 30
0.0
  0
SPLINE
  5
29A
100
AcDbEntity
  8
0
100
AcDbSpline
 62
7
  6
BYLAYER
 70
0
 71
3
 72
19
 73
15
 74
0
 42
0.0000001
 43
0.0000001
 44
0.0000000001
 40
0.0
 40
0.0
 40
0.0
 40
0.0
 40
0.1410947808
 40
0.2882801542
 40
0.4350803371
 40
0.5750910494
 40
0.6408588874
 40
0.70304319
 40
0.7612989783
 40
0.8155090207
 40
0.865824023
 40
0.9127246721
 40
0.9570578964
 40
1.0
 40
1.0
 40
1.0
 40
1.0
 10
50.9933466878
 20
46.6368128447
 30
0.0
 10
51.2481203412
 20
46.7178305281
 30
0.0
 10
51.7843264246
 20
46.8363442887
 30
0.0
 10
52.6098177708
 20
46.8899509845
 30
0.0
 10
53.4323212144
 20
46.8222949241
 30
0.0
 10
54.0851856045
 20
46.6651921026
 30
0.0
 10
54.5587135101
 20
46.4801059892
 30
0.0
 10
54.8735479185
 20
46.3193704109
 30
0.0
 10
55.1501852828
 20
46.1363205903
 30
0.0
 10
55.3841518835
 20
45.9338284404
 30
0.0
 10
55.5714382342
 20
45.7148273342
 30
0.0
 10
55.7085383574
 20
45.4824730604
 30
0.0
 10
55.7924703208
 20
45.2405959819
 30
0.0
 10
55.8113926247
 20
45.074662206
 30
0.0
 10
55.8113945094
 20
44.9932958572
 30
0.0
  0
SPLINE
  5
29B
100
AcDbEntity
  8
0
100
AcDbSpline
 62
7
  6
BYLAYER
 70
0
 71
3
 72
15
 73
11
 74
0
 42
0.0000001
 43
0.0000001
 44
0.0000000001
 40
0.0
 40
0.0
 40
0.0
 40
0.0
 40
0.1080095103
 40
0.2180556759
 40
0.3319964091
 40
0.4513533399
 40
0.5772589867
 40
0.7104907894
 40
0.8514573704
 40
1.0
 40
1.0
 40
1.0
 40
1.0
 10
30.9357437968
 20
79.3270268768
 30
0.0
 10
30.9357329983
 20
79.4432611136
 30
0.0
 10
30.9559362632
 20
79.6783918079
 30
0.0
 10
31.0460058008
 20
80.0257034607
 30
0.0
 10
31.1947627844
 20
80.365512616
 30
0.0
 10
31.4001855088
 20
80.6944191115
 30
0.0
 10
31.6600684185
 20
81.0094136312
 30
0.0
 10
31.9717398705
 20
81.3077736098
 30
0.0
 10
32.3321045668
 20
81.5866145909
 30
0.0
 10
32.5956352835
 20
81.7536984746
 30
0.0
 10
32.7340730107
 20
81.8336250565
 30
0.0
  0
SPLINE
  5
29C
100
AcDbEntity
  8
0
100
AcDbSpline
 62
7
  6
BYLAYER
 70
0
 71
3
 72
24
 73
20
 74
0
 42
0.0000001
 43
0.0000001
 44
0.0000000001
 40
0.0
 40
0.0
 40
0.0
 40
0.0
 40
0.0213338387
 40
0.0428959545
 40
0.0874746948
 40
0.1352542643
 40
0.1871594242
 40
0.2436011238
 40
0.3045533544
 40
0.3696461399
 40
0.4382485498
 40
0.5095399775
 40
0.5825694795
 40
0.6563061064
 40
0.7296870857
 40
0.801670035
 40
0.8712630885
 40
0.9376185338
 40
1.0
 40
1.0
 40
1.0
 40
1.0
 10
49.1966704322
 20
68.8044248846
 30
0.0
 10
49.2721019028
 20
68.7608662188
 30
0.0
 10
49.4183358738
 20
68.6634410215
 30
0.0
 10
49.688831627
 20
68.4290142
 30
0.0
 10
49.9805038282
 20
68.0606442623
 30
0.0
 10
50.2383093417
 20
67.5267360848
 30
0.0
 10
50.4054558268
 20
66.9083609597
 30
0.0
 10
50.4798319129
 20
66.2187557315
 30
0.0
 10
50.4608403689
 20
65.4720282373
 30
0.0
 10
50.349230781
 20
64.6836052962
 30
0.0
 10
50.1475259299
 20
63.8699587672
 30
0.0
 10
49.8600538356
 20
63.0482550537
 30
0.0
 10
49.4929357614
 20
62.2359402392
 30
0.0
 10
49.0539960417
 20
61.4503265666
 30
0.0
 10
48.5525863234
 20
60.7081620568
 30
0.0
 10
47.9993986918
 20
60.0253219795
 30
0.0
 10
47.4061753699
 20
59.4161775716
 30
0.0
 10
46.785546099
 20
58.8939359353
 30
0.0
 10
46.3473083198
 20
58.6010383985
 30
0.0
 10
46.126731205
 20
58.473688902
 30
0.0
  0
SPLINE
  5
29D
100
AcDbEntity
  8
0
100
AcDbSpline
 62
7
  6
BYLAYER
 70
0
 71
3
 72
24
 73
20
 74
0
 42
0.0000001
 43
0.0000001
 44
0.0000000001
 40
0.0
 40
0.0
 40
0.0
 40
0.0
 40
0.0623811613
 40
0.1287357071
 40
0.1983286298
 40
0.2703115983
 40
0.3436930412
 40
0.4174307025
 40
0.4904615443
 40
0.561754312
 40
0.6303577435
 40
0.6954510123
 40
0.7564031924
 40
0.8128443997
 40
0.864748705
 40
0.9125272039
 40
0.9571049062
 40
0.9786665637
 40
1.0
 40
1.0
 40
1.0
 40
1.0
 10
32.7340730107
 20
81.8336250565
 30
0.0
 10
32.9546474359
 20
81.9609730001
 30
0.0
 10
33.4274152394
 20
82.1940450779
 30
0.0
 10
34.189993989
 20
82.4704001045
 30
0.0
 10
35.0141291147
 20
82.6795754689
 30
0.0
 10
35.8820741091
 20
82.8172337529
 30
0.0
 10
36.775511334
 20
82.8803925631
 30
0.0
 10
37.6753477534
 20
82.8677271823
 30
0.0
 10
38.5624014529
 20
82.7795102054
 30
0.0
 10
39.4177639509
 20
82.617623185
 30
0.0
 10
40.2232626776
 20
82.3854883879
 30
0.0
 10
40.9618648726
 20
82.0879409799
 30
0.0
 10
41.6180441793
 20
81.7310336764
 30
0.0
 10
42.1780674443
 20
81.3218319609
 30
0.0
 10
42.6300177428
 20
80.867906704
 30
0.0
 10
42.9634880323
 20
80.3777033364
 30
0.0
 10
43.1366711017
 20
79.9409382655
 30
0.0
 10
43.2044426684
 20
79.5894792756
 30
0.0
 10
43.2157015573
 20
79.4141293937
 30
0.0
 10
43.2157096494
 20
79.3270267706
 30
0.0
  0
SPLINE
  5
29E
100
AcDbEntity
  8
0
100
AcDbSpline
 62
7
  6
BYLAYER
 70
0
 71
3
 72
15
 73
11
 74
0
 42
0.0000001
 43
0.0000001
 44
0.0000000001
 40
0.0
 40
0.0
 40
0.0
 40
0.0
 40
0.1485417129
 40
0.2895056526
 40
0.4227356905
 40
0.5486411854
 40
0.6679989003
 40
0.7819404326
 40
0.8919882586
 40
1.0
 40
1.0
 40
1.0
 40
1.0
 10
46.126731205
 20
58.473688902
 30
0.0
 10
45.9882946616
 20
58.3937630036
 30
0.0
 10
45.7118342334
 20
58.2490831247
 30
0.0
 10
45.2901733954
 20
58.0764248147
 30
0.0
 10
44.8759557832
 20
57.9556918072
 30
0.0
 10
44.473222961
 20
57.888127108
 30
0.0
 10
44.0856695974
 20
57.8746753036
 30
0.0
 10
43.7170056205
 20
57.9157559463
 30
0.0
 10
43.3711846021
 20
58.0114048994
 30
0.0
 10
43.1574508315
 20
58.1114761284
 30
0.0
 10
43.0567919777
 20
58.1696026018
 30
0.0
  0
SPLINE
  5
29F
100
AcDbEntity
  8
0
100
AcDbSpline
 62
7
  6
BYLAYER
 70
0
 71
3
 72
13
 73
9
 74
0
 42
0.0000001
 43
0.0000001
 44
0.0000000001
 40
0.0
 40
0.0
 40
0.0
 40
0.0
 40
0.2893766917
 40
0.5483136645
 40
0.6677419416
 40
0.7817659142
 40
0.8919052276
 40
1.0
 40
1.0
 40
1.0
 40
1.0
 10
20.0344653669
 20
77.6531917994
 30
0.0
 10
19.9115728684
 20
77.7241422113
 30
0.0
 10
19.6673215178
 20
77.8404558898
 30
0.0
 10
19.3457239174
 20
77.9179487857
 30
0.0
 10
19.1036751209
 20
77.926354141
 30
0.0
 10
18.9355662439
 20
77.9075744728
 30
0.0
 10
18.7778455368
 20
77.8640152312
 30
0.0
 10
18.6803874236
 20
77.8183453509
 30
0.0
 10
18.6344819256
 20
77.7918419559
 30
0.0
  0
SPLINE
  5
2A0
100
AcDbEntity
  8
0
100
AcDbSpline
 62
7
  6
BYLAYER
 70
0
 71
3
 72
15
 73
11
 74
0
 42
0.0000001
 43
0.0000001
 44
0.0000000001
 40
0.0
 40
0.0
 40
0.0
 40
0.0
 40
0.1141474765
 40
0.2373368178
 40
0.3669776594
 40
0.5000010819
 40
0.633024354
 40
0.7626647561
 40
0.8858534048
 40
1.0
 40
1.0
 40
1.0
 40
1.0
 10
36.1565671003
 20
66.0590958283
 30
0.0
 10
36.1565671003
 20
66.2155934768
 30
0.0
 10
36.127881683
 20
66.541286608
 30
0.0
 10
36.0136307874
 20
67.0326228986
 30
0.0
 10
35.8305208144
 20
67.530296202
 30
0.0
 10
35.5855324156
 20
68.0156057835
 30
0.0
 10
35.28773436
 20
68.4704248376
 30
0.0
 10
34.9482906
 20
68.8778362539
 30
0.0
 10
34.5799061523
 20
69.2224443665
 30
0.0
 10
34.3121905292
 20
69.4101298165
 30
0.0
 10
34.1766598698
 20
69.488376709
 30
0.0
  0
SPLINE
  5
2A1
100
AcDbEntity
  8
0
100
AcDbSpline
 62
7
  6
BYLAYER
 70
0
 71
3
 72
15
 73
11
 74
0
 42
0.0000001
 43
0.0000001
 44
0.0000000001
 40
0.0
 40
0.0
 40
0.0
 40
0.0
 40
0.1311959564
 40
0.2631165787
 40
0.3943954635
 40
0.5238053562
 40
0.6501150367
 40
0.7721946592
 40
0.8891058328
 40
1.0
 40
1.0
 40
1.0
 40
1.0
 10
39.2369567094
 20
49.7472968691
 30
0.0
 10
38.9994411771
 20
50.07192148
 30
0.0
 10
38.5463961788
 20
50.7403489823
 30
0.0
 10
37.9391085856
 20
51.7870540607
 30
0.0
 10
37.4089016717
 20
52.8688276279
 30
0.0
 10
36.9634772374
 20
53.9696757868
 30
0.0
 10
36.6093884467
 20
55.0736972865
 30
0.0
 10
36.3516648121
 20
56.1649248932
 30
0.0
 10
36.1942466599
 20
57.2273527058
 30
0.0
 10
36.1565671003
 20
57.9261396767
 30
0.0
 10
36.1565671003
 20
58.266133078
 30
0.0
  0
SPLINE
  5
2A2
100
AcDbEntity
  8
0
100
AcDbSpline
 62
7
  6
BYLAYER
 70
0
 71
3
 72
11
 73
7
 74
0
 42
0.0000001
 43
0.0000001
 44
0.0000000001
 40
0.0
 40
0.0
 40
0.0
 40
0.0
 40
0.2330361121
 40
0.4817929834
 40
0.7398667109
 40
1.0
 40
1.0
 40
1.0
 40
1.0
 10
45.8439684418
 20
38.5359927431
 30
0.0
 10
45.8108318077
 20
38.9226502756
 30
0.0
 10
45.6748004037
 20
39.7170198863
 30
0.0
 10
45.3012168618
 20
40.8944850233
 30
0.0
 10
44.7658114481
 20
42.0574196245
 30
0.0
 10
44.3129861753
 20
42.7949009125
 30
0.0
 10
44.0642574804
 20
43.1495783144
 30
0.0
  0
SPLINE
  5
2A3
100
AcDbEntity
  8
0
100
AcDbSpline
 62
7
  6
BYLAYER
 70
0
 71
3
 72
12
 73
8
 74
0
 42
0.0000001
 43
0.0000001
 44
0.0000000001
 40
0.0
 40
0.0
 40
0.0
 40
0.0
 40
0.1133891622
 40
0.2280753345
 40
0.4656881291
 40
0.7213300676
 40
1.0
 40
1.0
 40
1.0
 40
1.0
 10
47.0328957789
 20
67.3714045277
 30
0.0
 10
46.9548583033
 20
67.3263594275
 30
0.0
 10
46.791668379
 20
67.2460609378
 30
0.0
 10
46.4403406181
 20
67.1270591874
 30
0.0
 10
45.9563631983
 20
67.0620402945
 30
0.0
 10
45.3414799132
 20
67.1185087546
 30
0.0
 10
44.9310876034
 20
67.2367133181
 30
0.0
 10
44.7235275452
 20
67.313895261
 30
0.0
  0
SPLINE
  5
2A4
100
AcDbEntity
  8
0
100
AcDbSpline
 62
7
  6
BYLAYER
 70
0
 71
3
 72
20
 73
16
 74
0
 42
0.0000001
 43
0.0000001
 44
0.0000000001
 40
0.0
 40
0.0
 40
0.0
 40
0.0
 40
0.1257173153
 40
0.2513478141
 40
0.3768784049
 40
0.5023115121
 40
0.627677257
 40
0.6903711565
 40
0.7531064504
 40
0.8159211178
 40
0.8788163412
 40
0.9102581759
 40
0.9415912877
 40
0.9720490508
 40
1.0
 40
1.0
 40
1.0
 40
1.0
 10
64.8765831864
 20
51.5776860269
 30
0.0
 10
64.8765826175
 20
51.4743648258
 30
0.0
 10
64.8714101776
 20
51.2677610131
 30
0.0
 10
64.8489640707
 20
50.9587318406
 30
0.0
 10
64.8124247415
 20
50.6512806808
 30
0.0
 10
64.7619621443
 20
50.3460335208
 30
0.0
 10
64.7080305655
 20
50.0939754293
 30
0.0
 10
64.6568799136
 20
49.8942825283
 30
0.0
 10
64.6138014935
 20
49.7456553376
 30
0.0
 10
64.5650686723
 20
49.5986188287
 30
0.0
 10
64.5180331822
 20
49.4781761263
 30
0.0
 10
64.4736561585
 20
49.3848850231
 30
0.0
 10
64.4365372584
 20
49.317701406
 30
0.0
 10
64.3929098967
 20
49.2580130391
 30
0.0
 10
64.3566726669
 20
49.2252743961
 30
0.0
 10
64.3369591926
 20
49.2134814948
 30
0.0
  0
SPLINE
  5
2A5
100
AcDbEntity
  8
0
100
AcDbSpline
 62
7
  6
BYLAYER
 70
0
 71
3
 72
15
 73
11
 74
0
 42
0.0000001
 43
0.0000001
 44
0.0000000001
 40
0.0
 40
0.0
 40
0.0
 40
0.0
 40
0.1221903836
 40
0.2478721866
 40
0.3761597375
 40
0.5059510791
 40
0.6356201363
 40
0.7629961477
 40
0.8854600719
 40
1.0
 40
1.0
 40
1.0
 40
1.0
 10
55.7742634358
 20
59.2935359601
 30
0.0
 10
55.6800677233
 20
59.6548992473
 30
0.0
 10
55.5114107908
 20
60.3938679009
 30
0.0
 10
55.3057164574
 20
61.5251783616
 30
0.0
 10
55.1342822737
 20
62.6856035326
 30
0.0
 10
54.9907489596
 20
63.8620092454
 30
0.0
 10
54.8707763786
 20
65.0382176465
 30
0.0
 10
54.7713361318
 20
66.1938428175
 30
0.0
 10
54.6905300319
 20
67.3045524739
 30
0.0
 10
54.6464815654
 20
68.0275625606
 30
0.0
 10
54.6273054901
 20
68.3770940272
 30
0.0
  0
SPLINE
  5
2A6
100
AcDbEntity
  8
0
100
AcDbSpline
 62
7
  6
BYLAYER
 70
0
 71
3
 72
9
 73
5
 74
0
 42
0.0000001
 43
0.0000001
 44
0.0000000001
 40
0.0
 40
0.0
 40
0.0
 40
0.0
 40
0.4951554281
 40
1.0
 40
1.0
 40
1.0
 40
1.0
 10
56.337493508
 20
56.0852952963
 30
0.0
 10
56.2946252449
 20
56.6219462364
 30
0.0
 10
56.1495186079
 20
57.7014770985
 30
0.0
 10
55.912388745
 20
58.7637229127
 30
0.0
 10
55.773936059
 20
59.2948693569
 30
0.0
  0
SPLINE
  5
2A7
100
AcDbEntity
  8
0
100
AcDbSpline
 62
7
  6
BYLAYER
 70
0
 71
3
 72
11
 73
7
 74
0
 42
0.0000001
 43
0.0000001
 44
0.0000000001
 40
0.0
 40
0.0
 40
0.0
 40
0.0
 40
0.2556622647
 40
0.5085190055
 40
0.7572346678
 40
1.0
 40
1.0
 40
1.0
 40
1.0
 10
44.123458171
 20
50.787244019
 30
0.0
 10
44.5757879986
 20
50.5260846821
 30
0.0
 10
45.4925668539
 20
50.0353735849
 30
0.0
 10
46.9099331462
 20
49.4108960562
 30
0.0
 10
48.3548052401
 20
48.9291466879
 30
0.0
 10
49.3415623473
 20
48.7244754962
 30
0.0
 10
49.8334993799
 20
48.6614271584
 30
0.0
  0
SPLINE
  5
2A8
100
AcDbEntity
  8
0
100
AcDbSpline
 62
7
  6
BYLAYER
 70
0
 71
3
 72
11
 73
7
 74
0
 42
0.0000001
 43
0.0000001
 44
0.0000000001
 40
0.0
 40
0.0
 40
0.0
 40
0.0
 40
0.2307429876
 40
0.4699965276
 40
0.7248163469
 40
1.0
 40
1.0
 40
1.0
 40
1.0
 10
33.2584172274
 20
78.0061714915
 30
0.0
 10
33.4010113829
 20
77.9238290538
 30
0.0
 10
33.6719708233
 20
77.7197824536
 30
0.0
 10
34.0039401765
 20
77.3177715659
 30
0.0
 10
34.2592756802
 20
76.8279457558
 30
0.0
 10
34.3715329221
 20
76.4646520328
 30
0.0
 10
34.415525606
 20
76.2732683173
 30
0.0
  0
SPLINE
  5
2A9
100
AcDbEntity
  8
0
100
AcDbSpline
 62
7
  6
BYLAYER
 70
0
 71
3
 72
9
 73
5
 74
0
 42
0.0000001
 43
0.0000001
 44
0.0000000001
 40
0.0
 40
0.0
 40
0.0
 40
0.0
 40
0.5136086343
 40
1.0
 40
1.0
 40
1.0
 40
1.0
 10
31.2646015828
 20
68.453170249
 30
0.0
 10
31.0931441451
 20
68.3035220197
 30
0.0
 10
30.7466850166
 20
68.026230109
 30
0.0
 10
30.3751233571
 20
67.7831946127
 30
0.0
 10
30.1884780002
 20
67.6754355089
 30
0.0
  0
SPLINE
  5
2AA
100
AcDbEntity
  8
0
100
AcDbSpline
 62
7
  6
BYLAYER
 70
0
 71
3
 72
11
 73
7
 74
0
 42
0.0000001
 43
0.0000001
 44
0.0000000001
 40
0.0
 40
0.0
 40
0.0
 40
0.0
 40
0.2630031056
 40
0.5185309487
 40
0.7644439583
 40
1.0
 40
1.0
 40
1.0
 40
1.0
 10
50.34280191
 20
55.5557662958
 30
0.0
 10
50.7724900382
 20
55.6762785923
 30
0.0
 10
51.6257014392
 20
55.8933052472
 30
0.0
 10
52.9029671334
 20
56.1273404732
 30
0.0
 10
54.1510146972
 20
56.2359982919
 30
0.0
 10
54.9710941769
 20
56.1993830266
 30
0.0
 10
55.3671912074
 20
56.1458712542
 30
0.0
  0
SPLINE
  5
2AB
100
AcDbEntity
  8
0
100
AcDbSpline
 62
7
  6
BYLAYER
 70
0
 71
3
 72
11
 73
7
 74
0
 42
0.0000001
 43
0.0000001
 44
0.0000000001
 40
0.0
 40
0.0
 40
0.0
 40
0.0
 40
0.2358681225
 40
0.4855448492
 40
0.7422890952
 40
1.0
 40
1.0
 40
1.0
 40
1.0
 10
47.8817331412
 20
54.3506667905
 30
0.0
 10
48.0539620494
 20
54.481993435
 30
0.0
 10
48.4241857099
 20
54.7320680816
 30
0.0
 10
49.0226329016
 20
55.060067274
 30
0.0
 10
49.6658663295
 20
55.3425623319
 30
0.0
 10
50.114753552
 20
55.4925689007
 30
0.0
 10
50.34280191
 20
55.5557662958
 30
0.0
  0
SPLINE
  5
2AC
100
AcDbEntity
  8
0
100
AcDbSpline
 62
7
  6
BYLAYER
 70
0
 71
3
 72
14
 73
10
 74
0
 42
0.0000001
 43
0.0000001
 44
0.0000000001
 40
0.0
 40
0.0
 40
0.0
 40
0.0
 40
0.0995237217
 40
0.2044085566
 40
0.3162208728
 40
0.4360331397
 40
0.5644563724
 40
0.7015711437
 40
1.0
 40
1.0
 40
1.0
 40
1.0
 10
46.7750114646
 20
52.8191673103
 30
0.0
 10
46.7820148879
 20
52.8830611944
 30
0.0
 10
46.8074486833
 20
53.013263418
 30
0.0
 10
46.8761967936
 20
53.2062396213
 30
0.0
 10
46.9755727596
 20
53.4001352618
 30
0.0
 10
47.1043358667
 20
53.594250497
 30
0.0
 10
47.261247485
 20
53.7878531028
 30
0.0
 10
47.512964097
 20
54.0515069483
 30
0.0
 10
47.7284682923
 20
54.2338004727
 30
0.0
 10
47.8817331412
 20
54.3506667905
 30
0.0
  0
SPLINE
  5
2AD
100
AcDbEntity
  8
0
100
AcDbSpline
 62
7
  6
BYLAYER
 70
0
 71
3
 72
15
 73
11
 74
0
 42
0.0000001
 43
0.0000001
 44
0.0000000001
 40
0.0
 40
0.0
 40
0.0
 40
0.0
 40
0.1485417129
 40
0.2895056526
 40
0.4227356905
 40
0.5486411854
 40
0.6679989003
 40
0.7819404326
 40
0.8919882586
 40
1.0
 40
1.0
 40
1.0
 40
1.0
 10
30.1884780002
 20
67.6754355089
 30
0.0
 10
30.0500414568
 20
67.5955096105
 30
0.0
 10
29.7735810286
 20
67.4508297316
 30
0.0
 10
29.3519201905
 20
67.2781714216
 30
0.0
 10
28.9377025784
 20
67.1574384141
 30
0.0
 10
28.5349697562
 20
67.0898737148
 30
0.0
 10
28.1474163926
 20
67.0764219105
 30
0.0
 10
27.7787524157
 20
67.1175025532
 30
0.0
 10
27.4329313973
 20
67.2131515063
 30
0.0
 10
27.2191976267
 20
67.3132227353
 30
0.0
 10
27.1185387729
 20
67.3713492087
 30
0.0
  0
SPLINE
  5
2AE
100
AcDbEntity
  8
0
100
AcDbSpline
 62
7
  6
BYLAYER
 70
0
 71
3
 72
9
 73
5
 74
0
 42
0.0000001
 43
0.0000001
 44
0.0000000001
 40
0.0
 40
0.0
 40
0.0
 40
0.0
 40
0.2435376026
 40
1.0
 40
1.0
 40
1.0
 40
1.0
 10
61.8098564672
 20
47.7538474692
 30
0.0
 10
61.8031109843
 20
47.8325576899
 30
0.0
 10
61.769805173
 20
48.1552600301
 30
0.0
 10
61.7148406857
 20
48.4756272085
 30
0.0
 10
61.6628294952
 20
48.7154330024
 30
0.0
  0
SPLINE
  5
2AF
100
AcDbEntity
  8
0
100
AcDbSpline
 62
7
  6
BYLAYER
 70
0
 71
3
 72
10
 73
6
 74
0
 42
0.0000001
 43
0.0000001
 44
0.0000000001
 40
0.0
 40
0.0
 40
0.0
 40
0.0
 40
0.2408739564
 40
0.4906006295
 40
1.0
 40
1.0
 40
1.0
 40
1.0
 10
61.6628294952
 20
48.715432507
 30
0.0
 10
61.5948724189
 20
49.0311245224
 30
0.0
 10
61.4186118316
 20
49.6666699527
 30
0.0
 10
60.9201688161
 20
50.9126810978
 30
0.0
 10
60.3818984632
 20
51.7916647603
 30
0.0
 10
59.9540533017
 20
52.3239474622
 30
0.0
  0
SPLINE
  5
2B0
100
AcDbEntity
  8
0
100
AcDbSpline
 62
7
  6
BYLAYER
 70
0
 71
3
 72
13
 73
9
 74
0
 42
0.0000001
 43
0.0000001
 44
0.0000000001
 40
0.0
 40
0.0
 40
0.0
 40
0.0
 40
0.2755138312
 40
0.5302705145
 40
0.6514616616
 40
0.7694795011
 40
0.8853021595
 40
1.0
 40
1.0
 40
1.0
 40
1.0
 10
39.7277645081
 20
76.2375144204
 30
0.0
 10
39.7708198505
 20
76.4329511752
 30
0.0
 10
39.8817637648
 20
76.8038834819
 30
0.0
 10
40.0990129175
 20
77.228025288
 30
0.0
 10
40.3120814693
 20
77.5175260203
 30
0.0
 10
40.4877100035
 20
77.7071616904
 30
0.0
 10
40.6807540694
 20
77.8718331973
 30
0.0
 10
40.8207858836
 20
77.9645330673
 30
0.0
 10
40.8929404162
 20
78.0061823919
 30
0.0
  0
ELLIPSE
  5
2B1
100
AcDbEntity
  8
0
100
AcDbEllipse
 62
7
  6
BYLAYER
 10
67.6580580048
 20
53.7968315406
 30
0.0
 11
-17.3240172219
 21
19.6736722831
 31
0.0
 40
0.6711910812
 41
1.2636493977
 42
1.3371819388
  0
ELLIPSE
  5
2B2
100
AcDbEntity
  8
0
100
AcDbEllipse
 62
7
  6
BYLAYER
 10
30.6805831501
 20
75.1453036349
 30
0.0
 11
21.7383274934
 21
8.8342789651
 31
0.0
 40
0.1573888091
 41
-2.3205653545
 42
-2.2693115059
  0
ENDSEC
  0
SECTION
  2
OBJECTS
  0
DICTIONARY
  5
C
100
AcDbDictionary
280
0
281
1
  3
ACAD_GROUP
350
D
  3
ACAD_MLINESTYLE
350
17
  3
ACAD_LAYOUT
350
1A
  3
ACAD_PLOTSETTINGS
350
19
  3
ACAD_PLOTSTYLENAME
350
E
  0
DICTIONARY
  5
D
102
{ACAD_REACTORS
330
C
102
}
100
AcDbDictionary
280
0
281
1
  0
ACDBDICTIONARYWDFLT
  5
E
102
{ACAD_REACTORS
330
C
102
}
100
AcDbDictionary
281
1
  3
Normal
350
F
100
AcDbDictionaryWithDefault
340
F
  0
DICTIONARY
  5
17
102
{ACAD_REACTORS
330
C
102
}
100
AcDbDictionary
280
0
281
1
  3
Standard
350
18
  0
DICTIONARY
  5
19
102
{ACAD_REACTORS
330
C
102
}
100
AcDbDictionary
281
1
  0
DICTIONARY
  5
1A
102
{ACAD_REACTORS
330
C
102
}
100
AcDbDictionary
281
1
  3
Model
350
2B3
  3
Layout1
350
2B4
  0
ACDBPLACEHOLDER
  5
F
102
{ACAD_REACTORS
330
E
102
}
  0
MLINESTYLE
  5
18
102
{ACAD_REACTORS
330
17
102
}
100
AcDbMlineStyle
  2
STANDARD
 70
0
  3

 62
256
 51
90.0
 52
90.0
 71
2
 49
0.5
 62
256
  6
BYLAYER
 49
-0.5
 62
256
  6
BYLAYER
  0
LAYOUT
  5
2B3
102
{ACAD_REACTORS
330
1A
102
}
100
AcDbPlotSettings
  1

  2
none_device
  4

  6

 40
0.0
 41
0.0
 42
0.0
 43
0.0
 44
210.0
 45
297.0
 46
0.0
 47
0.0
 48
0.0
 49
0.0
140
0.0
141
0.0
142
1.0
143
1.0
 70
1024
 72
1
 73
0
 74
0
  7

 75
0
147
1.0
148
0.0
149
0.0
100
AcDbLayout
  1
Model
 70
0
 71
0
 10
0.0
 20
0.0
 11
210.0
 21
297.0
 12
0.0
 22
0.0
 32
0.0
 14
0.0
 24
0.0
 34
0.0
 15
0.0
 25
0.0
 35
0.0
146
0.0
 13
0.0
 23
0.0
 33
0.0
 16
1.0
 26
0.0
 36
0.0
 17
0.0
 27
1.0
 37
0.0
 76
0
330
210
345
0
346
0
  0
LAYOUT
  5
2B4
102
{ACAD_REACTORS
330
1A
102
}
100
AcDbPlotSettings
  1

  2
none_device
  4

  6

 40
0.0
 41
0.0
 42
0.0
 43
0.0
 44
210.0
 45
297.0
 46
0.0
 47
0.0
 48
0.0
 49
0.0
140
0.0
141
0.0
142
1.0
143
1.0
 70
0
 72
1
 73
0
 74
0
  7

 75
0
147
1.0
148
0.0
149
0.0
100
AcDbLayout
  1
Layout1
 70
0
 71
1
 10
0.0
 20
0.0
 11
210.0
 21
297.0
 12
0.0
 22
0.0
 32
0.0
 14
0.0
 24
0.0
 34
0.0
 15
0.0
 25
0.0
 35
0.0
146
0.0
 13
0.0
 23
0.0
 33
0.0
 16
1.0
 26
0.0
 36
0.0
 17
0.0
 27
1.0
 37
0.0
 76
0
330
211
345
0
346
0
  0
ENDSEC
  0
EOF
