999
DXF file: C:\Users\sesa63760\Dev\_Creo\CAD\MCADID0003595_3D-CAD\drw0001_7.dxf
999
Pro/ENGINEER 2019471 by Parametric Technology Corporation
  0
SECTION
  2
HEADER
  9
$ACADVER
  1
AC1024
  9
$DWGCODEPAGE
  3
ANSI_1252
  9
$EXTMAX
 10
94.656467203
 20
133.87128933
 30
0.0
  9
$EXTMIN
 10
0.0
 20
0.0
 30
0.0
  9
$LIMMIN
 10
0.0
 20
0.0
  9
$LIMMAX
 10
94.656467203
 20
133.87128933
  9
$VIEWCTR
 10
47.3282336015
 20
66.935644665
  9
$VIEWSIZE
 40
133.87128933
  9
$CLAYER
  8
0
  9
$LTSCALE
 40
8.726424786
  9
$CELTYPE
  6
BYLAYER
  9
$DIMSCALE
 40
1.0
  9
$DIMASZ
 40
1.1268627048
  9
$DIMEXO
 40
1.0
  9
$DIMDLI
 40
6.0291662157
  9
$DIMEXE
 40
1.0
  9
$DIMCEN
 40
1.4279604195
  9
$DIMLFAC
 40
1.0
  9
$DIMBLK
  1
_FILLED
  9
$DIMALT
 70
0
  9
$DIMALTF
 40
0.0393700787
  9
$DIMTXT
 40
1.5776077867
  9
$DIMTOL
 70
1
  9
$DIMLIM
 70
0
  9
$DIMTFAC
 40
1.0
  9
$DIMTP
 40
0.01
  9
$DIMTM
 40
0.01
  9
$DIMGAP
 40
0.625
  9
$DIMDSEP
 70
46
  9
$AUNITS
 70
0
  9
$PDMODE
 70
3
  9
$PDSIZE
 40
0.3125
  9
$HANDSEED
  5
338
  9
$TILEMODE
 70
1
  9
$MEASUREMENT
 70
1
  9
$INSUNITS
 70
4
  0
ENDSEC
  0
SECTION
  2
CLASSES
  0
CLASS
  1
ACDBDICTIONARYWDFLT
  2
AcDbDictionaryWithDefault
  3
AutoCAD 2000
 90
0
 91
1
280
0
281
0
  0
CLASS
  1
ACDBPLACEHOLDER
  2
AcDbPlaceHolder
  3
AutoCAD 2000
 90
0
 91
1
280
0
281
0
  0
CLASS
  1
LAYOUT
  2
AcDbLayout
  3
AutoCAD 2000
 90
0
 91
0
280
0
281
0
  0
ENDSEC
  0
SECTION
  2
TABLES
  0
TABLE
  2
VPORT
  5
8
100
AcDbSymbolTable
 70
2
  0
VPORT
  5
1F4
100
AcDbSymbolTableRecord
100
AcDbViewportTableRecord
  2
*ACTIVE
 70
0
 10
0.0
 20
0.0
 11
1.0
 21
1.0
 12
47.3282336015
 22
66.935644665
 13
0.0
 23
0.0
 14
1.0
 24
1.0
 15
0.0
 25
0.0
 16
0.0
 26
0.0
 36
1.0
 17
0.0
 27
0.0
 37
0.0
 40
133.87128933
 41
0.7070707071
 42
50.0
 43
0.0
 44
0.0
 50
0.0
 51
0.0
 71
0
 72
100
 73
1
 74
1
 75
0
 76
0
 77
0
 78
0
  0
ENDTAB
  0
TABLE
  2
LTYPE
  5
5
100
AcDbSymbolTable
 70
6
  0
LTYPE
  5
14
100
AcDbSymbolTableRecord
100
AcDbLinetypeTableRecord
  2
BYBLOCK
 70
0
  3

 72
65
 73
0
 40
0.0
  0
LTYPE
  5
15
100
AcDbSymbolTableRecord
100
AcDbLinetypeTableRecord
  2
BYLAYER
 70
0
  3

 72
65
 73
0
 40
0.0
  0
LTYPE
  5
16
100
AcDbSymbolTableRecord
100
AcDbLinetypeTableRecord
  2
CONTINUOUS
 70
64
  3
Solid line
 72
65
 73
0
 40
0.0
  0
LTYPE
  5
1F5
100
AcDbSymbolTableRecord
100
AcDbLinetypeTableRecord
  2
CENTER
 70
64
  3
____ _ ____ _ ____ _ ____ _ ____ _ ____ _ ____
 72
65
 73
4
 40
0.6
 49
0.375
 74
0
 49
-0.075
 74
0
 49
0.075
 74
0
 49
-0.075
 74
0
  0
LTYPE
  5
1F6
100
AcDbSymbolTableRecord
100
AcDbLinetypeTableRecord
  2
HIDDEN
 70
64
  3
- - - - - - - - - - - - - - - - - - - -
 72
65
 73
2
 40
0.2
 49
0.1
 74
0
 49
-0.1
 74
0
  0
LTYPE
  5
1F7
100
AcDbSymbolTableRecord
100
AcDbLinetypeTableRecord
  2
PHANTOM
 70
64
  3
_____ _ _ _____ _ _ _____ _ _ _____
 72
65
 73
6
 40
0.8
 49
0.45
 74
0
 49
-0.05
 74
0
 49
0.1
 74
0
 49
-0.05
 74
0
 49
0.1
 74
0
 49
-0.05
 74
0
  0
LTYPE
  5
1F8
100
AcDbSymbolTableRecord
100
AcDbLinetypeTableRecord
  2
DOT
 70
64
  3
. . . . . . . . . . . . . . . . . . . .
 72
65
 73
2
 40
0.2
 49
0.1
 74
0
 49
-0.1
 74
0
  0
LTYPE
  5
1F9
100
AcDbSymbolTableRecord
100
AcDbLinetypeTableRecord
  2
DASHED
 70
64
  3
- - - - - - - - - - - - - - - - - - - -
 72
65
 73
2
 40
0.2
 49
0.1
 74
0
 49
-0.1
 74
0
  0
ENDTAB
  0
TABLE
  2
LAYER
  5
2
100
AcDbSymbolTable
 70
36
  0
LAYER
  5
10
100
AcDbSymbolTableRecord
100
AcDbLayerTableRecord
  2
0
 70
0
 62
7
  6
CONTINUOUS
370
-3
390
F
  0
LAYER
  5
1FA
100
AcDbSymbolTableRecord
100
AcDbLayerTableRecord
  2
DEFAULT_1
 70
0
 62
7
  6
CENTER
370
-3
390
F
  0
LAYER
  5
1FB
100
AcDbSymbolTableRecord
100
AcDbLayerTableRecord
  2
DEFAULT_2
 70
0
 62
7
  6
HIDDEN
370
-3
390
F
  0
LAYER
  5
1FC
100
AcDbSymbolTableRecord
100
AcDbLayerTableRecord
  2
DEFAULT_3
 70
0
 62
7
  6
PHANTOM
370
-3
390
F
  0
LAYER
  5
1FD
100
AcDbSymbolTableRecord
100
AcDbLayerTableRecord
  2
00_COMPONENTS
 70
0
 62
7
  6
CONTINUOUS
370
-3
390
F
  0
LAYER
  5
1FE
100
AcDbSymbolTableRecord
100
AcDbLayerTableRecord
  2
01_1_DEFAULT_DATUMS
 70
0
 62
7
  6
CONTINUOUS
370
-3
390
F
  0
LAYER
  5
1FF
100
AcDbSymbolTableRecord
100
AcDbLayerTableRecord
  2
01_PLANES
 70
0
 62
7
  6
CONTINUOUS
370
-3
390
F
  0
LAYER
  5
200
100
AcDbSymbolTableRecord
100
AcDbLayerTableRecord
  2
02_COORD_SYS
 70
0
 62
7
  6
CONTINUOUS
370
-3
390
F
  0
LAYER
  5
201
100
AcDbSymbolTableRecord
100
AcDbLayerTableRecord
  2
03_AXES
 70
0
 62
7
  6
CONTINUOUS
370
-3
390
F
  0
LAYER
  5
202
100
AcDbSymbolTableRecord
100
AcDbLayerTableRecord
  2
04_POINTS
 70
0
 62
7
  6
CONTINUOUS
370
-3
390
F
  0
LAYER
  5
203
100
AcDbSymbolTableRecord
100
AcDbLayerTableRecord
  2
05_CURVES
 70
0
 62
7
  6
CONTINUOUS
370
-3
390
F
  0
LAYER
  5
204
100
AcDbSymbolTableRecord
100
AcDbLayerTableRecord
  2
06_SURFS
 70
0
 62
7
  6
CONTINUOUS
370
-3
390
F
  0
LAYER
  5
205
100
AcDbSymbolTableRecord
100
AcDbLayerTableRecord
  2
07_COSMETICS
 70
0
 62
7
  6
CONTINUOUS
370
-3
390
F
  0
LAYER
  5
206
100
AcDbSymbolTableRecord
100
AcDbLayerTableRecord
  2
10_NOTES
 70
0
 62
7
  6
CONTINUOUS
370
-3
390
F
  0
LAYER
  5
207
100
AcDbSymbolTableRecord
100
AcDbLayerTableRecord
  2
11_NOTES_PUB
 70
0
 62
7
  6
CONTINUOUS
370
-3
390
F
  0
LAYER
  5
208
100
AcDbSymbolTableRecord
100
AcDbLayerTableRecord
  2
13_REF_GTOL
 70
0
 62
7
  6
CONTINUOUS
370
-3
390
F
  0
LAYER
  5
209
100
AcDbSymbolTableRecord
100
AcDbLayerTableRecord
  2
16_MISC
 70
0
 62
7
  6
CONTINUOUS
370
-3
390
F
  0
LAYER
  5
20A
100
AcDbSymbolTableRecord
100
AcDbLayerTableRecord
  2
17_NO_PRINT
 70
0
 62
7
  6
CONTINUOUS
370
-3
390
F
  0
LAYER
  5
20B
100
AcDbSymbolTableRecord
100
AcDbLayerTableRecord
  2
18_DATUM_CAMS_JOINTS
 70
0
 62
7
  6
CONTINUOUS
370
-3
390
F
  0
LAYER
  5
20C
100
AcDbSymbolTableRecord
100
AcDbLayerTableRecord
  2
19_DATUM_FUNCTIONAL
 70
0
 62
7
  6
CONTINUOUS
370
-3
390
F
  0
LAYER
  5
20D
100
AcDbSymbolTableRecord
100
AcDbLayerTableRecord
  2
20_DATUM_KINEMATIC_SCHEME
 70
0
 62
7
  6
CONTINUOUS
370
-3
390
F
  0
ENDTAB
  0
TABLE
  2
STYLE
  5
3
100
AcDbSymbolTable
 70
1
  0
STYLE
  5
11
100
AcDbSymbolTableRecord
100
AcDbTextStyleTableRecord
  2
STANDARD
 70
0
 40
0.0
 41
1.0
 50
0.0
 71
0
 42
0.2
  3
ARIAL.TTF
  4

  0
STYLE
  5
20E
100
AcDbSymbolTableRecord
100
AcDbTextStyleTableRecord
  2
TEXTSTYLE_1
 70
0
 40
0.0
 41
0.8
 50
0.0
 71
0
 42
0.2
  3
gdt
  4

  0
ENDTAB
  0
TABLE
  2
VIEW
  5
6
100
AcDbSymbolTable
 70
0
  0
ENDTAB
  0
TABLE
  2
UCS
  5
7
100
AcDbSymbolTable
 70
0
  0
ENDTAB
  0
TABLE
  2
APPID
  5
9
100
AcDbSymbolTable
 70
1
  0
APPID
  5
20F
100
AcDbSymbolTableRecord
100
AcDbRegAppTableRecord
  2
ACAD
 70
0
  0
ENDTAB
  0
TABLE
  2
BLOCK_RECORD
  5
1
100
AcDbSymbolTable
 70
0
  0
BLOCK_RECORD
  5
210
100
AcDbSymbolTableRecord
100
AcDbBlockTableRecord
  2
*Model_Space
  0
BLOCK_RECORD
  5
211
100
AcDbSymbolTableRecord
100
AcDbBlockTableRecord
  2
*Paper_Space
  0
BLOCK_RECORD
  5
212
100
AcDbSymbolTableRecord
100
AcDbBlockTableRecord
  2
_FILLED
  0
ENDTAB
  0
TABLE
  2
DIMSTYLE
  5
A
100
AcDbSymbolTable
 70
1
100
AcDbDimStyleTable
 71
0
  0
DIMSTYLE
105
213
100
AcDbSymbolTableRecord
100
AcDbDimStyleTableRecord
  2
STANDARD
 70
0
  3

  4

 40
1.0
 41
1.1268627048
 42
1.0
 43
0.38
 44
1.0
 45
0.0
 46
0.0
 47
0.01
 48
0.01
140
1.5776077867
141
0.09
142
0.0
143
25.4
144
1.0
145
0.0
146
1.0
147
0.625
 71
1
 72
0
 73
0
 74
0
 75
0
 76
0
 77
1
 78
8
 79
2
170
0
171
1
172
0
173
0
174
0
175
0
176
0
177
0
178
0
270
2
179
2
271
2
272
2
273
2
274
2
275
0
280
0
281
0
282
0
283
1
284
8
285
0
286
0
287
3
288
0
340
11
278
46
341
212
342
212
343
212
344
212
  0
ENDTAB
  0
ENDSEC
  0
SECTION
  2
BLOCKS
  0
BLOCK
  5
20
100
AcDbEntity
  8
0
100
AcDbBlockBegin
  2
*Model_Space
 70
0
 10
0.0
 20
0.0
 30
0.0
  3
*Model_Space
  1

  0
ENDBLK
  5
21
100
AcDbEntity
  8
0
100
AcDbBlockEnd
  0
BLOCK
  5
1C
100
AcDbEntity
  8
0
100
AcDbBlockBegin
  2
*Paper_Space
 70
0
 10
0.0
 20
0.0
 30
0.0
  3
*Paper_Space
  1

  0
ENDBLK
  5
1D
100
AcDbEntity
  8
0
100
AcDbBlockEnd
  0
BLOCK
  5
214
100
AcDbEntity
  8
0
100
AcDbBlockBegin
  2
_FILLED
 70
64
 10
0.0
 20
0.0
  3
_FILLED
  1

  0
SOLID
  5
215
100
AcDbEntity
  8
0
  6
BYBLOCK
 62
0
100
AcDbTrace
 10
0.0
 20
0.0
 11
-1.0
 21
0.25
 12
-1.0
 22
-0.25
 13
-1.0
 23
-0.25
  0
ENDBLK
  5
216
100
AcDbEntity
  8
0
  6
BYBLOCK
 62
0
100
AcDbBlockEnd
  0
ENDSEC
  0
SECTION
  2
ENTITIES
  0
LINE
  5
217
100
AcDbEntity
  8
0
100
AcDbLine
 62
7
  6
BYLAYER
 10
59.6484291115
 20
9.9133574106
 11
35.6484291115
 21
9.9133574106
  0
LINE
  5
218
100
AcDbEntity
  8
0
100
AcDbLine
 62
7
  6
BYLAYER
 10
35.6484291115
 20
11.2133574106
 11
59.6484291115
 21
11.2133574106
  0
LINE
  5
219
100
AcDbEntity
  8
0
100
AcDbLine
 62
7
  6
BYLAYER
 10
27.5984291115
 20
11.4133574106
 11
67.6984291115
 21
11.4133574106
  0
LINE
  5
21A
100
AcDbEntity
  8
0
100
AcDbLine
 62
7
  6
BYLAYER
 10
54.3607523861
 20
11.4633574106
 11
40.2107523861
 21
11.4633574106
  0
LINE
  5
21B
100
AcDbEntity
  8
0
100
AcDbLine
 62
7
  6
BYLAYER
 10
54.3607523861
 20
14.2633574106
 11
52.2857523861
 21
14.2633574106
  0
LINE
  5
21C
100
AcDbEntity
  8
0
100
AcDbLine
 62
7
  6
BYLAYER
 10
42.2857523861
 20
14.2633574106
 11
40.2107523861
 21
14.2633574106
  0
LINE
  5
21D
100
AcDbEntity
  8
0
100
AcDbLine
 62
7
  6
BYLAYER
 10
56.7857523861
 20
14.7633574106
 11
54.3607523861
 21
14.7633574106
  0
LINE
  5
21E
100
AcDbEntity
  8
0
100
AcDbLine
 62
7
  6
BYLAYER
 10
40.2107523861
 20
14.7633574106
 11
37.7857523861
 21
14.7633574106
  0
LINE
  5
21F
100
AcDbEntity
  8
0
100
AcDbLine
 62
7
  6
BYLAYER
 10
47.6721708324
 20
15.3769389642
 11
47.8766181931
 21
15.4303144005
  0
LINE
  5
220
100
AcDbEntity
  8
0
100
AcDbLine
 62
7
  6
BYLAYER
 10
46.694886579
 20
16.0964004207
 11
46.8993339397
 21
16.149775857
  0
LINE
  5
221
100
AcDbEntity
  8
0
100
AcDbLine
 62
7
  6
BYLAYER
 10
46.952709376
 20
15.1724916035
 11
47.0011478588
 21
15.1787103456
  0
LINE
  5
222
100
AcDbEntity
  8
0
100
AcDbLine
 62
7
  6
BYLAYER
 10
47.6187953961
 20
16.3542232177
 11
47.5703569133
 21
16.3480044756
  0
LINE
  5
223
100
AcDbEntity
  8
0
100
AcDbLine
 62
7
  6
BYLAYER
 10
45.0210095474
 20
15.3621842875
 11
46.4222713236
 21
15.3621842875
  0
LINE
  5
224
100
AcDbEntity
  8
0
100
AcDbLine
 62
7
  6
BYLAYER
 10
48.1492334482
 20
15.3621842875
 11
49.5504952247
 21
15.3621842875
  0
LINE
  5
225
100
AcDbEntity
  8
0
100
AcDbLine
 62
7
  6
BYLAYER
 10
47.9107523861
 20
15.4303144005
 11
47.8766181931
 21
15.4303144005
  0
LINE
  5
226
100
AcDbEntity
  8
0
100
AcDbLine
 62
7
  6
BYLAYER
 10
46.6607523861
 20
15.4303144005
 11
46.694886579
 21
15.4303144005
  0
LINE
  5
227
100
AcDbEntity
  8
0
100
AcDbLine
 62
7
  6
BYLAYER
 10
47.9107523861
 20
16.0964004207
 11
47.8766181931
 21
16.0964004207
  0
LINE
  5
228
100
AcDbEntity
  8
0
100
AcDbLine
 62
7
  6
BYLAYER
 10
46.6607523861
 20
16.0964004207
 11
46.694886579
 21
16.0964004207
  0
LINE
  5
229
100
AcDbEntity
  8
0
100
AcDbLine
 62
7
  6
BYLAYER
 10
49.5504952247
 20
16.1645305337
 11
48.1492337883
 21
16.1645305337
  0
LINE
  5
22A
100
AcDbEntity
  8
0
100
AcDbLine
 62
7
  6
BYLAYER
 10
46.4222709902
 20
16.1645305337
 11
45.0210095474
 21
16.1645305337
  0
LINE
  5
22B
100
AcDbEntity
  8
0
100
AcDbLine
 62
7
  6
BYLAYER
 10
47.6187953961
 20
15.1724916035
 11
47.5703569133
 21
15.1787103456
  0
LINE
  5
22C
100
AcDbEntity
  8
0
100
AcDbLine
 62
7
  6
BYLAYER
 10
46.952709376
 20
16.3542232177
 11
47.0011478588
 21
16.3480044756
  0
LINE
  5
22D
100
AcDbEntity
  8
0
100
AcDbLine
 62
7
  6
BYLAYER
 10
46.694886579
 20
15.4303144005
 11
46.8993339397
 21
15.3769389642
  0
LINE
  5
22E
100
AcDbEntity
  8
0
100
AcDbLine
 62
7
  6
BYLAYER
 10
47.6721708324
 20
16.149775857
 11
47.8766181931
 21
16.0964004207
  0
LINE
  5
22F
100
AcDbEntity
  8
0
100
AcDbLine
 62
7
  6
BYLAYER
 10
32.5948757209
 20
114.0545612562
 11
34.6019825021
 21
116.921006805
  0
LINE
  5
230
100
AcDbEntity
  8
0
100
AcDbLine
 62
7
  6
BYLAYER
 10
34.8966673737
 20
116.5501456288
 11
32.8363838484
 21
113.6077558188
  0
LINE
  5
231
100
AcDbEntity
  8
0
100
AcDbLine
 62
7
  6
BYLAYER
 10
66.7857523861
 20
27.3633574106
 11
62.2857523861
 21
27.3633574106
  0
LINE
  5
232
100
AcDbEntity
  8
0
100
AcDbLine
 62
7
  6
BYLAYER
 10
32.2857523861
 20
27.3633574106
 11
27.7857523861
 21
27.3633574106
  0
LINE
  5
233
100
AcDbEntity
  8
0
100
AcDbLine
 62
7
  6
BYLAYER
 10
66.9394911007
 20
27.4133574106
 11
67.6984291115
 21
27.4133574106
  0
LINE
  5
234
100
AcDbEntity
  8
0
100
AcDbLine
 62
7
  6
BYLAYER
 10
65.4857523861
 20
29.1633574106
 11
54.3607523861
 21
29.1633574106
  0
LINE
  5
235
100
AcDbEntity
  8
0
100
AcDbLine
 62
7
  6
BYLAYER
 10
40.2107523861
 20
29.1633574106
 11
29.0857523861
 21
29.1633574106
  0
LINE
  5
236
100
AcDbEntity
  8
0
100
AcDbLine
 62
7
  6
BYLAYER
 10
64.6857523861
 20
29.9633574106
 11
29.8857523861
 21
29.9633574106
  0
LINE
  5
237
100
AcDbEntity
  8
0
100
AcDbLine
 62
7
  6
BYLAYER
 10
30.4857523861
 20
30.5633574106
 11
64.0857523861
 21
30.5633574106
  0
LINE
  5
238
100
AcDbEntity
  8
0
100
AcDbLine
 62
7
  6
BYLAYER
 10
47.6721708324
 20
15.3769389642
 11
47.6286991749
 21
15.4204106217
  0
LINE
  5
239
100
AcDbEntity
  8
0
100
AcDbLine
 62
7
  6
BYLAYER
 10
46.8993339397
 20
16.149775857
 11
46.9428055972
 21
16.1063041995
  0
LINE
  5
23A
100
AcDbEntity
  8
0
100
AcDbLine
 62
7
  6
BYLAYER
 10
63.5357523861
 20
31.6133574106
 11
31.0357523861
 21
31.6133574106
  0
LINE
  5
23B
100
AcDbEntity
  8
0
100
AcDbLine
 62
7
  6
BYLAYER
 10
46.6607523861
 20
16.0964004207
 11
46.6220976723
 21
16.1544119632
  0
LINE
  5
23C
100
AcDbEntity
  8
0
100
AcDbLine
 62
7
  6
BYLAYER
 10
47.9107523861
 20
15.4303144005
 11
47.9494070995
 21
15.3723028584
  0
LINE
  5
23D
100
AcDbEntity
  8
0
100
AcDbLine
 62
7
  6
BYLAYER
 10
27.2857523861
 20
27.8633574106
 11
27.2857523861
 21
74.8633574106
  0
LINE
  5
23E
100
AcDbEntity
  8
0
100
AcDbLine
 62
7
  6
BYLAYER
 10
27.5984291115
 20
92.9133574106
 11
27.5984291115
 21
75.3024348008
  0
LINE
  5
23F
100
AcDbEntity
  8
0
100
AcDbLine
 62
7
  6
BYLAYER
 10
27.5984291115
 20
27.4133574106
 11
27.5984291115
 21
11.4133574106
  0
LINE
  5
240
100
AcDbEntity
  8
0
100
AcDbLine
 62
7
  6
BYLAYER
 10
29.0857523861
 20
29.1633574106
 11
29.0857523861
 21
73.5633574106
  0
LINE
  5
241
100
AcDbEntity
  8
0
100
AcDbLine
 62
7
  6
BYLAYER
 10
29.8857523861
 20
29.9633574106
 11
29.8857523861
 21
72.7633574106
  0
LINE
  5
242
100
AcDbEntity
  8
0
100
AcDbLine
 62
7
  6
BYLAYER
 10
29.9984291115
 20
83.9233374902
 11
29.9984291115
 21
78.903377331
  0
LINE
  5
243
100
AcDbEntity
  8
0
100
AcDbLine
 62
7
  6
BYLAYER
 10
30.4857523861
 20
72.1633574106
 11
30.4857523861
 21
30.5633574106
  0
LINE
  5
244
100
AcDbEntity
  8
0
100
AcDbLine
 62
7
  6
BYLAYER
 10
31.0357523861
 20
31.6133574106
 11
31.0357523861
 21
72.1133574106
  0
LINE
  5
245
100
AcDbEntity
  8
0
100
AcDbLine
 62
7
  6
BYLAYER
 10
31.1484291115
 20
124.1133574106
 11
31.1484291115
 21
92.9133574106
  0
LINE
  5
246
100
AcDbEntity
  8
0
100
AcDbLine
 62
7
  6
BYLAYER
 10
31.6484291115
 20
111.5133574106
 11
31.6484291115
 21
124.6133574106
  0
LINE
  5
247
100
AcDbEntity
  8
0
100
AcDbLine
 62
7
  6
BYLAYER
 10
60.4001908493
 20
119.9765691924
 11
62.4604743746
 21
122.9189590024
  0
LINE
  5
248
100
AcDbEntity
  8
0
100
AcDbLine
 62
7
  6
BYLAYER
 10
62.7019825021
 20
122.472153565
 11
60.6948757209
 21
119.6057080162
  0
LINE
  5
249
100
AcDbEntity
  8
0
100
AcDbLine
 62
7
  6
BYLAYER
 10
32.1484291115
 20
92.6133574106
 11
32.1484291115
 21
111.4633574106
  0
LINE
  5
24A
100
AcDbEntity
  8
0
100
AcDbLine
 62
7
  6
BYLAYER
 10
32.2413223303
 20
122.472153565
 11
32.2413223303
 21
114.0545612562
  0
LINE
  5
24B
100
AcDbEntity
  8
0
100
AcDbLine
 62
7
  6
BYLAYER
 10
32.5948757209
 20
114.0545612562
 11
32.5948757209
 21
122.472153565
  0
LINE
  5
24C
100
AcDbEntity
  8
0
100
AcDbLine
 62
7
  6
BYLAYER
 10
32.8363838484
 20
113.3209676007
 11
32.8363838484
 21
113.6077558188
  0
LINE
  5
24D
100
AcDbEntity
  8
0
100
AcDbLine
 62
7
  6
BYLAYER
 10
32.8363838484
 20
122.9189590024
 11
32.8363838484
 21
123.2057472206
  0
LINE
  5
24E
100
AcDbEntity
  8
0
100
AcDbLine
 62
7
  6
BYLAYER
 10
33.0734291115
 20
111.5133574106
 11
33.0734291115
 21
111.4633574106
  0
LINE
  5
24F
100
AcDbEntity
  8
0
100
AcDbLine
 62
7
  6
BYLAYER
 10
33.5734291115
 20
111.4633574106
 11
33.5734291115
 21
111.5133574106
  0
LINE
  5
250
100
AcDbEntity
  8
0
100
AcDbLine
 62
7
  6
BYLAYER
 10
34.6019825021
 20
119.6057080162
 11
34.6019825021
 21
116.921006805
  0
LINE
  5
251
100
AcDbEntity
  8
0
100
AcDbLine
 62
7
  6
BYLAYER
 10
34.7484291115
 20
116.7607105822
 11
34.7484291115
 21
119.7660454008
  0
LINE
  5
252
100
AcDbEntity
  8
0
100
AcDbLine
 62
7
  6
BYLAYER
 10
34.8966673737
 20
116.5501456288
 11
34.8966673737
 21
116.7633574106
  0
LINE
  5
253
100
AcDbEntity
  8
0
100
AcDbLine
 62
7
  6
BYLAYER
 10
34.8966673737
 20
119.7633574106
 11
34.8966673737
 21
119.9765691924
  0
LINE
  5
254
100
AcDbEntity
  8
0
100
AcDbLine
 62
7
  6
BYLAYER
 10
35.2984291115
 20
78.903377331
 11
35.2984291115
 21
83.9233374902
  0
LINE
  5
255
100
AcDbEntity
  8
0
100
AcDbLine
 62
7
  6
BYLAYER
 10
35.6484291115
 20
9.9133574106
 11
35.6484291115
 21
11.2133574106
  0
LINE
  5
256
100
AcDbEntity
  8
0
100
AcDbLine
 62
7
  6
BYLAYER
 10
46.8993339397
 20
15.3769389642
 11
46.952709376
 21
15.1724916035
  0
LINE
  5
257
100
AcDbEntity
  8
0
100
AcDbLine
 62
7
  6
BYLAYER
 10
47.6187953961
 20
16.3542232177
 11
47.6721708324
 21
16.149775857
  0
LINE
  5
258
100
AcDbEntity
  8
0
100
AcDbLine
 62
7
  6
BYLAYER
 10
37.2857523861
 20
15.2633574106
 11
37.2857523861
 21
22.3633574106
  0
LINE
  5
259
100
AcDbEntity
  8
0
100
AcDbLine
 62
7
  6
BYLAYER
 10
37.6484291115
 20
87.9133574106
 11
37.6484291115
 21
80.4133574106
  0
LINE
  5
25A
100
AcDbEntity
  8
0
100
AcDbLine
 62
7
  6
BYLAYER
 10
37.6484291115
 20
14.8080142383
 11
37.6484291115
 21
11.4133574106
  0
LINE
  5
25B
100
AcDbEntity
  8
0
100
AcDbLine
 62
7
  6
BYLAYER
 10
40.2107523861
 20
11.4633574106
 11
40.2107523861
 21
29.1633574106
  0
LINE
  5
25C
100
AcDbEntity
  8
0
100
AcDbLine
 62
7
  6
BYLAYER
 10
40.2107523861
 20
73.5633574106
 11
40.2107523861
 21
87.7633574106
  0
LINE
  5
25D
100
AcDbEntity
  8
0
100
AcDbLine
 62
7
  6
BYLAYER
 10
41.3734291115
 20
11.4133574106
 11
41.3734291115
 21
11.4633574106
  0
LINE
  5
25E
100
AcDbEntity
  8
0
100
AcDbLine
 62
7
  6
BYLAYER
 10
42.2857523861
 20
87.7633574106
 11
42.2857523861
 21
81.7633574106
  0
LINE
  5
25F
100
AcDbEntity
  8
0
100
AcDbLine
 62
7
  6
BYLAYER
 10
42.2857523861
 20
15.7633574106
 11
42.2857523861
 21
11.4633574106
  0
LINE
  5
260
100
AcDbEntity
  8
0
100
AcDbLine
 62
7
  6
BYLAYER
 10
46.694886579
 20
16.0964004207
 11
46.701105321
 21
16.0479619378
  0
LINE
  5
261
100
AcDbEntity
  8
0
100
AcDbLine
 62
7
  6
BYLAYER
 10
47.8766181931
 20
15.4303144005
 11
47.8703994511
 21
15.4787528834
  0
LINE
  5
262
100
AcDbEntity
  8
0
100
AcDbLine
 62
7
  6
BYLAYER
 10
46.4222176308
 20
18.493013348
 11
46.4222176308
 21
16.1645305337
  0
LINE
  5
263
100
AcDbEntity
  8
0
100
AcDbLine
 62
7
  6
BYLAYER
 10
46.4222176308
 20
15.3621842875
 11
46.4222176308
 21
13.0337014732
  0
LINE
  5
264
100
AcDbEntity
  8
0
100
AcDbLine
 62
7
  6
BYLAYER
 10
46.6220957962
 20
12.5740154486
 11
46.6220957962
 21
15.3723000423
  0
LINE
  5
265
100
AcDbEntity
  8
0
100
AcDbLine
 62
7
  6
BYLAYER
 10
46.6220957962
 20
16.1544147789
 11
46.6220957962
 21
18.9526993726
  0
LINE
  5
266
100
AcDbEntity
  8
0
100
AcDbLine
 62
7
  6
BYLAYER
 10
46.6607523861
 20
12.3858061331
 11
46.6607523861
 21
15.4303144005
  0
LINE
  5
267
100
AcDbEntity
  8
0
100
AcDbLine
 62
7
  6
BYLAYER
 10
46.6607523861
 20
16.0964004207
 11
46.6607523861
 21
19.1409086882
  0
LINE
  5
268
100
AcDbEntity
  8
0
100
AcDbLine
 62
7
  6
BYLAYER
 10
46.6857523861
 20
80.9633574106
 11
46.6857523861
 21
78.2137095407
  0
LINE
  5
269
100
AcDbEntity
  8
0
100
AcDbLine
 62
7
  6
BYLAYER
 10
46.6857523861
 20
82.5633574106
 11
46.6857523861
 21
85.3130052805
  0
LINE
  5
26A
100
AcDbEntity
  8
0
100
AcDbLine
 62
7
  6
BYLAYER
 10
46.952709376
 20
17.3812791191
 11
46.952709376
 21
16.3542232177
  0
LINE
  5
26B
100
AcDbEntity
  8
0
100
AcDbLine
 62
7
  6
BYLAYER
 10
46.952709376
 20
15.1724916035
 11
46.952709376
 21
14.1454357021
  0
LINE
  5
26C
100
AcDbEntity
  8
0
100
AcDbLine
 62
7
  6
BYLAYER
 10
47.6187953961
 20
14.1454357021
 11
47.6187953961
 21
15.1724916035
  0
LINE
  5
26D
100
AcDbEntity
  8
0
100
AcDbLine
 62
7
  6
BYLAYER
 10
47.6187953961
 20
16.3542232177
 11
47.6187953961
 21
17.3812791191
  0
LINE
  5
26E
100
AcDbEntity
  8
0
100
AcDbLine
 62
7
  6
BYLAYER
 10
47.8857523861
 20
80.9633574106
 11
47.8857523861
 21
78.2137095407
  0
LINE
  5
26F
100
AcDbEntity
  8
0
100
AcDbLine
 62
7
  6
BYLAYER
 10
47.8857523861
 20
82.5633574106
 11
47.8857523861
 21
85.3130052805
  0
LINE
  5
270
100
AcDbEntity
  8
0
100
AcDbLine
 62
7
  6
BYLAYER
 10
47.9107523861
 20
12.3858061331
 11
47.9107523861
 21
15.4303144005
  0
LINE
  5
271
100
AcDbEntity
  8
0
100
AcDbLine
 62
7
  6
BYLAYER
 10
47.9107523861
 20
16.0964004207
 11
47.9107523861
 21
19.1409086882
  0
LINE
  5
272
100
AcDbEntity
  8
0
100
AcDbLine
 62
7
  6
BYLAYER
 10
47.949408976
 20
18.9526993726
 11
47.949408976
 21
16.1544147789
  0
LINE
  5
273
100
AcDbEntity
  8
0
100
AcDbLine
 62
7
  6
BYLAYER
 10
47.949408976
 20
15.3723000423
 11
47.949408976
 21
12.5740154486
  0
LINE
  5
274
100
AcDbEntity
  8
0
100
AcDbLine
 62
7
  6
BYLAYER
 10
48.1492871414
 20
13.0337014732
 11
48.1492871414
 21
15.3621842875
  0
LINE
  5
275
100
AcDbEntity
  8
0
100
AcDbLine
 62
7
  6
BYLAYER
 10
48.1492871414
 20
16.1645305337
 11
48.1492871414
 21
18.493013348
  0
LINE
  5
276
100
AcDbEntity
  8
0
100
AcDbLine
 62
7
  6
BYLAYER
 10
52.2857523861
 20
11.4633574106
 11
52.2857523861
 21
15.7633574106
  0
LINE
  5
277
100
AcDbEntity
  8
0
100
AcDbLine
 62
7
  6
BYLAYER
 10
52.2857523861
 20
81.7633574106
 11
52.2857523861
 21
87.7633574106
  0
LINE
  5
278
100
AcDbEntity
  8
0
100
AcDbLine
 62
7
  6
BYLAYER
 10
53.9234291115
 20
11.4633574106
 11
53.9234291115
 21
11.4133574106
  0
LINE
  5
279
100
AcDbEntity
  8
0
100
AcDbLine
 62
7
  6
BYLAYER
 10
54.3607523861
 20
87.7633574106
 11
54.3607523861
 21
73.5633574106
  0
LINE
  5
27A
100
AcDbEntity
  8
0
100
AcDbLine
 62
7
  6
BYLAYER
 10
54.3607523861
 20
29.1633574106
 11
54.3607523861
 21
11.4633574106
  0
LINE
  5
27B
100
AcDbEntity
  8
0
100
AcDbLine
 62
7
  6
BYLAYER
 10
46.694886579
 20
15.4303144005
 11
46.701105321
 21
15.4787528834
  0
LINE
  5
27C
100
AcDbEntity
  8
0
100
AcDbLine
 62
7
  6
BYLAYER
 10
47.8766181931
 20
16.0964004207
 11
47.8703994511
 21
16.0479619378
  0
LINE
  5
27D
100
AcDbEntity
  8
0
100
AcDbLine
 62
7
  6
BYLAYER
 10
31.0357523861
 20
72.1133574106
 11
63.5357523861
 21
72.1133574106
  0
LINE
  5
27E
100
AcDbEntity
  8
0
100
AcDbLine
 62
7
  6
BYLAYER
 10
64.0857523861
 20
72.1633574106
 11
30.4857523861
 21
72.1633574106
  0
LINE
  5
27F
100
AcDbEntity
  8
0
100
AcDbLine
 62
7
  6
BYLAYER
 10
29.8857523861
 20
72.7633574106
 11
64.6857523861
 21
72.7633574106
  0
LINE
  5
280
100
AcDbEntity
  8
0
100
AcDbLine
 62
7
  6
BYLAYER
 10
29.0857523861
 20
73.5633574106
 11
40.2107523861
 21
73.5633574106
  0
LINE
  5
281
100
AcDbEntity
  8
0
100
AcDbLine
 62
7
  6
BYLAYER
 10
54.3607523861
 20
73.5633574106
 11
65.4857523861
 21
73.5633574106
  0
LINE
  5
282
100
AcDbEntity
  8
0
100
AcDbLine
 62
7
  6
BYLAYER
 10
27.7857523861
 20
75.3633574106
 11
32.2857523861
 21
75.3633574106
  0
LINE
  5
283
100
AcDbEntity
  8
0
100
AcDbLine
 62
7
  6
BYLAYER
 10
62.2857523861
 20
75.3633574106
 11
66.7857523861
 21
75.3633574106
  0
LINE
  5
284
100
AcDbEntity
  8
0
100
AcDbLine
 62
7
  6
BYLAYER
 10
67.6984291115
 20
75.4133574106
 11
62.6484291115
 21
75.4133574106
  0
LINE
  5
285
100
AcDbEntity
  8
0
100
AcDbLine
 62
7
  6
BYLAYER
 10
32.6484291115
 20
75.4133574106
 11
27.5984291115
 21
75.4133574106
  0
LINE
  5
286
100
AcDbEntity
  8
0
100
AcDbLine
 62
7
  6
BYLAYER
 10
57.2857523861
 20
22.3633574106
 11
57.2857523861
 21
15.2633574106
  0
LINE
  5
287
100
AcDbEntity
  8
0
100
AcDbLine
 62
7
  6
BYLAYER
 10
57.6484291115
 20
11.4133574106
 11
57.6484291115
 21
22.4133574106
  0
LINE
  5
288
100
AcDbEntity
  8
0
100
AcDbLine
 62
7
  6
BYLAYER
 10
57.6484291115
 20
80.4133574106
 11
57.6484291115
 21
87.9133574106
  0
LINE
  5
289
100
AcDbEntity
  8
0
100
AcDbLine
 62
7
  6
BYLAYER
 10
59.6484291115
 20
9.9133574106
 11
59.6484291115
 21
11.2133574106
  0
LINE
  5
28A
100
AcDbEntity
  8
0
100
AcDbLine
 62
7
  6
BYLAYER
 10
59.9984291115
 20
18.903377331
 11
59.9984291115
 21
23.9233374902
  0
LINE
  5
28B
100
AcDbEntity
  8
0
100
AcDbLine
 62
7
  6
BYLAYER
 10
46.952709376
 20
16.3542232177
 11
46.8993339397
 21
16.149775857
  0
LINE
  5
28C
100
AcDbEntity
  8
0
100
AcDbLine
 62
7
  6
BYLAYER
 10
60.4001908493
 20
119.9765691924
 11
60.4001908493
 21
119.7633574106
  0
LINE
  5
28D
100
AcDbEntity
  8
0
100
AcDbLine
 62
7
  6
BYLAYER
 10
60.4001908493
 20
116.7633574106
 11
60.4001908493
 21
116.5501456288
  0
LINE
  5
28E
100
AcDbEntity
  8
0
100
AcDbLine
 62
7
  6
BYLAYER
 10
60.5484291115
 20
116.7606694205
 11
60.5484291115
 21
119.766004239
  0
LINE
  5
28F
100
AcDbEntity
  8
0
100
AcDbLine
 62
7
  6
BYLAYER
 10
60.6948757209
 20
116.921006805
 11
60.6948757209
 21
119.6057080162
  0
LINE
  5
290
100
AcDbEntity
  8
0
100
AcDbLine
 62
7
  6
BYLAYER
 10
61.7234291115
 20
111.5133574106
 11
61.7234291115
 21
111.4633574106
  0
LINE
  5
291
100
AcDbEntity
  8
0
100
AcDbLine
 62
7
  6
BYLAYER
 10
62.2234291115
 20
111.5133574106
 11
62.2234291115
 21
111.4633574106
  0
LINE
  5
292
100
AcDbEntity
  8
0
100
AcDbLine
 62
7
  6
BYLAYER
 10
62.4604743746
 20
123.2057472206
 11
62.4604743746
 21
122.9189590024
  0
LINE
  5
293
100
AcDbEntity
  8
0
100
AcDbLine
 62
7
  6
BYLAYER
 10
62.4604743746
 20
113.6077558188
 11
62.4604743746
 21
113.3209676007
  0
LINE
  5
294
100
AcDbEntity
  8
0
100
AcDbLine
 62
7
  6
BYLAYER
 10
62.7019825021
 20
122.472153565
 11
62.7019825021
 21
114.0545612562
  0
LINE
  5
295
100
AcDbEntity
  8
0
100
AcDbLine
 62
7
  6
BYLAYER
 10
63.0555358927
 20
114.0545612562
 11
63.0555358927
 21
122.472153565
  0
LINE
  5
296
100
AcDbEntity
  8
0
100
AcDbLine
 62
7
  6
BYLAYER
 10
63.1484291115
 20
111.4633574106
 11
63.1484291115
 21
92.6133574106
  0
LINE
  5
297
100
AcDbEntity
  8
0
100
AcDbLine
 62
7
  6
BYLAYER
 10
63.5357523861
 20
72.1133574106
 11
63.5357523861
 21
31.6133574106
  0
LINE
  5
298
100
AcDbEntity
  8
0
100
AcDbLine
 62
7
  6
BYLAYER
 10
63.6484291115
 20
124.6133574106
 11
63.6484291115
 21
111.5133574106
  0
LINE
  5
299
100
AcDbEntity
  8
0
100
AcDbLine
 62
7
  6
BYLAYER
 10
64.0857523861
 20
30.5633574106
 11
64.0857523861
 21
72.1633574106
  0
LINE
  5
29A
100
AcDbEntity
  8
0
100
AcDbLine
 62
7
  6
BYLAYER
 10
64.1484291115
 20
92.9133574106
 11
64.1484291115
 21
124.1133574106
  0
LINE
  5
29B
100
AcDbEntity
  8
0
100
AcDbLine
 62
7
  6
BYLAYER
 10
47.6721708324
 20
15.3769389642
 11
47.6187953961
 21
15.1724916035
  0
LINE
  5
29C
100
AcDbEntity
  8
0
100
AcDbLine
 62
7
  6
BYLAYER
 10
37.7629779611
 20
80.3633574106
 11
40.2107523861
 21
80.3633574106
  0
LINE
  5
29D
100
AcDbEntity
  8
0
100
AcDbLine
 62
7
  6
BYLAYER
 10
54.3607523861
 20
80.3633574106
 11
56.808526811
 21
80.3633574106
  0
LINE
  5
29E
100
AcDbEntity
  8
0
100
AcDbLine
 62
7
  6
BYLAYER
 10
43.7361045162
 20
81.1633574106
 11
46.4857523861
 21
81.1633574106
  0
LINE
  5
29F
100
AcDbEntity
  8
0
100
AcDbLine
 62
7
  6
BYLAYER
 10
48.0857523861
 20
81.1633574106
 11
50.8354002559
 21
81.1633574106
  0
LINE
  5
2A0
100
AcDbEntity
  8
0
100
AcDbLine
 62
7
  6
BYLAYER
 10
43.7361045162
 20
82.3633574106
 11
46.4857523861
 21
82.3633574106
  0
LINE
  5
2A1
100
AcDbEntity
  8
0
100
AcDbLine
 62
7
  6
BYLAYER
 10
48.0857523861
 20
82.3633574106
 11
50.8354002559
 21
82.3633574106
  0
LINE
  5
2A2
100
AcDbEntity
  8
0
100
AcDbLine
 62
7
  6
BYLAYER
 10
64.6857523861
 20
72.7633574106
 11
64.6857523861
 21
29.9633574106
  0
LINE
  5
2A3
100
AcDbEntity
  8
0
100
AcDbLine
 62
7
  6
BYLAYER
 10
65.2984291115
 20
23.9233374902
 11
65.2984291115
 21
18.903377331
  0
LINE
  5
2A4
100
AcDbEntity
  8
0
100
AcDbLine
 62
7
  6
BYLAYER
 10
65.4857523861
 20
73.5633574106
 11
65.4857523861
 21
29.1633574106
  0
LINE
  5
2A5
100
AcDbEntity
  8
0
100
AcDbLine
 62
7
  6
BYLAYER
 10
67.2857523861
 20
74.8633574106
 11
67.2857523861
 21
27.8633574106
  0
LINE
  5
2A6
100
AcDbEntity
  8
0
100
AcDbLine
 62
7
  6
BYLAYER
 10
67.6984291115
 20
11.4133574106
 11
67.6984291115
 21
92.9133574106
  0
LINE
  5
2A7
100
AcDbEntity
  8
0
100
AcDbLine
 62
7
  6
BYLAYER
 10
40.2107523861
 20
84.9633574106
 11
42.2857523861
 21
84.9633574106
  0
LINE
  5
2A8
100
AcDbEntity
  8
0
100
AcDbLine
 62
7
  6
BYLAYER
 10
52.2857523861
 20
84.9633574106
 11
54.3607523861
 21
84.9633574106
  0
LINE
  5
2A9
100
AcDbEntity
  8
0
100
AcDbLine
 62
7
  6
BYLAYER
 10
40.2107523861
 20
87.7633574106
 11
54.3607523861
 21
87.7633574106
  0
LINE
  5
2AA
100
AcDbEntity
  8
0
100
AcDbLine
 62
7
  6
BYLAYER
 10
57.6484291115
 20
87.9133574106
 11
37.6484291115
 21
87.9133574106
  0
LINE
  5
2AB
100
AcDbEntity
  8
0
100
AcDbLine
 62
7
  6
BYLAYER
 10
34.6019825021
 20
119.6057080162
 11
32.5948757209
 21
122.472153565
  0
LINE
  5
2AC
100
AcDbEntity
  8
0
100
AcDbLine
 62
7
  6
BYLAYER
 10
32.8363838484
 20
122.9189590024
 11
34.8966673737
 21
119.9765691924
  0
LINE
  5
2AD
100
AcDbEntity
  8
0
100
AcDbLine
 62
7
  6
BYLAYER
 10
46.6607523861
 20
15.4303144005
 11
46.6220957962
 21
15.3723000423
  0
LINE
  5
2AE
100
AcDbEntity
  8
0
100
AcDbLine
 62
7
  6
BYLAYER
 10
47.9107523861
 20
16.0964004207
 11
47.949408976
 21
16.1544147789
  0
LINE
  5
2AF
100
AcDbEntity
  8
0
100
AcDbLine
 62
7
  6
BYLAYER
 10
63.1484291115
 20
92.6133574106
 11
32.1484291115
 21
92.6133574106
  0
LINE
  5
2B0
100
AcDbEntity
  8
0
100
AcDbLine
 62
7
  6
BYLAYER
 10
67.6984291115
 20
92.9133574106
 11
27.5984291115
 21
92.9133574106
  0
LINE
  5
2B1
100
AcDbEntity
  8
0
100
AcDbLine
 62
7
  6
BYLAYER
 10
47.6721708324
 20
16.149775857
 11
47.6286991749
 21
16.1063041995
  0
LINE
  5
2B2
100
AcDbEntity
  8
0
100
AcDbLine
 62
7
  6
BYLAYER
 10
46.8993339397
 20
15.3769389642
 11
46.9428055972
 21
15.4204106217
  0
LINE
  5
2B3
100
AcDbEntity
  8
0
100
AcDbLine
 62
7
  6
BYLAYER
 10
62.4604743746
 20
113.6077558188
 11
60.4001908493
 21
116.5501456288
  0
LINE
  5
2B4
100
AcDbEntity
  8
0
100
AcDbLine
 62
7
  6
BYLAYER
 10
60.6948757209
 20
116.921006805
 11
62.7019825021
 21
114.0545612562
  0
LINE
  5
2B5
100
AcDbEntity
  8
0
100
AcDbLine
 62
7
  6
BYLAYER
 10
31.1484291115
 20
111.4633574106
 11
64.1484291115
 21
111.4633574106
  0
LINE
  5
2B6
100
AcDbEntity
  8
0
100
AcDbLine
 62
7
  6
BYLAYER
 10
64.1484291115
 20
111.5133574106
 11
31.1484291115
 21
111.5133574106
  0
LINE
  5
2B7
100
AcDbEntity
  8
0
100
AcDbLine
 62
7
  6
BYLAYER
 10
32.8363838484
 20
113.3209676007
 11
62.4604743746
 21
113.3209676007
  0
LINE
  5
2B8
100
AcDbEntity
  8
0
100
AcDbLine
 62
7
  6
BYLAYER
 10
62.4604743746
 20
113.6077558188
 11
32.8363838484
 21
113.6077558188
  0
LINE
  5
2B9
100
AcDbEntity
  8
0
100
AcDbLine
 62
7
  6
BYLAYER
 10
63.0555358927
 20
114.0545612562
 11
62.7019825021
 21
114.0545612562
  0
LINE
  5
2BA
100
AcDbEntity
  8
0
100
AcDbLine
 62
7
  6
BYLAYER
 10
32.5948757209
 20
114.0545612562
 11
32.2413223303
 21
114.0545612562
  0
LINE
  5
2BB
100
AcDbEntity
  8
0
100
AcDbLine
 62
7
  6
BYLAYER
 10
34.8966673737
 20
116.5501456288
 11
60.4001908493
 21
116.5501456288
  0
LINE
  5
2BC
100
AcDbEntity
  8
0
100
AcDbLine
 62
7
  6
BYLAYER
 10
34.748590472
 20
116.7633574106
 11
60.5483685545
 21
116.7633574106
  0
LINE
  5
2BD
100
AcDbEntity
  8
0
100
AcDbLine
 62
7
  6
BYLAYER
 10
60.6948757209
 20
116.921006805
 11
60.5484291115
 21
116.921006805
  0
LINE
  5
2BE
100
AcDbEntity
  8
0
100
AcDbLine
 62
7
  6
BYLAYER
 10
34.7484291115
 20
116.921006805
 11
34.6019825021
 21
116.921006805
  0
LINE
  5
2BF
100
AcDbEntity
  8
0
100
AcDbLine
 62
7
  6
BYLAYER
 10
34.6019825021
 20
119.6057080162
 11
34.7484291115
 21
119.6057080162
  0
LINE
  5
2C0
100
AcDbEntity
  8
0
100
AcDbLine
 62
7
  6
BYLAYER
 10
60.5484291115
 20
119.6057080162
 11
60.6948757209
 21
119.6057080162
  0
LINE
  5
2C1
100
AcDbEntity
  8
0
100
AcDbLine
 62
7
  6
BYLAYER
 10
34.7484896685
 20
119.7633574106
 11
60.548267751
 21
119.7633574106
  0
LINE
  5
2C2
100
AcDbEntity
  8
0
100
AcDbLine
 62
7
  6
BYLAYER
 10
60.4001908493
 20
119.9765691924
 11
34.8966673737
 21
119.9765691924
  0
LINE
  5
2C3
100
AcDbEntity
  8
0
100
AcDbLine
 62
7
  6
BYLAYER
 10
32.2413223303
 20
122.472153565
 11
32.5948757209
 21
122.472153565
  0
LINE
  5
2C4
100
AcDbEntity
  8
0
100
AcDbLine
 62
7
  6
BYLAYER
 10
62.7019825021
 20
122.472153565
 11
63.0555358927
 21
122.472153565
  0
LINE
  5
2C5
100
AcDbEntity
  8
0
100
AcDbLine
 62
7
  6
BYLAYER
 10
32.8363838484
 20
122.9189590024
 11
62.4604743746
 21
122.9189590024
  0
LINE
  5
2C6
100
AcDbEntity
  8
0
100
AcDbLine
 62
7
  6
BYLAYER
 10
62.4604743746
 20
123.2057472206
 11
32.8363838484
 21
123.2057472206
  0
LINE
  5
2C7
100
AcDbEntity
  8
0
100
AcDbLine
 62
7
  6
BYLAYER
 10
31.1484291115
 20
124.1133574106
 11
64.1484291115
 21
124.1133574106
  0
LINE
  5
2C8
100
AcDbEntity
  8
0
100
AcDbLine
 62
7
  6
BYLAYER
 10
63.6484291115
 20
124.6133574106
 11
31.6484291115
 21
124.6133574106
  0
ARC
  5
2C9
100
AcDbEntity
  8
0
100
AcDbCircle
 62
7
  6
BYLAYER
 10
38.5304825642
 20
-348.4606911647
 40
364.0592712478
100
AcDbArc
 50
88.4090934272
 51
88.5299192172
  0
ARC
  5
2CA
100
AcDbEntity
  8
0
100
AcDbCircle
 62
7
  6
BYLAYER
 10
37.8482608086
 20
-21.7266334613
 40
38.2441319554
100
AcDbArc
 50
76.2431299852
 51
76.6156358165
  0
ARC
  5
2CB
100
AcDbEntity
  8
0
100
AcDbCircle
 62
7
  6
BYLAYER
 10
12.0471978434
 20
6.0192276824
 40
38.1886508907
100
AcDbArc
 50
19.9674275754
 51
20.0964547219
  0
ARC
  5
2CC
100
AcDbEntity
  8
0
100
AcDbCircle
 62
7
  6
BYLAYER
 10
14.9709930082
 20
7.5750771072
 40
32.9202985737
100
AcDbArc
 50
13.3542434398
 51
13.7869907584
  0
ARC
  5
2CD
100
AcDbEntity
  8
0
100
AcDbCircle
 62
7
  6
BYLAYER
 10
37.7857523861
 20
15.2633574106
 40
0.5
100
AcDbArc
 50
180.0
 51
270.0
  0
ARC
  5
2CE
100
AcDbEntity
  8
0
100
AcDbCircle
 62
7
  6
BYLAYER
 10
35.8484291115
 20
11.2133574106
 40
0.2
100
AcDbArc
 50
90.0
 51
180.0
  0
ARC
  5
2CF
100
AcDbEntity
  8
0
100
AcDbCircle
 62
7
  6
BYLAYER
 10
-316.9382961863
 20
24.5186272324
 40
364.0592712448
100
AcDbArc
 50
358.4090934272
 51
358.5299192172
  0
ARC
  5
2D0
100
AcDbEntity
  8
0
100
AcDbCircle
 62
7
  6
BYLAYER
 10
9.795761513
 20
25.2008489884
 40
38.2441319565
100
AcDbArc
 50
346.2431299852
 51
346.6156358165
  0
ARC
  5
2D1
100
AcDbEntity
  8
0
100
AcDbCircle
 62
7
  6
BYLAYER
 10
12.30813138
 20
25.4123503298
 40
37.9109150009
100
AcDbArc
 50
339.9030726506
 51
340.0330450521
  0
ARC
  5
2D2
100
AcDbEntity
  8
0
100
AcDbCircle
 62
7
  6
BYLAYER
 10
39.0974720827
 20
48.0781167883
 40
32.9202985735
100
AcDbArc
 50
283.3542434398
 51
283.7869907584
  0
ARC
  5
2D3
100
AcDbEntity
  8
0
100
AcDbCircle
 62
7
  6
BYLAYER
 10
32.2857523861
 20
80.3633574106
 40
5.0
100
AcDbArc
 50
270.0
 51
354.7840914296
  0
ARC
  5
2D4
100
AcDbEntity
  8
0
100
AcDbCircle
 62
7
  6
BYLAYER
 10
32.2857523861
 20
22.3633574106
 40
5.0
100
AcDbArc
 50
0.0
 51
90.0
  0
ARC
  5
2D5
100
AcDbEntity
  8
0
100
AcDbCircle
 62
7
  6
BYLAYER
 10
32.6484291115
 20
81.4133574106
 40
3.65
100
AcDbArc
 50
223.4456175992
 51
316.5543824008
  0
ARC
  5
2D6
100
AcDbEntity
  8
0
100
AcDbCircle
 62
7
  6
BYLAYER
 10
32.6484291115
 20
81.4133574106
 40
3.65
100
AcDbArc
 50
43.4456175992
 51
136.5543824008
  0
CIRCLE
  5
2D7
100
AcDbEntity
  8
0
100
AcDbCircle
 62
7
  6
BYLAYER
 10
32.6484291115
 20
21.4133574106
 40
2.65
  0
CIRCLE
  5
2D8
100
AcDbEntity
  8
0
100
AcDbCircle
 62
7
  6
BYLAYER
 10
42.2857523861
 20
57.3633574106
 40
2.0
  0
ARC
  5
2D9
100
AcDbEntity
  8
0
100
AcDbCircle
 62
7
  6
BYLAYER
 10
31.6484291115
 20
124.1133574106
 40
0.5
100
AcDbArc
 50
90.0
 51
180.0
  0
ARC
  5
2DA
100
AcDbEntity
  8
0
100
AcDbCircle
 62
7
  6
BYLAYER
 10
37.7629779611
 20
79.8633574106
 40
0.5
100
AcDbArc
 50
90.0779277169
 51
174.7840914293
  0
ARC
  5
2DB
100
AcDbEntity
  8
0
100
AcDbCircle
 62
7
  6
BYLAYER
 10
27.7857523861
 20
74.8633574106
 40
0.5
100
AcDbArc
 50
90.0
 51
180.0
  0
ARC
  5
2DC
100
AcDbEntity
  8
0
100
AcDbCircle
 62
7
  6
BYLAYER
 10
27.7857523861
 20
27.8633574106
 40
0.5
100
AcDbArc
 50
180.0
 51
270.0
  0
ARC
  5
2DD
100
AcDbEntity
  8
0
100
AcDbCircle
 62
7
  6
BYLAYER
 10
411.5098009799
 20
7.0080875882
 40
364.0592712663
100
AcDbArc
 50
178.4090934272
 51
178.5299192172
  0
ARC
  5
2DE
100
AcDbEntity
  8
0
100
AcDbCircle
 62
7
  6
BYLAYER
 10
84.7757432634
 20
6.3258658318
 40
38.244131961
100
AcDbArc
 50
166.2431299853
 51
166.6156358165
  0
ARC
  5
2DF
100
AcDbEntity
  8
0
100
AcDbCircle
 62
7
  6
BYLAYER
 10
82.2633733906
 20
6.114364492
 40
37.9109149993
100
AcDbArc
 50
159.9030726506
 51
160.0330450521
  0
ARC
  5
2E0
100
AcDbEntity
  8
0
100
AcDbCircle
 62
7
  6
BYLAYER
 10
55.4740326893
 20
-16.5514019667
 40
32.9202985731
100
AcDbArc
 50
103.3542434398
 51
103.7869907584
  0
ARC
  5
2E1
100
AcDbEntity
  8
0
100
AcDbCircle
 62
7
  6
BYLAYER
 10
56.7857523861
 20
15.2633574106
 40
0.5
100
AcDbArc
 50
270.0
 51
360.0
  0
ARC
  5
2E2
100
AcDbEntity
  8
0
100
AcDbCircle
 62
7
  6
BYLAYER
 10
59.4484291115
 20
11.2133574106
 40
0.2
100
AcDbArc
 50
0.0
 51
90.0
  0
ARC
  5
2E3
100
AcDbEntity
  8
0
100
AcDbCircle
 62
7
  6
BYLAYER
 10
47.2857523861
 20
15.7633574106
 40
5.0
100
AcDbArc
 50
0.0
 51
180.0
  0
CIRCLE
  5
2E4
100
AcDbEntity
  8
0
100
AcDbCircle
 62
7
  6
BYLAYER
 10
47.2857523861
 20
15.7633574106
 40
3.5417382998
  0
CIRCLE
  5
2E5
100
AcDbEntity
  8
0
100
AcDbCircle
 62
7
  6
BYLAYER
 10
47.2857523861
 20
15.7633574106
 40
3.5409772384
  0
ARC
  5
2E6
100
AcDbEntity
  8
0
100
AcDbCircle
 62
7
  6
BYLAYER
 10
47.2857523861
 20
15.7633574106
 40
3.4348912112
100
AcDbArc
 50
259.5162720952
 51
280.4837279048
  0
ARC
  5
2E7
100
AcDbEntity
  8
0
100
AcDbCircle
 62
7
  6
BYLAYER
 10
47.2857523861
 20
15.7633574106
 40
3.4348912112
100
AcDbArc
 50
79.5162720952
 51
100.4837279048
  0
ARC
  5
2E8
100
AcDbEntity
  8
0
100
AcDbCircle
 62
7
  6
BYLAYER
 10
47.2857523861
 20
15.7633574106
 40
3.3610877106
100
AcDbArc
 50
281.2281480746
 51
78.7718519254
  0
ARC
  5
2E9
100
AcDbEntity
  8
0
100
AcDbCircle
 62
7
  6
BYLAYER
 10
47.2857523861
 20
15.7633574106
 40
3.3610877106
100
AcDbArc
 50
101.2281480746
 51
258.7718519254
  0
ARC
  5
2EA
100
AcDbEntity
  8
0
100
AcDbCircle
 62
7
  6
BYLAYER
 10
47.2857523861
 20
15.7633574106
 40
2.8629903616
100
AcDbArc
 50
287.5549217432
 51
72.4450782568
  0
ARC
  5
2EB
100
AcDbEntity
  8
0
100
AcDbCircle
 62
7
  6
BYLAYER
 10
47.2857523861
 20
15.7633574106
 40
2.8629903616
100
AcDbArc
 50
107.5549217432
 51
252.4450782568
  0
ARC
  5
2EC
100
AcDbEntity
  8
0
100
AcDbCircle
 62
7
  6
BYLAYER
 10
47.2857523861
 20
15.7633574106
 40
2.3
100
AcDbArc
 50
349.9549123233
 51
10.0450876767
  0
ARC
  5
2ED
100
AcDbEntity
  8
0
100
AcDbCircle
 62
7
  6
BYLAYER
 10
47.2857523861
 20
15.7633574106
 40
2.3
100
AcDbArc
 50
169.9549123233
 51
190.0450876767
  0
ARC
  5
2EE
100
AcDbEntity
  8
0
100
AcDbCircle
 62
7
  6
BYLAYER
 10
47.2857523861
 20
15.7633574106
 40
1.6518439095
100
AcDbArc
 50
258.3683540614
 51
281.6316459386
  0
ARC
  5
2EF
100
AcDbEntity
  8
0
100
AcDbCircle
 62
7
  6
BYLAYER
 10
47.2857523861
 20
15.7633574106
 40
1.6518439095
100
AcDbArc
 50
78.3683540614
 51
101.6316459386
  0
ARC
  5
2F0
100
AcDbEntity
  8
0
100
AcDbCircle
 62
7
  6
BYLAYER
 10
47.2857523861
 20
15.7633574106
 40
1.3861015384
100
AcDbArc
 50
347.2838694084
 51
12.7161305916
  0
ARC
  5
2F1
100
AcDbEntity
  8
0
100
AcDbCircle
 62
7
  6
BYLAYER
 10
47.2857523861
 20
15.7633574106
 40
1.3861015384
100
AcDbArc
 50
167.2838694084
 51
192.7161305916
  0
ARC
  5
2F2
100
AcDbEntity
  8
0
100
AcDbCircle
 62
7
  6
BYLAYER
 10
47.2857523861
 20
15.7633574106
 40
1.3861015384
100
AcDbArc
 50
77.2838694084
 51
102.7161305916
  0
ARC
  5
2F3
100
AcDbEntity
  8
0
100
AcDbCircle
 62
7
  6
BYLAYER
 10
47.2857523861
 20
15.7633574106
 40
1.3861015384
100
AcDbArc
 50
257.2838694084
 51
282.7161305916
  0
ARC
  5
2F4
100
AcDbEntity
  8
0
100
AcDbCircle
 62
7
  6
BYLAYER
 10
47.2857523861
 20
81.7633574106
 40
5.0
100
AcDbArc
 50
180.0
 51
360.0
  0
CIRCLE
  5
2F5
100
AcDbEntity
  8
0
100
AcDbCircle
 62
7
  6
BYLAYER
 10
47.2857523861
 20
81.7633574106
 40
3.6
  0
ARC
  5
2F6
100
AcDbEntity
  8
0
100
AcDbCircle
 62
7
  6
BYLAYER
 10
47.2857523861
 20
81.7633574106
 40
3.1
100
AcDbArc
 50
101.1599368722
 51
168.8400631278
  0
ARC
  5
2F7
100
AcDbEntity
  8
0
100
AcDbCircle
 62
7
  6
BYLAYER
 10
47.2857523861
 20
81.7633574106
 40
3.1
100
AcDbArc
 50
11.1599368722
 51
78.8400631278
  0
ARC
  5
2F8
100
AcDbEntity
  8
0
100
AcDbCircle
 62
7
  6
BYLAYER
 10
47.2857523861
 20
81.7633574106
 40
3.1
100
AcDbArc
 50
281.1599368722
 51
348.8400631278
  0
ARC
  5
2F9
100
AcDbEntity
  8
0
100
AcDbCircle
 62
7
  6
BYLAYER
 10
47.2857523861
 20
81.7633574106
 40
3.1
100
AcDbArc
 50
191.1599368722
 51
258.8400631278
  0
CIRCLE
  5
2FA
100
AcDbEntity
  8
0
100
AcDbCircle
 62
7
  6
BYLAYER
 10
47.2857523861
 20
81.7633574106
 40
1.0
  0
ARC
  5
2FB
100
AcDbEntity
  8
0
100
AcDbCircle
 62
7
  6
BYLAYER
 10
56.7232439637
 20
53.2533482832
 40
38.2441319561
100
AcDbArc
 50
256.2431299852
 51
256.6156358165
  0
ARC
  5
2FC
100
AcDbEntity
  8
0
100
AcDbCircle
 62
7
  6
BYLAYER
 10
62.6484291115
 20
22.4133574106
 40
5.0
100
AcDbArc
 50
95.9278871485
 51
180.0
  0
ARC
  5
2FD
100
AcDbEntity
  8
0
100
AcDbCircle
 62
7
  6
BYLAYER
 10
62.2857523861
 20
22.3633574106
 40
5.0
100
AcDbArc
 50
90.0
 51
180.0
  0
ARC
  5
2FE
100
AcDbEntity
  8
0
100
AcDbCircle
 62
7
  6
BYLAYER
 10
62.6484291115
 20
21.4133574106
 40
3.65
100
AcDbArc
 50
43.4456175992
 51
136.5543824008
  0
ARC
  5
2FF
100
AcDbEntity
  8
0
100
AcDbCircle
 62
7
  6
BYLAYER
 10
62.6484291115
 20
21.4133574106
 40
3.65
100
AcDbArc
 50
223.4456175992
 51
316.5543824008
  0
ARC
  5
300
100
AcDbEntity
  8
0
100
AcDbCircle
 62
7
  6
BYLAYER
 10
62.6484291115
 20
80.4133574106
 40
5.0
100
AcDbArc
 50
180.0
 51
270.0
  0
ARC
  5
301
100
AcDbEntity
  8
0
100
AcDbCircle
 62
7
  6
BYLAYER
 10
62.2857523861
 20
80.3633574106
 40
5.0
100
AcDbArc
 50
185.1981354737
 51
270.0
  0
CIRCLE
  5
302
100
AcDbEntity
  8
0
100
AcDbCircle
 62
7
  6
BYLAYER
 10
62.6484291115
 20
81.4133574106
 40
2.65
  0
ARC
  5
303
100
AcDbEntity
  8
0
100
AcDbCircle
 62
7
  6
BYLAYER
 10
63.6484291115
 20
124.1133574106
 40
0.5
100
AcDbArc
 50
0.0
 51
90.0
  0
ARC
  5
304
100
AcDbEntity
  8
0
100
AcDbCircle
 62
7
  6
BYLAYER
 10
56.808526811
 20
79.8633574106
 40
0.5
100
AcDbArc
 50
5.2159085699
 51
90.0
  0
ARC
  5
305
100
AcDbEntity
  8
0
100
AcDbCircle
 62
7
  6
BYLAYER
 10
56.041022208
 20
379.9874059873
 40
364.0592712492
100
AcDbArc
 50
268.4090934272
 51
268.5299192172
  0
ARC
  5
306
100
AcDbEntity
  8
0
100
AcDbCircle
 62
7
  6
BYLAYER
 10
82.524306947
 20
25.5074871454
 40
38.1886509101
100
AcDbArc
 50
199.9674275755
 51
200.0964547219
  0
ARC
  5
307
100
AcDbEntity
  8
0
100
AcDbCircle
 62
7
  6
BYLAYER
 10
79.6005117641
 20
23.951637714
 40
32.9202985738
100
AcDbArc
 50
193.3542434398
 51
193.7869907584
  0
ARC
  5
308
100
AcDbEntity
  8
0
100
AcDbCircle
 62
7
  6
BYLAYER
 10
66.7857523861
 20
27.8633574106
 40
0.5
100
AcDbArc
 50
270.0
 51
360.0
  0
ARC
  5
309
100
AcDbEntity
  8
0
100
AcDbCircle
 62
7
  6
BYLAYER
 10
66.7857523861
 20
74.8633574106
 40
0.5
100
AcDbArc
 50
0.0
 51
90.0
  0
SPLINE
  5
30A
100
AcDbEntity
  8
0
100
AcDbSpline
 62
7
  6
BYLAYER
 70
0
 71
3
 72
20
 73
16
 74
0
 42
0.0000001
 43
0.0000001
 44
0.0000000001
 40
0.0
 40
0.0
 40
0.0
 40
0.0
 40
0.1902073438
 40
0.3737508877
 40
0.5433261749
 40
0.6929377448
 40
0.7585654028
 40
0.8172238102
 40
0.8683763079
 40
0.9116137993
 40
0.9465464886
 40
0.972883322
 40
0.9905663543
 40
0.996240817
 40
1.0
 40
1.0
 40
1.0
 40
1.0
 10
48.1492334482
 20
15.3621842875
 30
0.0
 10
48.1365150442
 20
15.3621842875
 30
0.0
 10
48.1115236407
 20
15.3623095401
 30
0.0
 10
48.0751971006
 20
15.3628620478
 30
0.0
 10
48.041592739
 20
15.3637598957
 30
0.0
 10
48.0158815642
 20
15.3648018127
 30
0.0
 10
47.9975945447
 20
15.3658107896
 30
0.0
 10
47.9858897098
 20
15.3665941746
 30
0.0
 10
47.9756890259
 20
15.3674290358
 30
0.0
 10
47.9670872447
 20
15.3683064902
 30
0.0
 10
47.9601520133
 20
15.3692086001
 30
0.0
 10
47.9549622837
 20
15.3701357062
 30
0.0
 10
47.9517183418
 20
15.3709601061
 30
0.0
 10
47.9500694018
 20
15.3717016453
 30
0.0
 10
47.9495464808
 20
15.3720936802
 30
0.0
 10
47.9494070995
 20
15.3723028584
 30
0.0
  0
SPLINE
  5
30B
100
AcDbEntity
  8
0
100
AcDbSpline
 62
7
  6
BYLAYER
 70
0
 71
3
 72
15
 73
11
 74
0
 42
0.0000001
 43
0.0000001
 44
0.0000000001
 40
0.0
 40
0.0
 40
0.0
 40
0.0
 40
0.0455942905
 40
0.0957814053
 40
0.2067822677
 40
0.3281778767
 40
0.4564355485
 40
0.5891688538
 40
0.7247677051
 40
1.0
 40
1.0
 40
1.0
 40
1.0
 10
47.949408976
 20
12.5740154486
 30
0.0
 10
47.9497418934
 20
12.5816588859
 30
0.0
 10
47.9517640825
 20
12.5976602186
 30
0.0
 10
47.9596854631
 20
12.6314740362
 30
0.0
 10
47.9752565696
 20
12.6763673159
 30
0.0
 10
47.9989183561
 20
12.7320769361
 30
0.0
 10
48.0261565389
 20
12.7901852553
 30
0.0
 10
48.0556389457
 20
12.8498469274
 30
0.0
 10
48.0969153108
 20
12.9311833677
 30
0.0
 10
48.1284224681
 20
12.9924994799
 30
0.0
 10
48.1492871414
 20
13.0337014732
 30
0.0
  0
LINE
  5
30C
100
AcDbEntity
  8
0
100
AcDbLine
 62
7
  6
BYLAYER
 10
49.5504952247
 20
16.1645305337
 11
48.6378564736
 21
16.0684672452
  0
LINE
  5
30D
100
AcDbEntity
  8
0
100
AcDbLine
 62
7
  6
BYLAYER
 10
48.6378564736
 20
15.458247576
 11
49.5504952247
 21
15.3621842875
  0
SPLINE
  5
30E
100
AcDbEntity
  8
0
100
AcDbSpline
 62
7
  6
BYLAYER
 70
0
 71
3
 72
9
 73
5
 74
0
 42
0.0000001
 43
0.0000001
 44
0.0000000001
 40
0.0
 40
0.0
 40
0.0
 40
0.0
 40
0.2489478118
 40
1.0
 40
1.0
 40
1.0
 40
1.0
 10
48.6378564736
 20
16.0684672452
 30
0.0
 10
48.5741719747
 20
16.0667254744
 30
0.0
 10
48.3183566505
 20
16.0597545717
 30
0.0
 10
48.0625396581
 20
16.0528354046
 30
0.0
 10
47.8703994511
 20
16.0479619378
 30
0.0
  0
SPLINE
  5
30F
100
AcDbEntity
  8
0
100
AcDbSpline
 62
7
  6
BYLAYER
 70
0
 71
3
 72
9
 73
5
 74
0
 42
0.0000001
 43
0.0000001
 44
0.0000000001
 40
0.0
 40
0.0
 40
0.0
 40
0.0
 40
0.2489478118
 40
1.0
 40
1.0
 40
1.0
 40
1.0
 10
47.5908622207
 20
14.411253323
 30
0.0
 10
47.5891204498
 20
14.4749378219
 30
0.0
 10
47.5821495472
 20
14.7307531461
 30
0.0
 10
47.5752303801
 20
14.9865701386
 30
0.0
 10
47.5703569133
 20
15.1787103456
 30
0.0
  0
LINE
  5
310
100
AcDbEntity
  8
0
100
AcDbLine
 62
7
  6
BYLAYER
 10
47.6187953961
 20
14.1454357021
 11
47.5908622207
 21
14.411253323
  0
SPLINE
  5
311
100
AcDbEntity
  8
0
100
AcDbSpline
 62
7
  6
BYLAYER
 70
0
 71
3
 72
13
 73
9
 74
0
 42
0.0000001
 43
0.0000001
 44
0.0000000001
 40
0.0
 40
0.0
 40
0.0
 40
0.0
 40
0.0456098861
 40
0.1147945395
 40
0.2073724075
 40
0.3229057291
 40
0.620274161
 40
1.0
 40
1.0
 40
1.0
 40
1.0
 10
47.9402107744
 20
19.0601126057
 30
0.0
 10
47.9407710823
 20
19.0585702169
 30
0.0
 10
47.9416874944
 20
19.0545236014
 30
0.0
 10
47.9428677627
 20
19.047161986
 30
0.0
 10
47.9440336964
 20
19.0372481899
 30
0.0
 10
47.9457209907
 20
19.019140599
 30
0.0
 10
47.9476164192
 20
18.9906804935
 30
0.0
 10
47.9488144673
 20
18.9663486718
 30
0.0
 10
47.949408976
 20
18.9526993726
 30
0.0
  0
SPLINE
  5
312
100
AcDbEntity
  8
0
100
AcDbSpline
 62
7
  6
BYLAYER
 70
0
 71
3
 72
13
 73
9
 74
0
 42
0.0000001
 43
0.0000001
 44
0.0000000001
 40
0.0
 40
0.0
 40
0.0
 40
0.0
 40
0.3797258258
 40
0.6770942411
 40
0.7926275704
 40
0.8852054463
 40
0.9543901092
 40
1.0
 40
1.0
 40
1.0
 40
1.0
 10
47.949408976
 20
12.5740154486
 30
0.0
 10
47.9488144673
 20
12.5603661499
 30
0.0
 10
47.9476164193
 20
12.5360343293
 30
0.0
 10
47.9457209908
 20
12.5075742245
 30
0.0
 10
47.9440336967
 20
12.4894666337
 30
0.0
 10
47.9428677628
 20
12.4795528367
 30
0.0
 10
47.9416874945
 20
12.4721912205
 30
0.0
 10
47.9407710823
 20
12.4681446045
 30
0.0
 10
47.9402107744
 20
12.4666022155
 30
0.0
  0
SPLINE
  5
313
100
AcDbEntity
  8
0
100
AcDbSpline
 62
7
  6
BYLAYER
 70
0
 71
3
 72
15
 73
11
 74
0
 42
0.0000001
 43
0.0000001
 44
0.0000000001
 40
0.0
 40
0.0
 40
0.0
 40
0.0
 40
0.2752978199
 40
0.410899371
 40
0.5436638534
 40
0.6719360297
 40
0.7933044564
 40
0.9042464956
 40
0.9543939621
 40
1.0
 40
1.0
 40
1.0
 40
1.0
 10
48.1492871414
 20
18.493013348
 30
0.0
 10
48.1284175678
 20
18.534225018
 30
0.0
 10
48.0969001852
 20
18.5955485053
 30
0.0
 10
48.0556278599
 20
18.6769054335
 30
0.0
 10
48.0261351164
 20
18.7365705055
 30
0.0
 10
47.998887363
 20
18.7946784092
 30
0.0
 10
47.9752687394
 20
18.8503920395
 30
0.0
 10
47.9596795697
 20
18.8952568376
 30
0.0
 10
47.9517696311
 20
18.9290581707
 30
0.0
 10
47.9497419781
 20
18.9450539905
 30
0.0
 10
47.949408976
 20
18.9526993726
 30
0.0
  0
SPLINE
  5
314
100
AcDbEntity
  8
0
100
AcDbSpline
 62
7
  6
BYLAYER
 70
0
 71
3
 72
20
 73
16
 74
0
 42
0.0000001
 43
0.0000001
 44
0.0000000001
 40
0.0
 40
0.0
 40
0.0
 40
0.0
 40
0.1902029088
 40
0.373743849
 40
0.5433226314
 40
0.6929573672
 40
0.7586025508
 40
0.8172802872
 40
0.8684494516
 40
0.9116934423
 40
0.9466149693
 40
0.9729238121
 40
0.9905781861
 40
0.9962436729
 40
1.0
 40
1.0
 40
1.0
 40
1.0
 10
48.1492337883
 20
16.1645305337
 30
0.0
 10
48.136515614
 20
16.1645305337
 30
0.0
 10
48.1115245506
 20
16.1644047376
 30
0.0
 10
48.0751980691
 20
16.1638516226
 30
0.0
 10
48.0415919184
 20
16.162954
 30
0.0
 10
48.0158776357
 20
16.1619125099
 30
0.0
 10
47.9975864825
 20
16.160903864
 30
0.0
 10
47.9858779865
 20
16.1601206707
 30
0.0
 10
47.9756743828
 20
16.1592859938
 30
0.0
 10
47.9670717279
 20
16.1584087181
 30
0.0
 10
47.9601386436
 20
16.1575067545
 30
0.0
 10
47.9549534647
 20
16.1565795226
 30
0.0
 10
47.9517141621
 20
16.1557548111
 30
0.0
 10
47.9500681421
 20
16.1550130322
 30
0.0
 10
47.9495463756
 20
16.1546209832
 30
0.0
 10
47.9494070995
 20
16.1544119629
 30
0.0
  0
LINE
  5
315
100
AcDbEntity
  8
0
100
AcDbLine
 62
7
  6
BYLAYER
 10
47.5908622207
 20
17.1154614982
 11
47.6187953961
 21
17.3812791191
  0
LINE
  5
316
100
AcDbEntity
  8
0
100
AcDbLine
 62
7
  6
BYLAYER
 10
46.952709376
 20
17.3812791191
 11
46.9806425514
 21
17.1154614982
  0
SPLINE
  5
317
100
AcDbEntity
  8
0
100
AcDbSpline
 62
7
  6
BYLAYER
 70
0
 71
3
 72
9
 73
5
 74
0
 42
0.0000001
 43
0.0000001
 44
0.0000000001
 40
0.0
 40
0.0
 40
0.0
 40
0.0
 40
0.2489478118
 40
1.0
 40
1.0
 40
1.0
 40
1.0
 10
46.9806425514
 20
17.1154614982
 30
0.0
 10
46.9823843223
 20
17.0517769993
 30
0.0
 10
46.9893552249
 20
16.7959616751
 30
0.0
 10
46.996274392
 20
16.5401446826
 30
0.0
 10
47.0011478588
 20
16.3480044756
 30
0.0
  0
SPLINE
  5
318
100
AcDbEntity
  8
0
100
AcDbSpline
 62
7
  6
BYLAYER
 70
0
 71
3
 72
9
 73
5
 74
0
 42
0.0000001
 43
0.0000001
 44
0.0000000001
 40
0.0
 40
0.0
 40
0.0
 40
0.0
 40
0.2489478118
 40
1.0
 40
1.0
 40
1.0
 40
1.0
 10
45.9336482985
 20
15.458247576
 30
0.0
 10
45.9973327974
 20
15.4599893469
 30
0.0
 10
46.2531481216
 20
15.4669602495
 30
0.0
 10
46.508965114
 20
15.4738794166
 30
0.0
 10
46.701105321
 20
15.4787528834
 30
0.0
  0
LINE
  5
319
100
AcDbEntity
  8
0
100
AcDbLine
 62
7
  6
BYLAYER
 10
45.9336482985
 20
16.0684672452
 11
45.0210095474
 21
16.1645305337
  0
LINE
  5
31A
100
AcDbEntity
  8
0
100
AcDbLine
 62
7
  6
BYLAYER
 10
45.0210095474
 20
15.3621842875
 11
45.9336482985
 21
15.458247576
  0
SPLINE
  5
31B
100
AcDbEntity
  8
0
100
AcDbSpline
 62
7
  6
BYLAYER
 70
0
 71
3
 72
13
 73
9
 74
0
 42
0.0000001
 43
0.0000001
 44
0.0000000001
 40
0.0
 40
0.0
 40
0.0
 40
0.0
 40
0.0456098861
 40
0.1147945395
 40
0.2073724075
 40
0.3229057291
 40
0.620274161
 40
1.0
 40
1.0
 40
1.0
 40
1.0
 10
46.6312939977
 20
12.4666022155
 30
0.0
 10
46.6307336898
 20
12.4681446043
 30
0.0
 10
46.6298172777
 20
12.4721912198
 30
0.0
 10
46.6286370094
 20
12.4795528352
 30
0.0
 10
46.6274710757
 20
12.4894666313
 30
0.0
 10
46.6257837815
 20
12.5075742222
 30
0.0
 10
46.623888353
 20
12.5360343277
 30
0.0
 10
46.6226903048
 20
12.5603661494
 30
0.0
 10
46.6220957962
 20
12.5740154486
 30
0.0
  0
SPLINE
  5
31C
100
AcDbEntity
  8
0
100
AcDbSpline
 62
7
  6
BYLAYER
 70
0
 71
3
 72
13
 73
9
 74
0
 42
0.0000001
 43
0.0000001
 44
0.0000000001
 40
0.0
 40
0.0
 40
0.0
 40
0.0
 40
0.3797258258
 40
0.6770942411
 40
0.7926275704
 40
0.8852054463
 40
0.9543901092
 40
1.0
 40
1.0
 40
1.0
 40
1.0
 10
46.6220957962
 20
18.9526993726
 30
0.0
 10
46.6226903048
 20
18.9663486713
 30
0.0
 10
46.6238883528
 20
18.9906804919
 30
0.0
 10
46.6257837813
 20
19.0191405967
 30
0.0
 10
46.6274710754
 20
19.0372481876
 30
0.0
 10
46.6286370093
 20
19.0471619845
 30
0.0
 10
46.6298172776
 20
19.0545236007
 30
0.0
 10
46.6307336898
 20
19.0585702168
 30
0.0
 10
46.6312939977
 20
19.0601126057
 30
0.0
  0
SPLINE
  5
31D
100
AcDbEntity
  8
0
100
AcDbSpline
 62
7
  6
BYLAYER
 70
0
 71
3
 72
20
 73
16
 74
0
 42
0.0000001
 43
0.0000001
 44
0.0000000001
 40
0.0
 40
0.0
 40
0.0
 40
0.0
 40
0.0037591832
 40
0.0094336467
 40
0.0271166813
 40
0.0534535162
 40
0.0883862058
 40
0.1316236979
 40
0.1827761954
 40
0.2414346008
 40
0.3070622562
 40
0.4566738197
 40
0.6262491014
 40
0.8097926514
 40
1.0
 40
1.0
 40
1.0
 40
1.0
 10
46.6220976726
 20
15.3723028583
 30
0.0
 10
46.6219582913
 20
15.3720936802
 30
0.0
 10
46.6214353701
 20
15.3717016453
 30
0.0
 10
46.61978643
 20
15.3709601061
 30
0.0
 10
46.6165424878
 20
15.3701357062
 30
0.0
 10
46.6113527578
 20
15.3692086
 30
0.0
 10
46.6044175263
 20
15.36830649
 30
0.0
 10
46.595815745
 20
15.3674290357
 30
0.0
 10
46.5856150612
 20
15.3665941745
 30
0.0
 10
46.5739102266
 20
15.3658107896
 30
0.0
 10
46.5556232079
 20
15.3648018127
 30
0.0
 10
46.529912034
 20
15.3637598957
 30
0.0
 10
46.4963076727
 20
15.3628620478
 30
0.0
 10
46.4599811322
 20
15.3623095401
 30
0.0
 10
46.434989728
 20
15.3621842875
 30
0.0
 10
46.4222713236
 20
15.3621842875
 30
0.0
  0
SPLINE
  5
31E
100
AcDbEntity
  8
0
100
AcDbSpline
 62
7
  6
BYLAYER
 70
0
 71
3
 72
15
 73
11
 74
0
 42
0.0000001
 43
0.0000001
 44
0.0000000001
 40
0.0
 40
0.0
 40
0.0
 40
0.0
 40
0.2752318383
 40
0.4108354364
 40
0.5435672811
 40
0.6718228074
 40
0.793224974
 40
0.9042217387
 40
0.9544062317
 40
1.0
 40
1.0
 40
1.0
 40
1.0
 10
46.4222176308
 20
13.0337014732
 30
0.0
 10
46.443082261
 20
12.9924995648
 30
0.0
 10
46.4745875216
 20
12.9311817096
 30
0.0
 10
46.5158682821
 20
12.8498470159
 30
0.0
 10
46.5453498933
 20
12.7901847187
 30
0.0
 10
46.5725840648
 20
12.7320740438
 30
0.0
 10
46.5962480656
 20
12.6763653848
 30
0.0
 10
46.6118194069
 20
12.6314721705
 30
0.0
 10
46.6197404914
 20
12.5976595691
 30
0.0
 10
46.6217628827
 20
12.5816587953
 30
0.0
 10
46.6220957962
 20
12.5740154486
 30
0.0
  0
SPLINE
  5
31F
100
AcDbEntity
  8
0
100
AcDbSpline
 62
7
  6
BYLAYER
 70
0
 71
3
 72
20
 73
16
 74
0
 42
0.0000001
 43
0.0000001
 44
0.0000000001
 40
0.0
 40
0.0
 40
0.0
 40
0.0
 40
0.003756332
 40
0.0094218338
 40
0.027076254
 40
0.0533851384
 40
0.0883067029
 40
0.1315507578
 40
0.182719974
 40
0.2413977302
 40
0.3070429568
 40
0.4566777445
 40
0.6262564703
 40
0.8097971928
 40
1.0
 40
1.0
 40
1.0
 40
1.0
 10
46.6220976723
 20
16.1544119632
 30
0.0
 10
46.6219583961
 20
16.1546209838
 30
0.0
 10
46.6214366277
 20
16.1550130328
 30
0.0
 10
46.6197906032
 20
16.1557548117
 30
0.0
 10
46.6165512937
 20
16.1565795234
 30
0.0
 10
46.6113661068
 20
16.1575067568
 30
0.0
 10
46.6044330132
 20
16.158408722
 30
0.0
 10
46.5958303482
 20
16.1592859974
 30
0.0
 10
46.5856267359
 20
16.1601206742
 30
0.0
 10
46.5739182326
 20
16.160903868
 30
0.0
 10
46.5556270724
 20
16.1619125125
 30
0.0
 10
46.529912788
 20
16.1629540025
 30
0.0
 10
46.4963066534
 20
16.1638516233
 30
0.0
 10
46.4599801983
 20
16.1644047383
 30
0.0
 10
46.4349891572
 20
16.1645305337
 30
0.0
 10
46.4222709902
 20
16.1645305337
 30
0.0
  0
SPLINE
  5
320
100
AcDbEntity
  8
0
100
AcDbSpline
 62
7
  6
BYLAYER
 70
0
 71
3
 72
15
 73
11
 74
0
 42
0.0000001
 43
0.0000001
 44
0.0000000001
 40
0.0
 40
0.0
 40
0.0
 40
0.0
 40
0.0455938655
 40
0.0957774266
 40
0.2067714127
 40
0.3281737545
 40
0.4564300146
 40
0.5891619672
 40
0.72476657
 40
1.0
 40
1.0
 40
1.0
 40
1.0
 10
46.6220957962
 20
18.9526993726
 30
0.0
 10
46.621762882
 20
18.9450560096
 30
0.0
 10
46.6197403816
 20
18.9290553934
 30
0.0
 10
46.6118197673
 20
18.8952433141
 30
0.0
 10
46.5962485742
 20
18.8503506588
 30
0.0
 10
46.5725848918
 20
18.7946422095
 30
0.0
 10
46.5453502443
 20
18.7365315645
 30
0.0
 10
46.5158688161
 20
18.6768688355
 30
0.0
 10
46.4745879618
 20
18.5955336763
 30
0.0
 10
46.4430823819
 20
18.5342154951
 30
0.0
 10
46.4222176308
 20
18.493013348
 30
0.0
  0
LINE
  5
321
100
AcDbEntity
  8
0
100
AcDbLine
 62
7
  6
BYLAYER
 10
46.9806425514
 20
14.411253323
 11
46.952709376
 21
14.1454357021
  0
SPLINE
  5
322
100
AcDbEntity
  8
0
100
AcDbSpline
 62
7
  6
BYLAYER
 70
0
 71
3
 72
10
 73
6
 74
0
 42
0.0000001
 43
0.0000001
 44
0.0000000001
 40
0.0
 40
0.0
 40
0.0
 40
0.0
 40
0.2634061814
 40
0.5178508694
 40
1.0
 40
1.0
 40
1.0
 40
1.0
 10
34.8966673737
 20
116.5501456288
 30
0.0
 10
34.8586093101
 20
116.5395437166
 30
0.0
 10
34.784290073
 20
116.5169014866
 30
0.0
 10
34.6419594199
 20
116.4695822361
 30
0.0
 10
34.5382616097
 20
116.4313511479
 30
0.0
 10
34.4709174113
 20
116.4050017596
 30
0.0
  0
SPLINE
  5
323
100
AcDbEntity
  8
0
100
AcDbSpline
 62
7
  6
BYLAYER
 70
0
 71
3
 72
9
 73
5
 74
0
 42
0.0000001
 43
0.0000001
 44
0.0000000001
 40
0.0
 40
0.0
 40
0.0
 40
0.0
 40
0.491275274
 40
1.0
 40
1.0
 40
1.0
 40
1.0
 10
34.4709174113
 20
116.4050017596
 30
0.0
 10
34.4935410163
 20
116.4892012769
 30
0.0
 10
34.5386323597
 20
116.6608484582
 30
0.0
 10
34.5813903937
 20
116.8331038841
 30
0.0
 10
34.6019825021
 20
116.921006805
 30
0.0
  0
SPLINE
  5
324
100
AcDbEntity
  8
0
100
AcDbSpline
 62
7
  6
BYLAYER
 70
0
 71
3
 72
18
 73
14
 74
0
 42
0.0000001
 43
0.0000001
 44
0.0000000001
 40
0.0
 40
0.0
 40
0.0
 40
0.0
 40
0.1237562563
 40
0.2477113846
 40
0.3719529225
 40
0.4966691406
 40
0.5594357557
 40
0.6224954136
 40
0.6857677549
 40
0.7491042622
 40
0.8122778387
 40
0.8751648031
 40
1.0
 40
1.0
 40
1.0
 40
1.0
 10
32.5948757209
 20
114.0545612562
 30
0.0
 10
32.5887063899
 20
114.0282332429
 30
0.0
 10
32.577687212
 20
113.9752055493
 30
0.0
 10
32.5668654942
 20
113.8945548128
 30
0.0
 10
32.5638977527
 20
113.8129938723
 30
0.0
 10
32.5717320817
 20
113.7447732724
 30
0.0
 10
32.5886925836
 20
113.6924979918
 30
0.0
 10
32.6086098413
 20
113.6559217394
 30
0.0
 10
32.6373028496
 20
113.6252540095
 30
0.0
 10
32.6737888188
 20
113.6042702323
 30
0.0
 10
32.7143501675
 20
113.5941954882
 30
0.0
 10
32.7694191209
 20
113.5921097824
 30
0.0
 10
32.8100817533
 20
113.6005287633
 30
0.0
 10
32.8363838484
 20
113.6077558188
 30
0.0
  0
SPLINE
  5
325
100
AcDbEntity
  8
0
100
AcDbSpline
 62
7
  6
BYLAYER
 70
0
 71
3
 72
18
 73
14
 74
0
 42
0.0000001
 43
0.0000001
 44
0.0000000001
 40
0.0
 40
0.0
 40
0.0
 40
0.0
 40
0.0151236722
 40
0.0409453445
 40
0.076773901
 40
0.1213431989
 40
0.1733779794
 40
0.2316953499
 40
0.3631258512
 40
0.5091945459
 40
0.6656501435
 40
0.8298154656
 40
1.0
 40
1.0
 40
1.0
 40
1.0
 10
60.5484235064
 20
116.7606694192
 30
0.0
 10
60.5484255169
 20
116.7583911186
 30
0.0
 10
60.5509705622
 20
116.7524970839
 30
0.0
 10
60.5565716136
 20
116.7425352372
 30
0.0
 10
60.5654894347
 20
116.7291597657
 30
0.0
 10
60.5770777976
 20
116.7129495997
 30
0.0
 10
60.5910644374
 20
116.6942545753
 30
0.0
 10
60.6132617694
 20
116.665380385
 30
0.0
 10
60.644635303
 20
116.6256899921
 30
0.0
 10
60.685617989
 20
116.574758788
 30
0.0
 10
60.7300509935
 20
116.5202747261
 30
0.0
 10
60.7771226654
 20
116.4632569714
 30
0.0
 10
60.8094308218
 20
116.4246154455
 30
0.0
 10
60.8259408117
 20
116.4050017596
 30
0.0
  0
SPLINE
  5
326
100
AcDbEntity
  8
0
100
AcDbSpline
 62
7
  6
BYLAYER
 70
0
 71
3
 72
18
 73
14
 74
0
 42
0.0000001
 43
0.0000001
 44
0.0000000001
 40
0.0
 40
0.0
 40
0.0
 40
0.0
 40
0.0151647672
 40
0.0410098282
 40
0.0768209285
 40
0.1213939235
 40
0.1734378796
 40
0.2317609989
 40
0.3631835918
 40
0.5092254474
 40
0.6656643316
 40
0.8298254619
 40
1.0
 40
1.0
 40
1.0
 40
1.0
 10
34.7484291115
 20
116.7607105822
 30
0.0
 10
34.7484291123
 20
116.7584259059
 30
0.0
 10
34.7458929699
 20
116.7525175798
 30
0.0
 10
34.7402952451
 20
116.7425430061
 30
0.0
 10
34.7313697832
 20
116.7291698099
 30
0.0
 10
34.7197849584
 20
116.7129559682
 30
0.0
 10
34.7057991975
 20
116.6942544217
 30
0.0
 10
34.6836024495
 20
116.6653747444
 30
0.0
 10
34.6522329009
 20
116.6256815311
 30
0.0
 10
34.6112419981
 20
116.5747601066
 30
0.0
 10
34.5668090639
 20
116.5202780195
 30
0.0
 10
34.5197484781
 20
116.4632494525
 30
0.0
 10
34.4874380884
 20
116.4246071756
 30
0.0
 10
34.4709174113
 20
116.4050017596
 30
0.0
  0
SPLINE
  5
327
100
AcDbEntity
  8
0
100
AcDbSpline
 62
7
  6
BYLAYER
 70
0
 71
3
 72
9
 73
5
 74
0
 42
0.0000001
 43
0.0000001
 44
0.0000000001
 40
0.0
 40
0.0
 40
0.0
 40
0.0
 40
0.4959980855
 40
1.0
 40
1.0
 40
1.0
 40
1.0
 10
34.4709181778
 20
120.1217147507
 30
0.0
 10
34.5401957418
 20
120.0946160586
 30
0.0
 10
34.6809659615
 20
120.0427595039
 30
0.0
 10
34.8239424224
 20
119.997180028
 30
0.0
 10
34.8966679818
 20
119.9765706324
 30
0.0
  0
SPLINE
  5
328
100
AcDbEntity
  8
0
100
AcDbSpline
 62
7
  6
BYLAYER
 70
0
 71
3
 72
18
 73
14
 74
0
 42
0.0000001
 43
0.0000001
 44
0.0000000001
 40
0.0
 40
0.0
 40
0.0
 40
0.0
 40
0.124824707
 40
0.1876987796
 40
0.2508541878
 40
0.3141826592
 40
0.3774646365
 40
0.4405123022
 40
0.5032836928
 40
0.6279956333
 40
0.7522583355
 40
0.8762216709
 40
1.0
 40
1.0
 40
1.0
 40
1.0
 10
32.8363838484
 20
122.9189590024
 30
0.0
 10
32.8102048348
 20
122.9266081476
 30
0.0
 10
32.769366737
 20
122.9341364372
 30
0.0
 10
32.7143402211
 20
122.9326100497
 30
0.0
 10
32.6737589898
 20
122.9224939026
 30
0.0
 10
32.6373224514
 20
122.9014598132
 30
0.0
 10
32.608622558
 20
122.8708092043
 30
0.0
 10
32.5886842252
 20
122.8342429317
 30
0.0
 10
32.5717540857
 20
122.7819601971
 30
0.0
 10
32.5639417361
 20
122.7137422517
 30
0.0
 10
32.5668187651
 20
122.6321726006
 30
0.0
 10
32.5777336421
 20
122.5515262054
 30
0.0
 10
32.588680529
 20
122.4984794265
 30
0.0
 10
32.5948757209
 20
122.472153565
 30
0.0
  0
SPLINE
  5
329
100
AcDbEntity
  8
0
100
AcDbSpline
 62
7
  6
BYLAYER
 70
0
 71
3
 72
18
 73
14
 74
0
 42
0.0000001
 43
0.0000001
 44
0.0000000001
 40
0.0
 40
0.0
 40
0.0
 40
0.0
 40
0.0151236722
 40
0.0409453445
 40
0.076773901
 40
0.1213431989
 40
0.1733779794
 40
0.2316953499
 40
0.3631258512
 40
0.5091945459
 40
0.6656501435
 40
0.8298154656
 40
1.0
 40
1.0
 40
1.0
 40
1.0
 10
34.7484347166
 20
119.766045402
 30
0.0
 10
34.7484327061
 20
119.7683237026
 30
0.0
 10
34.7458876608
 20
119.7742177373
 30
0.0
 10
34.7402866094
 20
119.784179584
 30
0.0
 10
34.7313687883
 20
119.7975550555
 30
0.0
 10
34.7197804254
 20
119.8137652215
 30
0.0
 10
34.7057937856
 20
119.8324602459
 30
0.0
 10
34.6835964536
 20
119.8613344362
 30
0.0
 10
34.6522229201
 20
119.9010248291
 30
0.0
 10
34.611240234
 20
119.9519560332
 30
0.0
 10
34.5668072296
 20
120.0064400951
 30
0.0
 10
34.5197355576
 20
120.0634578498
 30
0.0
 10
34.4874274012
 20
120.1020993757
 30
0.0
 10
34.4709174113
 20
120.1217130616
 30
0.0
  0
SPLINE
  5
32A
100
AcDbEntity
  8
0
100
AcDbSpline
 62
7
  6
BYLAYER
 70
0
 71
3
 72
9
 73
5
 74
0
 42
0.0000001
 43
0.0000001
 44
0.0000000001
 40
0.0
 40
0.0
 40
0.0
 40
0.0
 40
0.4959980855
 40
1.0
 40
1.0
 40
1.0
 40
1.0
 10
60.8259400452
 20
116.4050000706
 30
0.0
 10
60.7566624812
 20
116.4320987626
 30
0.0
 10
60.6158922615
 20
116.4839553173
 30
0.0
 10
60.4729158006
 20
116.5295347932
 30
0.0
 10
60.4001902412
 20
116.5501441888
 30
0.0
  0
SPLINE
  5
32B
100
AcDbEntity
  8
0
100
AcDbSpline
 62
7
  6
BYLAYER
 70
0
 71
3
 72
18
 73
14
 74
0
 42
0.0000001
 43
0.0000001
 44
0.0000000001
 40
0.0
 40
0.0
 40
0.0
 40
0.0
 40
0.124824707
 40
0.1876987796
 40
0.2508541878
 40
0.3141826592
 40
0.3774646365
 40
0.4405123022
 40
0.5032836928
 40
0.6279956333
 40
0.7522583355
 40
0.8762216709
 40
1.0
 40
1.0
 40
1.0
 40
1.0
 10
62.4604743746
 20
113.6077558188
 30
0.0
 10
62.4866533882
 20
113.6001066736
 30
0.0
 10
62.5274914861
 20
113.592578384
 30
0.0
 10
62.582518002
 20
113.5941047715
 30
0.0
 10
62.6230992332
 20
113.6042209186
 30
0.0
 10
62.6595357716
 20
113.625255008
 30
0.0
 10
62.688235665
 20
113.6559056169
 30
0.0
 10
62.7081739978
 20
113.6924718895
 30
0.0
 10
62.7251041373
 20
113.7447546241
 30
0.0
 10
62.7329164869
 20
113.8129725695
 30
0.0
 10
62.7300394579
 20
113.8945422206
 30
0.0
 10
62.7191245809
 20
113.9751886158
 30
0.0
 10
62.7081776941
 20
114.0282353948
 30
0.0
 10
62.7019825021
 20
114.0545612562
 30
0.0
  0
SPLINE
  5
32C
100
AcDbEntity
  8
0
100
AcDbSpline
 62
7
  6
BYLAYER
 70
0
 71
3
 72
18
 73
14
 74
0
 42
0.0000001
 43
0.0000001
 44
0.0000000001
 40
0.0
 40
0.0
 40
0.0
 40
0.0
 40
0.015164767
 40
0.041009828
 40
0.0768209283
 40
0.1213939234
 40
0.1734378795
 40
0.2317609989
 40
0.3631835919
 40
0.5092254476
 40
0.6656643319
 40
0.8298254621
 40
1.0
 40
1.0
 40
1.0
 40
1.0
 10
60.5484291115
 20
119.766004239
 30
0.0
 10
60.5484291108
 20
119.7682889153
 30
0.0
 10
60.5509652531
 20
119.7741972414
 30
0.0
 10
60.5565629779
 20
119.7841718151
 30
0.0
 10
60.5654884397
 20
119.7975450112
 30
0.0
 10
60.5770732646
 20
119.813758853
 30
0.0
 10
60.5910590255
 20
119.8324603994
 30
0.0
 10
60.6132557735
 20
119.8613400768
 30
0.0
 10
60.6446253221
 20
119.9010332901
 30
0.0
 10
60.685616225
 20
119.9519547146
 30
0.0
 10
60.7300491592
 20
120.0064368018
 30
0.0
 10
60.777109745
 20
120.0634653688
 30
0.0
 10
60.8094201346
 20
120.1021076456
 30
0.0
 10
60.8259408117
 20
120.1217130616
 30
0.0
  0
SPLINE
  5
32D
100
AcDbEntity
  8
0
100
AcDbSpline
 62
7
  6
BYLAYER
 70
0
 71
3
 72
9
 73
5
 74
0
 42
0.0000001
 43
0.0000001
 44
0.0000000001
 40
0.0
 40
0.0
 40
0.0
 40
0.0
 40
0.2506990804
 40
1.0
 40
1.0
 40
1.0
 40
1.0
 10
60.6948766057
 20
116.9210072207
 30
0.0
 10
60.7050516183
 20
116.8776952833
 30
0.0
 10
60.7466725141
 20
116.7051735091
 30
0.0
 10
60.7914321322
 20
116.5334232114
 30
0.0
 10
60.8259419696
 20
116.4050022766
 30
0.0
  0
SPLINE
  5
32E
100
AcDbEntity
  8
0
100
AcDbSpline
 62
7
  6
BYLAYER
 70
0
 71
3
 72
10
 73
6
 74
0
 42
0.0000001
 43
0.0000001
 44
0.0000000001
 40
0.0
 40
0.0
 40
0.0
 40
0.0
 40
0.2634061814
 40
0.5178508694
 40
1.0
 40
1.0
 40
1.0
 40
1.0
 10
60.4001908493
 20
119.9765691924
 30
0.0
 10
60.438248913
 20
119.9871711046
 30
0.0
 10
60.51256815
 20
120.0098133346
 30
0.0
 10
60.6548988031
 20
120.0571325851
 30
0.0
 10
60.7585966133
 20
120.0953636733
 30
0.0
 10
60.8259408117
 20
120.1217130616
 30
0.0
  0
SPLINE
  5
32F
100
AcDbEntity
  8
0
100
AcDbSpline
 62
7
  6
BYLAYER
 70
0
 71
3
 72
9
 73
5
 74
0
 42
0.0000001
 43
0.0000001
 44
0.0000000001
 40
0.0
 40
0.0
 40
0.0
 40
0.0
 40
0.491275274
 40
1.0
 40
1.0
 40
1.0
 40
1.0
 10
60.8259408117
 20
120.1217130616
 30
0.0
 10
60.8033172067
 20
120.0375135443
 30
0.0
 10
60.7582258633
 20
119.865866363
 30
0.0
 10
60.7154678294
 20
119.6936109371
 30
0.0
 10
60.6948757209
 20
119.6057080162
 30
0.0
  0
SPLINE
  5
330
100
AcDbEntity
  8
0
100
AcDbSpline
 62
7
  6
BYLAYER
 70
0
 71
3
 72
18
 73
14
 74
0
 42
0.0000001
 43
0.0000001
 44
0.0000000001
 40
0.0
 40
0.0
 40
0.0
 40
0.0
 40
0.1237562563
 40
0.2477113846
 40
0.3719529225
 40
0.4966691406
 40
0.5594357557
 40
0.6224954136
 40
0.6857677549
 40
0.7491042622
 40
0.8122778387
 40
0.8751648031
 40
1.0
 40
1.0
 40
1.0
 40
1.0
 10
62.7019825021
 20
122.472153565
 30
0.0
 10
62.7081518331
 20
122.4984815783
 30
0.0
 10
62.719171011
 20
122.5515092719
 30
0.0
 10
62.7299927289
 20
122.6321600084
 30
0.0
 10
62.7329604704
 20
122.7137209489
 30
0.0
 10
62.7251261413
 20
122.7819415488
 30
0.0
 10
62.7081656394
 20
122.8342168294
 30
0.0
 10
62.6882483817
 20
122.8707930818
 30
0.0
 10
62.6595553734
 20
122.9014608117
 30
0.0
 10
62.6230694042
 20
122.9224445889
 30
0.0
 10
62.5825080555
 20
122.932519333
 30
0.0
 10
62.5274391021
 20
122.9346050388
 30
0.0
 10
62.4867764698
 20
122.9261860579
 30
0.0
 10
62.4604743746
 20
122.9189590024
 30
0.0
  0
SPLINE
  5
331
100
AcDbEntity
  8
0
100
AcDbSpline
 62
7
  6
BYLAYER
 70
0
 71
3
 72
14
 73
10
 74
0
 42
0.0000001
 43
0.0000001
 44
0.0000000001
 40
0.0
 40
0.0
 40
0.0
 40
0.0
 40
0.12507049
 40
0.2500397099
 40
0.3749651895
 40
0.4999240625
 40
0.6249761781
 40
0.7500948566
 40
1.0
 40
1.0
 40
1.0
 40
1.0
 10
32.8363838484
 20
113.3209676007
 30
0.0
 10
32.7919336892
 20
113.3209716071
 30
0.0
 10
32.7027504063
 20
113.3287645407
 30
0.0
 10
32.5745395686
 20
113.3696621128
 30
0.0
 10
32.4611157073
 20
113.4426758066
 30
0.0
 10
32.3712344202
 20
113.5430255179
 30
0.0
 10
32.3074855987
 20
113.6612694681
 30
0.0
 10
32.2535309089
 20
113.8313567907
 30
0.0
 10
32.2413266334
 20
113.965744754
 30
0.0
 10
32.2413223303
 20
114.0545612562
 30
0.0
  0
SPLINE
  5
332
100
AcDbEntity
  8
0
100
AcDbSpline
 62
7
  6
BYLAYER
 70
0
 71
3
 72
14
 73
10
 74
0
 42
0.0000001
 43
0.0000001
 44
0.0000000001
 40
0.0
 40
0.0
 40
0.0
 40
0.0
 40
0.2376445724
 40
0.3599766906
 40
0.4856913043
 40
0.6151021261
 40
0.7460768475
 40
0.8748981973
 40
1.0
 40
1.0
 40
1.0
 40
1.0
 10
32.2413223303
 20
122.472153565
 30
0.0
 10
32.2413223303
 20
122.5566132861
 30
0.0
 10
32.2524804801
 20
122.6854633543
 30
0.0
 10
32.301954379
 20
122.8514864477
 30
0.0
 10
32.3631165484
 20
122.9719622781
 30
0.0
 10
32.4530400573
 20
123.0776900693
 30
0.0
 10
32.569806544
 20
123.1553742054
 30
0.0
 10
32.701358991
 20
123.1978429478
 30
0.0
 10
32.7919222255
 20
123.2057472205
 30
0.0
 10
32.8363838484
 20
123.2057472205
 30
0.0
  0
SPLINE
  5
333
100
AcDbEntity
  8
0
100
AcDbSpline
 62
7
  6
BYLAYER
 70
0
 71
3
 72
14
 73
10
 74
0
 42
0.0000001
 43
0.0000001
 44
0.0000000001
 40
0.0
 40
0.0
 40
0.0
 40
0.0
 40
0.12507049
 40
0.2500397099
 40
0.3749651895
 40
0.4999240625
 40
0.6249761781
 40
0.7500948566
 40
1.0
 40
1.0
 40
1.0
 40
1.0
 10
62.4604743746
 20
123.2057472206
 30
0.0
 10
62.5049245339
 20
123.2057432141
 30
0.0
 10
62.5941078167
 20
123.1979502805
 30
0.0
 10
62.7223186544
 20
123.1570527084
 30
0.0
 10
62.8357425157
 20
123.0840390146
 30
0.0
 10
62.9256238028
 20
122.9836893033
 30
0.0
 10
62.9893726244
 20
122.8654453531
 30
0.0
 10
63.0433273142
 20
122.6953580305
 30
0.0
 10
63.0555315896
 20
122.5609700672
 30
0.0
 10
63.0555358927
 20
122.472153565
 30
0.0
  0
SPLINE
  5
334
100
AcDbEntity
  8
0
100
AcDbSpline
 62
7
  6
BYLAYER
 70
0
 71
3
 72
14
 73
10
 74
0
 42
0.0000001
 43
0.0000001
 44
0.0000000001
 40
0.0
 40
0.0
 40
0.0
 40
0.0
 40
0.2376445724
 40
0.3599766906
 40
0.4856913043
 40
0.6151021261
 40
0.7460768475
 40
0.8748981972
 40
1.0
 40
1.0
 40
1.0
 40
1.0
 10
63.0555358927
 20
114.0545612562
 30
0.0
 10
63.0555358927
 20
113.9701015351
 30
0.0
 10
63.0443777429
 20
113.8412514669
 30
0.0
 10
62.994903844
 20
113.6752283735
 30
0.0
 10
62.9337416747
 20
113.5547525431
 30
0.0
 10
62.8438181658
 20
113.4490247519
 30
0.0
 10
62.727051679
 20
113.3713406158
 30
0.0
 10
62.5954992321
 20
113.3288718734
 30
0.0
 10
62.5049359975
 20
113.3209676007
 30
0.0
 10
62.4604743746
 20
113.3209676007
 30
0.0
  0
SPLINE
  5
335
100
AcDbEntity
  8
0
100
AcDbSpline
 62
7
  6
BYLAYER
 70
0
 71
3
 72
9
 73
5
 74
0
 42
0.0000001
 43
0.0000001
 44
0.0000000001
 40
0.0
 40
0.0
 40
0.0
 40
0.0
 40
0.2506990804
 40
1.0
 40
1.0
 40
1.0
 40
1.0
 10
34.6019816174
 20
119.6057076005
 30
0.0
 10
34.5918066048
 20
119.649019538
 30
0.0
 10
34.5501857089
 20
119.8215413121
 30
0.0
 10
34.5054260909
 20
119.9932916098
 30
0.0
 10
34.4709162535
 20
120.1217125446
 30
0.0
  0
ENDSEC
  0
SECTION
  2
OBJECTS
  0
DICTIONARY
  5
C
100
AcDbDictionary
280
0
281
1
  3
ACAD_GROUP
350
D
  3
ACAD_MLINESTYLE
350
17
  3
ACAD_LAYOUT
350
1A
  3
ACAD_PLOTSETTINGS
350
19
  3
ACAD_PLOTSTYLENAME
350
E
  0
DICTIONARY
  5
D
102
{ACAD_REACTORS
330
C
102
}
100
AcDbDictionary
280
0
281
1
  0
ACDBDICTIONARYWDFLT
  5
E
102
{ACAD_REACTORS
330
C
102
}
100
AcDbDictionary
281
1
  3
Normal
350
F
100
AcDbDictionaryWithDefault
340
F
  0
DICTIONARY
  5
17
102
{ACAD_REACTORS
330
C
102
}
100
AcDbDictionary
280
0
281
1
  3
Standard
350
18
  0
DICTIONARY
  5
19
102
{ACAD_REACTORS
330
C
102
}
100
AcDbDictionary
281
1
  0
DICTIONARY
  5
1A
102
{ACAD_REACTORS
330
C
102
}
100
AcDbDictionary
281
1
  3
Model
350
336
  3
Layout1
350
337
  0
ACDBPLACEHOLDER
  5
F
102
{ACAD_REACTORS
330
E
102
}
  0
MLINESTYLE
  5
18
102
{ACAD_REACTORS
330
17
102
}
100
AcDbMlineStyle
  2
STANDARD
 70
0
  3

 62
256
 51
90.0
 52
90.0
 71
2
 49
0.5
 62
256
  6
BYLAYER
 49
-0.5
 62
256
  6
BYLAYER
  0
LAYOUT
  5
336
102
{ACAD_REACTORS
330
1A
102
}
100
AcDbPlotSettings
  1

  2
none_device
  4

  6

 40
0.0
 41
0.0
 42
0.0
 43
0.0
 44
210.0
 45
297.0
 46
0.0
 47
0.0
 48
0.0
 49
0.0
140
0.0
141
0.0
142
1.0
143
1.0
 70
1024
 72
1
 73
0
 74
0
  7

 75
0
147
1.0
148
0.0
149
0.0
100
AcDbLayout
  1
Model
 70
0
 71
0
 10
0.0
 20
0.0
 11
210.0
 21
297.0
 12
0.0
 22
0.0
 32
0.0
 14
0.0
 24
0.0
 34
0.0
 15
0.0
 25
0.0
 35
0.0
146
0.0
 13
0.0
 23
0.0
 33
0.0
 16
1.0
 26
0.0
 36
0.0
 17
0.0
 27
1.0
 37
0.0
 76
0
330
210
345
0
346
0
  0
LAYOUT
  5
337
102
{ACAD_REACTORS
330
1A
102
}
100
AcDbPlotSettings
  1

  2
none_device
  4

  6

 40
0.0
 41
0.0
 42
0.0
 43
0.0
 44
210.0
 45
297.0
 46
0.0
 47
0.0
 48
0.0
 49
0.0
140
0.0
141
0.0
142
1.0
143
1.0
 70
0
 72
1
 73
0
 74
0
  7

 75
0
147
1.0
148
0.0
149
0.0
100
AcDbLayout
  1
Layout1
 70
0
 71
1
 10
0.0
 20
0.0
 11
210.0
 21
297.0
 12
0.0
 22
0.0
 32
0.0
 14
0.0
 24
0.0
 34
0.0
 15
0.0
 25
0.0
 35
0.0
146
0.0
 13
0.0
 23
0.0
 33
0.0
 16
1.0
 26
0.0
 36
0.0
 17
0.0
 27
1.0
 37
0.0
 76
0
330
211
345
0
346
0
  0
ENDSEC
  0
EOF
