999
DXF file: C:\Users\sesa63760\Dev\_Creo\CAD\MCADID0003610_3D-CAD\drw0001_1.dxf
999
Pro/ENGINEER 2019471 by Parametric Technology Corporation
  0
SECTION
  2
HEADER
  9
$ACADVER
  1
AC1024
  9
$DWGCODEPAGE
  3
ANSI_1252
  9
$EXTMAX
 10
83.6983719169
 20
118.3734117111
 30
0.0
  9
$EXTMIN
 10
0.0
 20
0.0
 30
0.0
  9
$LIMMIN
 10
0.0
 20
0.0
  9
$LIMMAX
 10
83.6983719169
 20
118.3734117111
  9
$VIEWCTR
 10
41.8491859585
 20
59.1867058556
  9
$VIEWSIZE
 40
118.3734117111
  9
$CLAYER
  8
0
  9
$LTSCALE
 40
7.7161927634
  9
$CELTYPE
  6
BYLAYER
  9
$DIMSCALE
 40
1.0
  9
$DIMASZ
 40
0.9964091895
  9
$DIMEXO
 40
1.0
  9
$DIMDLI
 40
5.3311877274
  9
$DIMEXE
 40
1.0
  9
$DIMCEN
 40
1.2626497249
  9
$DIMLFAC
 40
1.0
  9
$DIMBLK
  1
_FILLED
  9
$DIMALT
 70
0
  9
$DIMALTF
 40
0.0393700787
  9
$DIMTXT
 40
1.3949728653
  9
$DIMTOL
 70
1
  9
$DIMLIM
 70
0
  9
$DIMTFAC
 40
1.0
  9
$DIMTP
 40
0.01
  9
$DIMTM
 40
0.01
  9
$DIMGAP
 40
0.625
  9
$DIMDSEP
 70
46
  9
$AUNITS
 70
0
  9
$PDMODE
 70
3
  9
$PDSIZE
 40
0.3125
  9
$HANDSEED
  5
2C5
  9
$TILEMODE
 70
1
  9
$MEASUREMENT
 70
1
  9
$INSUNITS
 70
4
  0
ENDSEC
  0
SECTION
  2
CLASSES
  0
CLASS
  1
ACDBDICTIONARYWDFLT
  2
AcDbDictionaryWithDefault
  3
AutoCAD 2000
 90
0
 91
1
280
0
281
0
  0
CLASS
  1
ACDBPLACEHOLDER
  2
AcDbPlaceHolder
  3
AutoCAD 2000
 90
0
 91
1
280
0
281
0
  0
CLASS
  1
LAYOUT
  2
AcDbLayout
  3
AutoCAD 2000
 90
0
 91
0
280
0
281
0
  0
ENDSEC
  0
SECTION
  2
TABLES
  0
TABLE
  2
VPORT
  5
8
100
AcDbSymbolTable
 70
2
  0
VPORT
  5
1F4
100
AcDbSymbolTableRecord
100
AcDbViewportTableRecord
  2
*ACTIVE
 70
0
 10
0.0
 20
0.0
 11
1.0
 21
1.0
 12
41.8491859585
 22
59.1867058556
 13
0.0
 23
0.0
 14
1.0
 24
1.0
 15
0.0
 25
0.0
 16
0.0
 26
0.0
 36
1.0
 17
0.0
 27
0.0
 37
0.0
 40
118.3734117111
 41
0.7070707071
 42
50.0
 43
0.0
 44
0.0
 50
0.0
 51
0.0
 71
0
 72
100
 73
1
 74
1
 75
0
 76
0
 77
0
 78
0
  0
ENDTAB
  0
TABLE
  2
LTYPE
  5
5
100
AcDbSymbolTable
 70
6
  0
LTYPE
  5
14
100
AcDbSymbolTableRecord
100
AcDbLinetypeTableRecord
  2
BYBLOCK
 70
0
  3

 72
65
 73
0
 40
0.0
  0
LTYPE
  5
15
100
AcDbSymbolTableRecord
100
AcDbLinetypeTableRecord
  2
BYLAYER
 70
0
  3

 72
65
 73
0
 40
0.0
  0
LTYPE
  5
16
100
AcDbSymbolTableRecord
100
AcDbLinetypeTableRecord
  2
CONTINUOUS
 70
64
  3
Solid line
 72
65
 73
0
 40
0.0
  0
LTYPE
  5
1F5
100
AcDbSymbolTableRecord
100
AcDbLinetypeTableRecord
  2
CENTER
 70
64
  3
____ _ ____ _ ____ _ ____ _ ____ _ ____ _ ____
 72
65
 73
4
 40
0.6
 49
0.375
 74
0
 49
-0.075
 74
0
 49
0.075
 74
0
 49
-0.075
 74
0
  0
LTYPE
  5
1F6
100
AcDbSymbolTableRecord
100
AcDbLinetypeTableRecord
  2
HIDDEN
 70
64
  3
- - - - - - - - - - - - - - - - - - - -
 72
65
 73
2
 40
0.2
 49
0.1
 74
0
 49
-0.1
 74
0
  0
LTYPE
  5
1F7
100
AcDbSymbolTableRecord
100
AcDbLinetypeTableRecord
  2
PHANTOM
 70
64
  3
_____ _ _ _____ _ _ _____ _ _ _____
 72
65
 73
6
 40
0.8
 49
0.45
 74
0
 49
-0.05
 74
0
 49
0.1
 74
0
 49
-0.05
 74
0
 49
0.1
 74
0
 49
-0.05
 74
0
  0
LTYPE
  5
1F8
100
AcDbSymbolTableRecord
100
AcDbLinetypeTableRecord
  2
DOT
 70
64
  3
. . . . . . . . . . . . . . . . . . . .
 72
65
 73
2
 40
0.2
 49
0.1
 74
0
 49
-0.1
 74
0
  0
LTYPE
  5
1F9
100
AcDbSymbolTableRecord
100
AcDbLinetypeTableRecord
  2
DASHED
 70
64
  3
- - - - - - - - - - - - - - - - - - - -
 72
65
 73
2
 40
0.2
 49
0.1
 74
0
 49
-0.1
 74
0
  0
ENDTAB
  0
TABLE
  2
LAYER
  5
2
100
AcDbSymbolTable
 70
36
  0
LAYER
  5
10
100
AcDbSymbolTableRecord
100
AcDbLayerTableRecord
  2
0
 70
0
 62
7
  6
CONTINUOUS
370
-3
390
F
  0
LAYER
  5
1FA
100
AcDbSymbolTableRecord
100
AcDbLayerTableRecord
  2
DEFAULT_1
 70
0
 62
7
  6
CENTER
370
-3
390
F
  0
LAYER
  5
1FB
100
AcDbSymbolTableRecord
100
AcDbLayerTableRecord
  2
DEFAULT_2
 70
0
 62
7
  6
HIDDEN
370
-3
390
F
  0
LAYER
  5
1FC
100
AcDbSymbolTableRecord
100
AcDbLayerTableRecord
  2
DEFAULT_3
 70
0
 62
7
  6
PHANTOM
370
-3
390
F
  0
LAYER
  5
1FD
100
AcDbSymbolTableRecord
100
AcDbLayerTableRecord
  2
00_COMPONENTS
 70
0
 62
7
  6
CONTINUOUS
370
-3
390
F
  0
LAYER
  5
1FE
100
AcDbSymbolTableRecord
100
AcDbLayerTableRecord
  2
01_1_DEFAULT_DATUMS
 70
0
 62
7
  6
CONTINUOUS
370
-3
390
F
  0
LAYER
  5
1FF
100
AcDbSymbolTableRecord
100
AcDbLayerTableRecord
  2
01_PLANES
 70
0
 62
7
  6
CONTINUOUS
370
-3
390
F
  0
LAYER
  5
200
100
AcDbSymbolTableRecord
100
AcDbLayerTableRecord
  2
02_COORD_SYS
 70
0
 62
7
  6
CONTINUOUS
370
-3
390
F
  0
LAYER
  5
201
100
AcDbSymbolTableRecord
100
AcDbLayerTableRecord
  2
03_AXES
 70
0
 62
7
  6
CONTINUOUS
370
-3
390
F
  0
LAYER
  5
202
100
AcDbSymbolTableRecord
100
AcDbLayerTableRecord
  2
04_POINTS
 70
0
 62
7
  6
CONTINUOUS
370
-3
390
F
  0
LAYER
  5
203
100
AcDbSymbolTableRecord
100
AcDbLayerTableRecord
  2
05_CURVES
 70
0
 62
7
  6
CONTINUOUS
370
-3
390
F
  0
LAYER
  5
204
100
AcDbSymbolTableRecord
100
AcDbLayerTableRecord
  2
06_SURFS
 70
0
 62
7
  6
CONTINUOUS
370
-3
390
F
  0
LAYER
  5
205
100
AcDbSymbolTableRecord
100
AcDbLayerTableRecord
  2
07_COSMETICS
 70
0
 62
7
  6
CONTINUOUS
370
-3
390
F
  0
LAYER
  5
206
100
AcDbSymbolTableRecord
100
AcDbLayerTableRecord
  2
10_NOTES
 70
0
 62
7
  6
CONTINUOUS
370
-3
390
F
  0
LAYER
  5
207
100
AcDbSymbolTableRecord
100
AcDbLayerTableRecord
  2
11_NOTES_PUB
 70
0
 62
7
  6
CONTINUOUS
370
-3
390
F
  0
LAYER
  5
208
100
AcDbSymbolTableRecord
100
AcDbLayerTableRecord
  2
13_REF_GTOL
 70
0
 62
7
  6
CONTINUOUS
370
-3
390
F
  0
LAYER
  5
209
100
AcDbSymbolTableRecord
100
AcDbLayerTableRecord
  2
16_MISC
 70
0
 62
7
  6
CONTINUOUS
370
-3
390
F
  0
LAYER
  5
20A
100
AcDbSymbolTableRecord
100
AcDbLayerTableRecord
  2
17_NO_PRINT
 70
0
 62
7
  6
CONTINUOUS
370
-3
390
F
  0
LAYER
  5
20B
100
AcDbSymbolTableRecord
100
AcDbLayerTableRecord
  2
18_DATUM_CAMS_JOINTS
 70
0
 62
7
  6
CONTINUOUS
370
-3
390
F
  0
LAYER
  5
20C
100
AcDbSymbolTableRecord
100
AcDbLayerTableRecord
  2
19_DATUM_FUNCTIONAL
 70
0
 62
7
  6
CONTINUOUS
370
-3
390
F
  0
LAYER
  5
20D
100
AcDbSymbolTableRecord
100
AcDbLayerTableRecord
  2
20_DATUM_KINEMATIC_SCHEME
 70
0
 62
7
  6
CONTINUOUS
370
-3
390
F
  0
ENDTAB
  0
TABLE
  2
STYLE
  5
3
100
AcDbSymbolTable
 70
1
  0
STYLE
  5
11
100
AcDbSymbolTableRecord
100
AcDbTextStyleTableRecord
  2
STANDARD
 70
0
 40
0.0
 41
1.0
 50
0.0
 71
0
 42
0.2
  3
ARIAL.TTF
  4

  0
STYLE
  5
20E
100
AcDbSymbolTableRecord
100
AcDbTextStyleTableRecord
  2
TEXTSTYLE_1
 70
0
 40
0.0
 41
0.8
 50
0.0
 71
0
 42
0.2
  3
gdt
  4

  0
ENDTAB
  0
TABLE
  2
VIEW
  5
6
100
AcDbSymbolTable
 70
0
  0
ENDTAB
  0
TABLE
  2
UCS
  5
7
100
AcDbSymbolTable
 70
0
  0
ENDTAB
  0
TABLE
  2
APPID
  5
9
100
AcDbSymbolTable
 70
1
  0
APPID
  5
20F
100
AcDbSymbolTableRecord
100
AcDbRegAppTableRecord
  2
ACAD
 70
0
  0
ENDTAB
  0
TABLE
  2
BLOCK_RECORD
  5
1
100
AcDbSymbolTable
 70
0
  0
BLOCK_RECORD
  5
210
100
AcDbSymbolTableRecord
100
AcDbBlockTableRecord
  2
*Model_Space
  0
BLOCK_RECORD
  5
211
100
AcDbSymbolTableRecord
100
AcDbBlockTableRecord
  2
*Paper_Space
  0
BLOCK_RECORD
  5
212
100
AcDbSymbolTableRecord
100
AcDbBlockTableRecord
  2
_FILLED
  0
ENDTAB
  0
TABLE
  2
DIMSTYLE
  5
A
100
AcDbSymbolTable
 70
1
100
AcDbDimStyleTable
 71
0
  0
DIMSTYLE
105
213
100
AcDbSymbolTableRecord
100
AcDbDimStyleTableRecord
  2
STANDARD
 70
0
  3

  4

 40
1.0
 41
0.9964091895
 42
1.0
 43
0.38
 44
1.0
 45
0.0
 46
0.0
 47
0.01
 48
0.01
140
1.3949728653
141
0.09
142
0.0
143
25.4
144
1.0
145
0.0
146
1.0
147
0.625
 71
1
 72
0
 73
0
 74
0
 75
0
 76
0
 77
1
 78
8
 79
2
170
0
171
1
172
0
173
0
174
0
175
0
176
0
177
0
178
0
270
2
179
2
271
2
272
2
273
2
274
2
275
0
280
0
281
0
282
0
283
1
284
8
285
0
286
0
287
3
288
0
340
11
278
46
341
212
342
212
343
212
344
212
  0
ENDTAB
  0
ENDSEC
  0
SECTION
  2
BLOCKS
  0
BLOCK
  5
20
100
AcDbEntity
  8
0
100
AcDbBlockBegin
  2
*Model_Space
 70
0
 10
0.0
 20
0.0
 30
0.0
  3
*Model_Space
  1

  0
ENDBLK
  5
21
100
AcDbEntity
  8
0
100
AcDbBlockEnd
  0
BLOCK
  5
1C
100
AcDbEntity
  8
0
100
AcDbBlockBegin
  2
*Paper_Space
 70
0
 10
0.0
 20
0.0
 30
0.0
  3
*Paper_Space
  1

  0
ENDBLK
  5
1D
100
AcDbEntity
  8
0
100
AcDbBlockEnd
  0
BLOCK
  5
214
100
AcDbEntity
  8
0
100
AcDbBlockBegin
  2
_FILLED
 70
64
 10
0.0
 20
0.0
  3
_FILLED
  1

  0
SOLID
  5
215
100
AcDbEntity
  8
0
  6
BYBLOCK
 62
0
100
AcDbTrace
 10
0.0
 20
0.0
 11
-1.0
 21
0.25
 12
-1.0
 22
-0.25
 13
-1.0
 23
-0.25
  0
ENDBLK
  5
216
100
AcDbEntity
  8
0
  6
BYBLOCK
 62
0
100
AcDbBlockEnd
  0
ENDSEC
  0
SECTION
  2
ENTITIES
  0
LINE
  5
217
100
AcDbEntity
  8
0
100
AcDbLine
 62
7
  6
BYLAYER
 10
23.1143028977
 20
109.4357562049
 11
20.8592089512
 21
108.1337848796
  0
LINE
  5
218
100
AcDbEntity
  8
0
100
AcDbLine
 62
7
  6
BYLAYER
 10
22.7000907464
 20
108.5202193392
 11
24.1142984208
 21
109.3367076469
  0
LINE
  5
219
100
AcDbEntity
  8
0
100
AcDbLine
 62
7
  6
BYLAYER
 10
69.5038539239
 20
9.1391652881
 11
69.5283493932
 21
9.1396491122
  0
LINE
  5
21A
100
AcDbEntity
  8
0
100
AcDbLine
 62
7
  6
BYLAYER
 10
19.1645597844
 20
99.5386930067
 11
13.8612810053
 21
96.4768618527
  0
LINE
  5
21B
100
AcDbEntity
  8
0
100
AcDbLine
 62
7
  6
BYLAYER
 10
30.4783065549
 20
96.8852011527
 11
32.9531699851
 21
98.3140556912
  0
LINE
  5
21C
100
AcDbEntity
  8
0
100
AcDbLine
 62
7
  6
BYLAYER
 10
38.9636026489
 20
100.763651802
 11
36.6351852183
 21
99.4193473961
  0
LINE
  5
21D
100
AcDbEntity
  8
0
100
AcDbLine
 62
7
  6
BYLAYER
 10
34.5442012209
 20
96.3749234431
 11
32.9531905929
 21
95.4563585118
  0
LINE
  5
21E
100
AcDbEntity
  8
0
100
AcDbLine
 62
7
  6
BYLAYER
 10
36.4887509945
 20
96.0688226124
 11
40.3778220992
 21
98.3141654587
  0
LINE
  5
21F
100
AcDbEntity
  8
0
100
AcDbLine
 62
7
  6
BYLAYER
 10
29.1677018873
 20
31.7095082818
 11
37.0745155502
 21
27.1444063318
  0
LINE
  5
220
100
AcDbEntity
  8
0
100
AcDbLine
 62
7
  6
BYLAYER
 10
44.7241158406
 20
22.7282116824
 11
53.3558196627
 21
17.744594486
  0
LINE
  5
221
100
AcDbEntity
  8
0
100
AcDbLine
 62
7
  6
BYLAYER
 10
12.8006252495
 20
42.3835872999
 11
12.8006252495
 21
94.6397419962
  0
LINE
  5
222
100
AcDbEntity
  8
0
100
AcDbLine
 62
7
  6
BYLAYER
 10
40.3778220992
 20
89.7408900788
 11
39.670718262
 21
89.3326459249
  0
LINE
  5
223
100
AcDbEntity
  8
0
100
AcDbLine
 62
7
  6
BYLAYER
 10
46.0347823314
 20
22.1406213992
 11
44.6205628811
 21
22.9571029082
  0
LINE
  5
224
100
AcDbEntity
  8
0
100
AcDbLine
 62
7
  6
BYLAYER
 10
30.4783683782
 20
31.1219179986
 11
29.0641489279
 21
31.9383995077
  0
LINE
  5
225
100
AcDbEntity
  8
0
100
AcDbLine
 62
7
  6
BYLAYER
 10
69.5037407365
 20
9.1392306325
 11
46.3454508125
 21
22.5095926157
  0
LINE
  5
226
100
AcDbEntity
  8
0
100
AcDbLine
 62
7
  6
BYLAYER
 10
29.0641489279
 20
32.4867311977
 11
13.1112937306
 21
41.6969080782
  0
LINE
  5
227
100
AcDbEntity
  8
0
100
AcDbLine
 62
7
  6
BYLAYER
 10
69.677988945
 20
9.5459494066
 11
63.3588802854
 21
13.1942059576
  0
LINE
  5
228
100
AcDbEntity
  8
0
100
AcDbLine
 62
7
  6
BYLAYER
 10
62.2983060098
 20
13.8067344835
 11
46.0347823314
 21
23.1962718374
  0
LINE
  5
229
100
AcDbEntity
  8
0
100
AcDbLine
 62
7
  6
BYLAYER
 10
29.0641489279
 20
32.9940499459
 11
12.8006252495
 21
42.3835872999
  0
LINE
  5
22A
100
AcDbEntity
  8
0
100
AcDbLine
 62
7
  6
BYLAYER
 10
29.1677018873
 20
86.6543182506
 11
36.3851862592
 21
99.1554372807
  0
LINE
  5
22B
100
AcDbEntity
  8
0
100
AcDbLine
 62
7
  6
BYLAYER
 10
36.4887509945
 20
96.0688226124
 11
30.5819213376
 21
85.8378367416
  0
LINE
  5
22C
100
AcDbEntity
  8
0
100
AcDbLine
 62
7
  6
BYLAYER
 10
68.6622269647
 20
16.2561547208
 11
69.7228963005
 21
15.6437908477
  0
LINE
  5
22D
100
AcDbEntity
  8
0
100
AcDbLine
 62
7
  6
BYLAYER
 10
20.2252155402
 20
107.0913297831
 11
20.2252155402
 21
101.3758128632
  0
LINE
  5
22E
100
AcDbEntity
  8
0
100
AcDbLine
 62
7
  6
BYLAYER
 10
54.9342405293
 20
91.0649222515
 11
52.0451739013
 21
89.3969288127
  0
LINE
  5
22F
100
AcDbEntity
  8
0
100
AcDbLine
 62
7
  6
BYLAYER
 10
53.6058186218
 20
89.6215692876
 11
55.9342360524
 21
90.9658736935
  0
LINE
  5
230
100
AcDbEntity
  8
0
100
AcDbLine
 62
7
  6
BYLAYER
 10
40.3778220992
 20
38.3012377997
 11
39.670718262
 21
38.7094751549
  0
LINE
  5
231
100
AcDbEntity
  8
0
100
AcDbLine
 62
7
  6
BYLAYER
 10
29.0641489279
 20
31.9383995077
 11
29.0641489279
 21
32.9940499459
  0
LINE
  5
232
100
AcDbEntity
  8
0
100
AcDbLine
 62
7
  6
BYLAYER
 10
29.0641489279
 20
85.2502046422
 11
29.0641489279
 21
86.3058550805
  0
LINE
  5
233
100
AcDbEntity
  8
0
100
AcDbLine
 62
7
  6
BYLAYER
 10
30.4783683782
 20
85.4893735714
 11
30.4783683782
 21
31.1219179986
  0
LINE
  5
234
100
AcDbEntity
  8
0
100
AcDbLine
 62
7
  6
BYLAYER
 10
47.0954380872
 20
77.2895463902
 11
52.3987168663
 21
80.3513775443
  0
LINE
  5
235
100
AcDbEntity
  8
0
100
AcDbLine
 62
7
  6
BYLAYER
 10
56.9949212479
 20
81.5761728582
 11
59.4697846781
 21
83.0050273967
  0
LINE
  5
236
100
AcDbEntity
  8
0
100
AcDbLine
 62
7
  6
BYLAYER
 10
61.0608159139
 20
81.0658951486
 11
59.4698052859
 21
80.1473302173
  0
LINE
  5
237
100
AcDbEntity
  8
0
100
AcDbLine
 62
7
  6
BYLAYER
 10
44.7241158406
 20
77.6730216512
 11
50.6309454974
 21
87.904007522
  0
LINE
  5
238
100
AcDbEntity
  8
0
100
AcDbLine
 62
7
  6
BYLAYER
 10
53.3558196627
 20
89.3576591722
 11
46.1383352909
 21
76.8565401421
  0
LINE
  5
239
100
AcDbEntity
  8
0
100
AcDbLine
 62
7
  6
BYLAYER
 10
70.7835402805
 20
82.3928178486
 11
69.3693326061
 21
81.5763295408
  0
LINE
  5
23A
100
AcDbEntity
  8
0
100
AcDbLine
 62
7
  6
BYLAYER
 10
39.670718262
 20
89.3326459249
 11
39.670718262
 21
37.8929936458
  0
LINE
  5
23B
100
AcDbEntity
  8
0
100
AcDbLine
 62
7
  6
BYLAYER
 10
40.3778220992
 20
29.7279624198
 11
40.3778220992
 21
38.3012377997
  0
LINE
  5
23C
100
AcDbEntity
  8
0
100
AcDbLine
 62
7
  6
BYLAYER
 10
40.3778220992
 20
89.7408900788
 11
40.3778220992
 21
98.3141654587
  0
LINE
  5
23D
100
AcDbEntity
  8
0
100
AcDbLine
 62
7
  6
BYLAYER
 10
69.7228963005
 20
78.5144769667
 11
72.1977597308
 21
79.9433315053
  0
LINE
  5
23E
100
AcDbEntity
  8
0
100
AcDbLine
 62
7
  6
BYLAYER
 10
44.6205628811
 20
22.9571029082
 11
44.6205628811
 21
77.324558481
  0
LINE
  5
23F
100
AcDbEntity
  8
0
100
AcDbLine
 62
7
  6
BYLAYER
 10
46.0347823314
 20
76.508076972
 11
46.0347823314
 21
75.4524265337
  0
LINE
  5
240
100
AcDbEntity
  8
0
100
AcDbLine
 62
7
  6
BYLAYER
 10
46.0347823314
 20
23.1962718374
 11
46.0347823314
 21
22.1406213992
  0
LINE
  5
241
100
AcDbEntity
  8
0
100
AcDbLine
 62
7
  6
BYLAYER
 10
63.3589617656
 20
67.9000090363
 11
68.6622405447
 21
70.9618401903
  0
LINE
  5
242
100
AcDbEntity
  8
0
100
AcDbLine
 62
7
  6
BYLAYER
 10
53.4593726221
 20
88.3122655292
 11
53.4593726221
 21
82.1884974008
  0
LINE
  5
243
100
AcDbEntity
  8
0
100
AcDbLine
 62
7
  6
BYLAYER
 10
12.8006252495
 20
94.6397419962
 11
29.0641489279
 21
85.2502046422
  0
LINE
  5
244
100
AcDbEntity
  8
0
100
AcDbLine
 62
7
  6
BYLAYER
 10
46.0347823314
 20
75.4524265337
 11
62.2983060098
 21
66.0628891798
  0
LINE
  5
245
100
AcDbEntity
  8
0
100
AcDbLine
 62
7
  6
BYLAYER
 10
61.0660361583
 20
72.3905488337
 11
61.0650765084
 21
80.7730636398
  0
LINE
  5
246
100
AcDbEntity
  8
0
100
AcDbLine
 62
7
  6
BYLAYER
 10
62.2983060098
 20
66.0628891798
 11
62.2983060098
 21
13.8067344835
  0
LINE
  5
247
100
AcDbEntity
  8
0
100
AcDbLine
 62
7
  6
BYLAYER
 10
39.670718262
 20
37.8929936458
 11
40.3778220992
 21
38.3012377997
  0
LINE
  5
248
100
AcDbEntity
  8
0
100
AcDbLine
 62
7
  6
BYLAYER
 10
29.0641489279
 20
86.3058550805
 11
30.4783683782
 21
85.4893735714
  0
LINE
  5
249
100
AcDbEntity
  8
0
100
AcDbLine
 62
7
  6
BYLAYER
 10
44.6205628811
 20
77.324558481
 11
46.0347823314
 21
76.508076972
  0
LINE
  5
24A
100
AcDbEntity
  8
0
100
AcDbLine
 62
7
  6
BYLAYER
 10
46.1383352909
 20
76.8565401421
 11
44.7241158406
 21
77.6730216512
  0
LINE
  5
24B
100
AcDbEntity
  8
0
100
AcDbLine
 62
7
  6
BYLAYER
 10
30.5819213376
 20
85.8378367416
 11
29.1677018873
 21
86.6543182506
  0
LINE
  5
24C
100
AcDbEntity
  8
0
100
AcDbLine
 62
7
  6
BYLAYER
 10
63.3589617656
 20
67.9000090363
 11
47.0954380872
 21
77.2895463902
  0
LINE
  5
24D
100
AcDbEntity
  8
0
100
AcDbLine
 62
7
  6
BYLAYER
 10
29.5944700157
 20
87.3935064353
 11
13.8612810053
 21
96.4768618527
  0
LINE
  5
24E
100
AcDbEntity
  8
0
100
AcDbLine
 62
7
  6
BYLAYER
 10
19.1645597844
 20
99.5386930067
 11
32.2460754547
 21
91.9862472722
  0
LINE
  5
24F
100
AcDbEntity
  8
0
100
AcDbLine
 62
7
  6
BYLAYER
 10
52.3987168663
 20
80.3513775443
 11
61.0656976273
 21
75.3476070693
  0
LINE
  5
250
100
AcDbEntity
  8
0
100
AcDbLine
 62
7
  6
BYLAYER
 10
66.9644587299
 20
71.9420328032
 11
68.6622405447
 21
70.9618401903
  0
LINE
  5
251
100
AcDbEntity
  8
0
100
AcDbLine
 62
7
  6
BYLAYER
 10
67.0660246881
 20
72.4910838516
 11
67.0650764691
 21
80.7737505338
  0
LINE
  5
252
100
AcDbEntity
  8
0
100
AcDbLine
 62
7
  6
BYLAYER
 10
69.7228963005
 20
9.9282739278
 11
69.7228963005
 21
15.6437908477
  0
LINE
  5
253
100
AcDbEntity
  8
0
100
AcDbLine
 62
7
  6
BYLAYER
 10
69.7228963005
 20
72.7989600468
 11
69.7228963005
 21
78.5144769667
  0
LINE
  5
254
100
AcDbEntity
  8
0
100
AcDbLine
 62
7
  6
BYLAYER
 10
40.3778220992
 20
29.7279624198
 11
36.4887509945
 21
27.4826195735
  0
LINE
  5
255
100
AcDbEntity
  8
0
100
AcDbLine
 62
7
  6
BYLAYER
 10
39.963598172
 20
28.8123905365
 11
37.074531544
 21
27.1443970978
  0
LINE
  5
256
100
AcDbEntity
  8
0
100
AcDbLine
 62
7
  6
BYLAYER
 10
69.7228963005
 20
72.7989600468
 11
67.0658138221
 21
74.3329926266
  0
LINE
  5
257
100
AcDbEntity
  8
0
100
AcDbLine
 62
7
  6
BYLAYER
 10
61.0654171871
 20
77.7972448672
 11
53.4593726221
 21
82.1884974008
  0
LINE
  5
258
100
AcDbEntity
  8
0
100
AcDbLine
 62
7
  6
BYLAYER
 10
33.3067312105
 20
93.8233671287
 11
20.2252155402
 21
101.3758128632
  0
LINE
  5
259
100
AcDbEntity
  8
0
100
AcDbLine
 62
7
  6
BYLAYER
 10
30.4783065549
 20
96.8852011527
 11
32.9531905929
 21
95.4563585118
  0
LINE
  5
25A
100
AcDbEntity
  8
0
100
AcDbLine
 62
7
  6
BYLAYER
 10
56.9949212479
 20
81.5761728582
 11
59.4698052859
 21
80.1473302173
  0
LINE
  5
25B
100
AcDbEntity
  8
0
100
AcDbLine
 62
7
  6
BYLAYER
 10
72.1977597308
 20
11.3571284664
 11
72.1977597308
 21
79.9433315053
  0
LINE
  5
25C
100
AcDbEntity
  8
0
100
AcDbLine
 62
7
  6
BYLAYER
 10
60.7596647923
 20
82.2603316128
 11
59.4697846781
 21
83.0050273967
  0
LINE
  5
25D
100
AcDbEntity
  8
0
100
AcDbLine
 62
7
  6
BYLAYER
 10
34.2430500993
 20
97.5693599073
 11
32.9531699851
 21
98.3140556912
  0
LINE
  5
25E
100
AcDbEntity
  8
0
100
AcDbLine
 62
7
  6
BYLAYER
 10
59.4698052859
 20
83.8215910944
 11
56.9949212479
 21
85.2504337352
  0
LINE
  5
25F
100
AcDbEntity
  8
0
100
AcDbLine
 62
7
  6
BYLAYER
 10
32.9531905929
 20
99.1306193889
 11
30.4783065549
 21
100.5594620297
  0
LINE
  5
260
100
AcDbEntity
  8
0
100
AcDbLine
 62
7
  6
BYLAYER
 10
20.2701228958
 20
107.4736543044
 11
35.9584045506
 21
98.4162255743
  0
LINE
  5
261
100
AcDbEntity
  8
0
100
AcDbLine
 62
7
  6
BYLAYER
 10
53.4593726221
 20
88.3122655292
 11
61.5628166678
 21
83.6338457681
  0
LINE
  5
262
100
AcDbEntity
  8
0
100
AcDbLine
 62
7
  6
BYLAYER
 10
67.0651127124
 20
80.4571655317
 11
69.677988945
 21
78.9486548626
  0
LINE
  5
263
100
AcDbEntity
  8
0
100
AcDbLine
 62
7
  6
BYLAYER
 10
36.3851862592
 20
99.1554372807
 11
36.9163851519
 21
98.848756395
  0
LINE
  5
264
100
AcDbEntity
  8
0
100
AcDbLine
 62
7
  6
BYLAYER
 10
52.8246207699
 20
89.6643400579
 11
53.3558196627
 21
89.3576591722
  0
LINE
  5
265
100
AcDbEntity
  8
0
100
AcDbLine
 62
7
  6
BYLAYER
 10
69.3693326061
 20
81.5763295408
 11
66.5634948861
 21
83.1962440564
  0
LINE
  5
266
100
AcDbEntity
  8
0
100
AcDbLine
 62
7
  6
BYLAYER
 10
61.7890418962
 20
85.9527134156
 11
54.520028378
 21
90.1493853857
  0
LINE
  5
267
100
AcDbEntity
  8
0
100
AcDbLine
 62
7
  6
BYLAYER
 10
37.5493949744
 20
99.9471634942
 11
22.7000907464
 21
108.5202193392
  0
LINE
  5
268
100
AcDbEntity
  8
0
100
AcDbLine
 62
7
  6
BYLAYER
 10
70.7835402805
 20
82.3928178486
 11
66.5533424287
 21
84.8350684659
  0
LINE
  5
269
100
AcDbEntity
  8
0
100
AcDbLine
 62
7
  6
BYLAYER
 10
62.7286380211
 20
87.0432126303
 11
55.9342360524
 21
90.9658736935
  0
LINE
  5
26A
100
AcDbEntity
  8
0
100
AcDbLine
 62
7
  6
BYLAYER
 10
24.1142984208
 20
109.3367076469
 11
38.9636026489
 21
100.763651802
  0
LINE
  5
26B
100
AcDbEntity
  8
0
100
AcDbLine
 62
7
  6
BYLAYER
 10
54.080698334
 20
18.0435268732
 11
53.6058186218
 21
17.7693565802
  0
LINE
  5
26C
100
AcDbEntity
  8
0
100
AcDbLine
 62
7
  6
BYLAYER
 10
68.6622405447
 20
16.2561782426
 11
63.3589617656
 21
13.1943470886
  0
LINE
  5
26D
100
AcDbEntity
  8
0
100
AcDbLine
 62
7
  6
BYLAYER
 10
72.1977597308
 20
11.3571284664
 11
69.7228963005
 21
9.9282739278
  0
LINE
  5
26E
100
AcDbEntity
  8
0
100
AcDbLine
 62
7
  6
BYLAYER
 10
71.7835358036
 20
10.4415565831
 11
69.5284418572
 21
9.1395852578
  0
ARC
  5
26F
100
AcDbEntity
  8
0
100
AcDbCircle
 62
7
  6
BYLAYER
 10
-203.4301289537
 20
83.324688109
 40
269.9930335188
100
AcDbArc
 50
0.1195387448
 51
0.2839946461
  0
SPLINE
  5
270
100
AcDbEntity
  8
0
100
AcDbSpline
 62
7
  6
BYLAYER
 70
0
 71
3
 72
11
 73
7
 74
0
 42
0.0000001
 43
0.0000001
 44
0.0000000001
 40
0.0
 40
0.0
 40
0.0
 40
0.0
 40
0.2177825102
 40
0.4509091639
 40
0.7102957096
 40
1.0
 40
1.0
 40
1.0
 40
1.0
 10
13.1112974729
 20
41.6969145602
 30
0.0
 10
13.0618175109
 20
41.7254811891
 30
0.0
 10
12.9692424077
 20
41.803308169
 30
0.0
 10
12.8706853692
 20
41.9644530868
 30
0.0
 10
12.8121483177
 20
42.1630441158
 30
0.0
 10
12.8006252495
 20
42.3075847402
 30
0.0
 10
12.8006252495
 20
42.3835872999
 30
0.0
  0
SPLINE
  5
271
100
AcDbEntity
  8
0
100
AcDbSpline
 62
7
  6
BYLAYER
 70
0
 71
3
 72
18
 73
14
 74
0
 42
0.0000001
 43
0.0000001
 44
0.0000000001
 40
0.0
 40
0.0
 40
0.0
 40
0.0
 40
0.0428479429
 40
0.0874623066
 40
0.1352840435
 40
0.1872323096
 40
0.2437220832
 40
0.3047263631
 40
0.4383562007
 40
0.5826594577
 40
0.729784539
 40
0.8713400481
 40
1.0
 40
1.0
 40
1.0
 40
1.0
 10
23.6964376285
 20
103.9368110542
 30
0.0
 10
23.7519050664
 20
103.9688405919
 30
0.0
 10
23.8741923814
 20
104.0196180271
 30
0.0
 10
24.0760204168
 20
104.0492459614
 30
0.0
 10
24.2927634159
 20
104.033260153
 30
0.0
 10
24.5195957325
 20
103.9730097161
 30
0.0
 10
24.7520890083
 20
103.8702850293
 30
0.0
 10
25.0730129149
 20
103.6738347818
 30
0.0
 10
25.4553424945
 20
103.3352448626
 30
0.0
 10
25.8482679053
 20
102.8322242078
 30
0.0
 10
26.1577986693
 20
102.2601799958
 30
0.0
 10
26.3586215082
 20
101.6664384239
 30
0.0
 10
26.4124256353
 20
101.2620424538
 30
0.0
 10
26.4124256353
 20
101.0697159297
 30
0.0
  0
SPLINE
  5
272
100
AcDbEntity
  8
0
100
AcDbSpline
 62
7
  6
BYLAYER
 70
0
 71
3
 72
11
 73
7
 74
0
 42
0.0000001
 43
0.0000001
 44
0.0000000001
 40
0.0
 40
0.0
 40
0.0
 40
0.0
 40
0.2177167293
 40
0.4509418166
 40
0.7102950539
 40
1.0
 40
1.0
 40
1.0
 40
1.0
 10
29.1677018873
 20
31.7095082818
 30
0.0
 10
29.1512140012
 20
31.7190278395
 30
0.0
 10
29.120363965
 20
31.7449807138
 30
0.0
 10
29.0874909923
 20
31.798681842
 30
0.0
 10
29.0679964475
 20
31.8648910801
 30
0.0
 10
29.0641489279
 20
31.9130656363
 30
0.0
 10
29.0641489279
 20
31.9383995077
 30
0.0
  0
SPLINE
  5
273
100
AcDbEntity
  8
0
100
AcDbSpline
 62
7
  6
BYLAYER
 70
0
 71
3
 72
11
 73
7
 74
0
 42
0.0000001
 43
0.0000001
 44
0.0000000001
 40
0.0
 40
0.0
 40
0.0
 40
0.0
 40
0.2177843137
 40
0.4509117637
 40
0.7102976701
 40
1.0
 40
1.0
 40
1.0
 40
1.0
 10
29.3533172049
 20
100.6708819345
 30
0.0
 10
29.4275353987
 20
100.7137315401
 30
0.0
 10
29.5980632375
 20
100.7756174894
 30
0.0
 10
29.8813070717
 20
100.7827891686
 30
0.0
 10
30.1831786176
 20
100.7098925718
 30
0.0
 10
30.3795792007
 20
100.6164610047
 30
0.0
 10
30.4783065549
 20
100.5594620297
 30
0.0
  0
SPLINE
  5
274
100
AcDbEntity
  8
0
100
AcDbSpline
 62
7
  6
BYLAYER
 70
0
 71
3
 72
11
 73
7
 74
0
 42
0.0000001
 43
0.0000001
 44
0.0000000001
 40
0.0
 40
0.0
 40
0.0
 40
0.0
 40
0.2716626682
 40
0.5303227605
 40
0.7733665082
 40
1.0
 40
1.0
 40
1.0
 40
1.0
 10
20.8592270958
 20
108.1337306051
 30
0.0
 10
20.7881993845
 20
108.0926668581
 30
0.0
 10
20.6540580257
 20
108.0042181646
 30
0.0
 10
20.4790108315
 20
107.8479847763
 30
0.0
 10
20.3443743712
 20
107.6721029514
 30
0.0
 10
20.2871440967
 20
107.5399486833
 30
0.0
 10
20.2701228958
 20
107.4736543044
 30
0.0
  0
SPLINE
  5
275
100
AcDbEntity
  8
0
100
AcDbSpline
 62
7
  6
BYLAYER
 70
0
 71
3
 72
11
 73
7
 74
0
 42
0.0000001
 43
0.0000001
 44
0.0000000001
 40
0.0
 40
0.0
 40
0.0
 40
0.0
 40
0.2177843137
 40
0.4509117637
 40
0.7102976701
 40
1.0
 40
1.0
 40
1.0
 40
1.0
 10
23.1143078875
 20
109.4357475622
 30
0.0
 10
23.1802796153
 20
109.4738361005
 30
0.0
 10
23.3318599164
 20
109.5288458332
 30
0.0
 10
23.5836322135
 20
109.5352206593
 30
0.0
 10
23.8519624766
 20
109.4704236843
 30
0.0
 10
24.0265407727
 20
109.3873734025
 30
0.0
 10
24.1142984208
 20
109.3367076469
 30
0.0
  0
SPLINE
  5
276
100
AcDbEntity
  8
0
100
AcDbSpline
 62
7
  6
BYLAYER
 70
0
 71
3
 72
15
 73
11
 74
0
 42
0.0000001
 43
0.0000001
 44
0.0000000001
 40
0.0
 40
0.0
 40
0.0
 40
0.0
 40
0.1141229605
 40
0.2373462928
 40
0.366971064
 40
0.4999983279
 40
0.633025824
 40
0.762651271
 40
0.8858756957
 40
1.0
 40
1.0
 40
1.0
 40
1.0
 10
19.1645597844
 20
99.5386930067
 30
0.0
 10
19.2371499464
 20
99.5806027061
 30
0.0
 10
19.3805606638
 20
99.6811721517
 30
0.0
 10
19.5779270763
 20
99.8657579433
 30
0.0
 10
19.7597702053
 20
100.0840374027
 30
0.0
 10
19.9193130413
 20
100.3276772927
 30
0.0
 10
20.0505389354
 20
100.5876664551
 30
0.0
 10
20.1486523573
 20
100.8542887197
 30
0.0
 10
20.2098249818
 20
101.1175083085
 30
0.0
 10
20.2252155402
 20
101.2919921022
 30
0.0
 10
20.2252155402
 20
101.3758128632
 30
0.0
  0
SPLINE
  5
277
100
AcDbEntity
  8
0
100
AcDbSpline
 62
7
  6
BYLAYER
 70
0
 71
3
 72
15
 73
11
 74
0
 42
0.0000001
 43
0.0000001
 44
0.0000000001
 40
0.0
 40
0.0
 40
0.0
 40
0.0
 40
0.1141242661
 40
0.2373486253
 40
0.3669740476
 40
0.5000015346
 40
0.6330288076
 40
0.7626536034
 40
0.8858770013
 40
1.0
 40
1.0
 40
1.0
 40
1.0
 10
12.8006252495
 20
94.6397419962
 30
0.0
 10
12.8006252495
 20
94.7235627292
 30
0.0
 10
12.8160157749
 20
94.8980464488
 30
0.0
 10
12.8771883818
 20
95.1612659453
 30
0.0
 10
12.9753017467
 20
95.4278881516
 30
0.0
 10
13.1065276023
 20
95.6878773136
 30
0.0
 10
13.2660704193
 20
95.9315172372
 30
0.0
 10
13.4479135704
 20
96.149796775
 30
0.0
 10
13.645280054
 20
96.334382628
 30
0.0
 10
13.788690819
 20
96.4349521393
 30
0.0
 10
13.8612810053
 20
96.4768618527
 30
0.0
  0
SPLINE
  5
278
100
AcDbEntity
  8
0
100
AcDbSpline
 62
7
  6
BYLAYER
 70
0
 71
3
 72
11
 73
7
 74
0
 42
0.0000001
 43
0.0000001
 44
0.0000000001
 40
0.0
 40
0.0
 40
0.0
 40
0.0
 40
0.2897033281
 40
0.5490895198
 40
0.7822165953
 40
1.0
 40
1.0
 40
1.0
 40
1.0
 10
40.3778220992
 20
29.7279624198
 30
0.0
 10
40.3778220992
 20
29.626626131
 30
0.0
 10
40.3624580269
 20
29.433905987
 30
0.0
 10
40.2844086807
 20
29.1691186084
 30
0.0
 10
40.152999503
 20
28.9542586247
 30
0.0
 10
40.0295663984
 20
28.8504885769
 30
0.0
 10
39.9635931822
 20
28.8123991793
 30
0.0
  0
SPLINE
  5
279
100
AcDbEntity
  8
0
100
AcDbSpline
 62
7
  6
BYLAYER
 70
0
 71
3
 72
9
 73
5
 74
0
 42
0.0000001
 43
0.0000001
 44
0.0000000001
 40
0.0
 40
0.0
 40
0.0
 40
0.0
 40
0.5255663614
 40
1.0
 40
1.0
 40
1.0
 40
1.0
 10
36.3851862592
 20
99.1554372807
 30
0.0
 10
36.4172861655
 20
99.2110362581
 30
0.0
 10
36.4900261573
 20
99.3104707545
 30
0.0
 10
36.5849954995
 20
99.3903705214
 30
0.0
 10
36.6351852183
 20
99.4193473961
 30
0.0
  0
SPLINE
  5
27A
100
AcDbEntity
  8
0
100
AcDbSpline
 62
7
  6
BYLAYER
 70
0
 71
3
 72
9
 73
5
 74
0
 42
0.0000001
 43
0.0000001
 44
0.0000000001
 40
0.0
 40
0.0
 40
0.0
 40
0.0
 40
0.4744352788
 40
1.0
 40
1.0
 40
1.0
 40
1.0
 10
29.0641489279
 20
86.3058550805
 30
0.0
 10
29.0641489279
 20
86.3638096647
 30
0.0
 10
29.0858593408
 20
86.4860061673
 30
0.0
 10
29.1356018734
 20
86.598719087
 30
0.0
 10
29.1677018873
 20
86.6543182506
 30
0.0
  0
SPLINE
  5
27B
100
AcDbEntity
  8
0
100
AcDbSpline
 62
7
  6
BYLAYER
 70
0
 71
3
 72
9
 73
5
 74
0
 42
0.0000001
 43
0.0000001
 44
0.0000000001
 40
0.0
 40
0.0
 40
0.0
 40
0.0
 40
0.2371754943
 40
1.0
 40
1.0
 40
1.0
 40
1.0
 10
20.2701228958
 20
107.4736543044
 30
0.0
 10
20.2625429211
 20
107.4441317273
 30
0.0
 10
20.2351626602
 20
107.3184872779
 30
0.0
 10
20.2252155402
 20
107.1893626481
 30
0.0
 10
20.2252155402
 20
107.0913297831
 30
0.0
  0
SPLINE
  5
27C
100
AcDbEntity
  8
0
100
AcDbSpline
 62
7
  6
BYLAYER
 70
0
 71
3
 72
10
 73
6
 74
0
 42
0.0000001
 43
0.0000001
 44
0.0000000001
 40
0.0
 40
0.0
 40
0.0
 40
0.0
 40
0.2771196599
 40
0.5361944637
 40
1.0
 40
1.0
 40
1.0
 40
1.0
 10
34.5441874745
 20
96.3749472527
 30
0.0
 10
34.5441874745
 20
96.3005206001
 30
0.0
 10
34.5365086684
 20
96.1562398892
 30
0.0
 10
34.4897456994
 20
95.8916105962
 30
0.0
 10
34.4155408023
 20
95.7071985897
 30
0.0
 10
34.3471150854
 20
95.6031099967
 30
0.0
  0
SPLINE
  5
27D
100
AcDbEntity
  8
0
100
AcDbSpline
 62
7
  6
BYLAYER
 70
0
 71
3
 72
9
 73
5
 74
0
 42
0.0000001
 43
0.0000001
 44
0.0000000001
 40
0.0
 40
0.0
 40
0.0
 40
0.0
 40
0.5067482793
 40
1.0
 40
1.0
 40
1.0
 40
1.0
 10
34.3120297137
 20
95.5534386947
 30
0.0
 10
34.279881682
 20
95.5110665427
 30
0.0
 10
34.2086071177
 20
95.4330230136
 30
0.0
 10
34.1230148339
 20
95.3708238692
 30
0.0
 10
34.0781799428
 20
95.3449386071
 30
0.0
  0
SPLINE
  5
27E
100
AcDbEntity
  8
0
100
AcDbSpline
 62
7
  6
BYLAYER
 70
0
 71
3
 72
15
 73
11
 74
0
 42
0.0000001
 43
0.0000001
 44
0.0000000001
 40
0.0
 40
0.0
 40
0.0
 40
0.0
 40
0.1141232787
 40
0.2373467935
 40
0.3669716251
 40
0.4999988493
 40
0.6330262331
 40
0.7626515288
 40
0.885875802
 40
1.0
 40
1.0
 40
1.0
 40
1.0
 10
32.9531905929
 20
99.1306193889
 30
0.0
 10
33.0620766579
 20
99.0677554121
 30
0.0
 10
33.277194413
 20
98.9169023926
 30
0.0
 10
33.57324655
 20
98.6400251198
 30
0.0
 10
33.8460135612
 20
98.3126072211
 30
0.0
 10
34.0853298462
 20
97.9471485071
 30
0.0
 10
34.2821703584
 20
97.557165671
 30
0.0
 10
34.4293417411
 20
97.1572329298
 30
0.0
 10
34.5211014562
 20
96.7624039209
 30
0.0
 10
34.5441874745
 20
96.5006783523
 30
0.0
 10
34.5441874745
 20
96.3749472527
 30
0.0
  0
SPLINE
  5
27F
100
AcDbEntity
  8
0
100
AcDbSpline
 62
7
  6
BYLAYER
 70
0
 71
3
 72
11
 73
7
 74
0
 42
0.0000001
 43
0.0000001
 44
0.0000000001
 40
0.0
 40
0.0
 40
0.0
 40
0.0
 40
0.2897016594
 40
0.5490895814
 40
0.7822189142
 40
1.0
 40
1.0
 40
1.0
 40
1.0
 10
26.4124256353
 20
101.0697159297
 30
0.0
 10
26.4124256353
 20
100.9557130063
 30
0.0
 10
26.3951412367
 20
100.7389024949
 30
0.0
 10
26.307340174
 20
100.4410140178
 30
0.0
 10
26.1595015734
 20
100.1992945742
 30
0.0
 10
26.0206358707
 20
100.0825600453
 30
0.0
 10
25.9464198789
 20
100.0397042005
 30
0.0
  0
SPLINE
  5
280
100
AcDbEntity
  8
0
100
AcDbSpline
 62
7
  6
BYLAYER
 70
0
 71
3
 72
15
 73
11
 74
0
 42
0.0000001
 43
0.0000001
 44
0.0000000001
 40
0.0
 40
0.0
 40
0.0
 40
0.0
 40
0.1141232787
 40
0.2373467935
 40
0.3669716251
 40
0.4999988493
 40
0.6330262331
 40
0.7626515288
 40
0.885875802
 40
1.0
 40
1.0
 40
1.0
 40
1.0
 10
38.9636026489
 20
100.763651802
 30
0.0
 10
39.0603902622
 20
100.7077727115
 30
0.0
 10
39.2516060445
 20
100.5736811386
 30
0.0
 10
39.5147634997
 20
100.3275680072
 30
0.0
 10
39.7572230651
 20
100.036529875
 30
0.0
 10
39.9699486518
 20
99.7116776848
 30
0.0
 10
40.144917996
 20
99.3650262749
 30
0.0
 10
40.2757370028
 20
99.009530505
 30
0.0
 10
40.3573011941
 20
98.6585713859
 30
0.0
 10
40.3778220992
 20
98.4259264361
 30
0.0
 10
40.3778220992
 20
98.3141654587
 30
0.0
  0
SPLINE
  5
281
100
AcDbEntity
  8
0
100
AcDbSpline
 62
7
  6
BYLAYER
 70
0
 71
3
 72
11
 73
7
 74
0
 42
0.0000001
 43
0.0000001
 44
0.0000000001
 40
0.0
 40
0.0
 40
0.0
 40
0.0
 40
0.2631804984
 40
0.5238872608
 40
0.7722901012
 40
1.0
 40
1.0
 40
1.0
 40
1.0
 10
31.6407482673
 20
99.870473617
 30
0.0
 10
31.7140153816
 20
99.7047460202
 30
0.0
 10
31.8836332152
 20
99.3848591557
 30
0.0
 10
32.1960888973
 20
98.9524894416
 30
0.0
 10
32.5511203596
 20
98.5875630085
 30
0.0
 10
32.8173945359
 20
98.39244391
 30
0.0
 10
32.9531699851
 20
98.3140556912
 30
0.0
  0
SPLINE
  5
282
100
AcDbEntity
  8
0
100
AcDbSpline
 62
7
  6
BYLAYER
 70
0
 71
3
 72
11
 73
7
 74
0
 42
0.0000001
 43
0.0000001
 44
0.0000000001
 40
0.0
 40
0.0
 40
0.0
 40
0.0
 40
0.2897049461
 40
0.5490581834
 40
0.7822832707
 40
1.0
 40
1.0
 40
1.0
 40
1.0
 10
30.4783683782
 20
31.1219179986
 30
0.0
 10
30.4783683782
 20
31.0965841273
 30
0.0
 10
30.4822158978
 20
31.048409571
 30
0.0
 10
30.5017104426
 20
30.9822003329
 30
0.0
 10
30.5345834153
 20
30.9284992047
 30
0.0
 10
30.5654334515
 20
30.9025463305
 30
0.0
 10
30.5819213376
 20
30.8930267728
 30
0.0
  0
SPLINE
  5
283
100
AcDbEntity
  8
0
100
AcDbSpline
 62
7
  6
BYLAYER
 70
0
 71
3
 72
9
 73
5
 74
0
 42
0.0000001
 43
0.0000001
 44
0.0000000001
 40
0.0
 40
0.0
 40
0.0
 40
0.0
 40
0.5255647212
 40
1.0
 40
1.0
 40
1.0
 40
1.0
 10
30.5819213376
 20
85.8378367416
 30
0.0
 10
30.5498213237
 20
85.7822375779
 30
0.0
 10
30.5000787911
 20
85.6695246582
 30
0.0
 10
30.4783683782
 20
85.5473281557
 30
0.0
 10
30.4783683782
 20
85.4893735714
 30
0.0
  0
SPLINE
  5
284
100
AcDbEntity
  8
0
100
AcDbSpline
 62
7
  6
BYLAYER
 70
0
 71
3
 72
11
 73
7
 74
0
 42
0.0000001
 43
0.0000001
 44
0.0000000001
 40
0.0
 40
0.0
 40
0.0
 40
0.0
 40
0.2897033281
 40
0.5490895198
 40
0.7822165953
 40
1.0
 40
1.0
 40
1.0
 40
1.0
 10
28.8873096733
 20
99.6408732889
 30
0.0
 10
28.8873096733
 20
99.7548766138
 30
0.0
 10
28.9045942546
 20
99.9716867758
 30
0.0
 10
28.9923997691
 20
100.2695725767
 30
0.0
 10
29.140235094
 20
100.5112900583
 30
0.0
 10
29.2790973367
 20
100.6280313621
 30
0.0
 10
29.3533172049
 20
100.6708819345
 30
0.0
  0
SPLINE
  5
285
100
AcDbEntity
  8
0
100
AcDbSpline
 62
7
  6
BYLAYER
 70
0
 71
3
 72
15
 73
11
 74
0
 42
0.0000001
 43
0.0000001
 44
0.0000000001
 40
0.0
 40
0.0
 40
0.0
 40
0.0
 40
0.1141232787
 40
0.2373467935
 40
0.3669716251
 40
0.4999988493
 40
0.6330262331
 40
0.7626515288
 40
0.885875802
 40
1.0
 40
1.0
 40
1.0
 40
1.0
 10
30.4783065549
 20
96.8852011527
 30
0.0
 10
30.3694204898
 20
96.9480651295
 30
0.0
 10
30.1543027348
 20
97.098918149
 30
0.0
 10
29.8582505977
 20
97.3757954218
 30
0.0
 10
29.5854835866
 20
97.7032133205
 30
0.0
 10
29.3461673016
 20
98.0686720345
 30
0.0
 10
29.1493267894
 20
98.4586548706
 30
0.0
 10
29.0021554067
 20
98.8585876118
 30
0.0
 10
28.9103956915
 20
99.2534166207
 30
0.0
 10
28.8873096733
 20
99.5151421892
 30
0.0
 10
28.8873096733
 20
99.6408732889
 30
0.0
  0
SPLINE
  5
286
100
AcDbEntity
  8
0
100
AcDbSpline
 62
7
  6
BYLAYER
 70
0
 71
3
 72
11
 73
7
 74
0
 42
0.0000001
 43
0.0000001
 44
0.0000000001
 40
0.0
 40
0.0
 40
0.0
 40
0.0
 40
0.2177843137
 40
0.4509117637
 40
0.7102976701
 40
1.0
 40
1.0
 40
1.0
 40
1.0
 10
34.0781799428
 20
95.3449386071
 30
0.0
 10
34.003961749
 20
95.3020890015
 30
0.0
 10
33.8334339103
 20
95.2402030522
 30
0.0
 10
33.5501900761
 20
95.233031373
 30
0.0
 10
33.2483185301
 20
95.3059279698
 30
0.0
 10
33.051917947
 20
95.3993595368
 30
0.0
 10
32.9531905929
 20
95.4563585118
 30
0.0
  0
SPLINE
  5
287
100
AcDbEntity
  8
0
100
AcDbSpline
 62
7
  6
BYLAYER
 70
0
 71
3
 72
11
 73
7
 74
0
 42
0.0000001
 43
0.0000001
 44
0.0000000001
 40
0.0
 40
0.0
 40
0.0
 40
0.0
 40
0.2897016594
 40
0.5490895814
 40
0.7822189142
 40
1.0
 40
1.0
 40
1.0
 40
1.0
 10
23.2304318721
 20
102.906799325
 30
0.0
 10
23.2304318721
 20
103.0208022484
 30
0.0
 10
23.2477162706
 20
103.2376127598
 30
0.0
 10
23.3355173334
 20
103.5355012369
 30
0.0
 10
23.483355934
 20
103.7772206805
 30
0.0
 10
23.6222216367
 20
103.8939552095
 30
0.0
 10
23.6964376285
 20
103.9368110542
 30
0.0
  0
SPLINE
  5
288
100
AcDbEntity
  8
0
100
AcDbSpline
 62
7
  6
BYLAYER
 70
0
 71
3
 72
12
 73
8
 74
0
 42
0.0000001
 43
0.0000001
 44
0.0000000001
 40
0.0
 40
0.0
 40
0.0
 40
0.0
 40
0.2337622767
 40
0.356983769
 40
0.4829080261
 40
0.7397228193
 40
1.0
 40
1.0
 40
1.0
 40
1.0
 10
36.9163851519
 20
98.848756395
 30
0.0
 10
37.0117450449
 20
98.6436235838
 30
0.0
 10
37.0808463232
 20
98.2942348868
 30
0.0
 10
37.0735326567
 20
97.8271221936
 30
0.0
 10
37.0080559017
 20
97.3406158196
 30
0.0
 10
36.8321080182
 20
96.7401508303
 30
0.0
 10
36.6146870868
 20
96.2869515337
 30
0.0
 10
36.4887509945
 20
96.0688226124
 30
0.0
  0
SPLINE
  5
289
100
AcDbEntity
  8
0
100
AcDbSpline
 62
7
  6
BYLAYER
 70
0
 71
3
 72
9
 73
5
 74
0
 42
0.0000001
 43
0.0000001
 44
0.0000000001
 40
0.0
 40
0.0
 40
0.0
 40
0.0
 40
0.4609348444
 40
1.0
 40
1.0
 40
1.0
 40
1.0
 10
36.6351852183
 20
99.4193473961
 30
0.0
 10
36.6840648758
 20
99.3346877311
 30
0.0
 10
36.7796251267
 20
99.145081555
 30
0.0
 10
36.8681885301
 20
98.9524289892
 30
0.0
 10
36.9163828767
 20
98.8487560352
 30
0.0
  0
SPLINE
  5
28A
100
AcDbEntity
  8
0
100
AcDbSpline
 62
7
  6
BYLAYER
 70
0
 71
3
 72
11
 73
7
 74
0
 42
0.0000001
 43
0.0000001
 44
0.0000000001
 40
0.0
 40
0.0
 40
0.0
 40
0.0
 40
0.2577323197
 40
0.5123726233
 40
0.7610440552
 40
1.0
 40
1.0
 40
1.0
 40
1.0
 10
22.7000907464
 20
108.5202193392
 30
0.0
 10
22.5367452583
 20
108.526989826
 30
0.0
 10
22.2109375067
 20
108.5219394565
 30
0.0
 10
21.731271031
 20
108.4577743256
 30
0.0
 10
21.2751842519
 20
108.3356518932
 30
0.0
 10
20.990450553
 20
108.2095957393
 30
0.0
 10
20.8592270958
 20
108.1337306051
 30
0.0
  0
SPLINE
  5
28B
100
AcDbEntity
  8
0
100
AcDbSpline
 62
7
  6
BYLAYER
 70
0
 71
3
 72
18
 73
14
 74
0
 42
0.0000001
 43
0.0000001
 44
0.0000000001
 40
0.0
 40
0.0
 40
0.0
 40
0.0
 40
0.0428479429
 40
0.0874623066
 40
0.1352840435
 40
0.1872323096
 40
0.2437220832
 40
0.3047263631
 40
0.4383562007
 40
0.5826594577
 40
0.729784539
 40
0.8713400481
 40
1.0
 40
1.0
 40
1.0
 40
1.0
 10
25.9464198789
 20
100.0397042005
 30
0.0
 10
25.890952441
 20
100.0076746628
 30
0.0
 10
25.768665126
 20
99.9568972276
 30
0.0
 10
25.5668370906
 20
99.9272692934
 30
0.0
 10
25.3500940915
 20
99.9432551017
 30
0.0
 10
25.1232617749
 20
100.0035055387
 30
0.0
 10
24.8907684991
 20
100.1062302254
 30
0.0
 10
24.5698445925
 20
100.3026804729
 30
0.0
 10
24.1875150129
 20
100.6412703921
 30
0.0
 10
23.7945896021
 20
101.1442910469
 30
0.0
 10
23.4850588381
 20
101.7163352589
 30
0.0
 10
23.2842359992
 20
102.3100768308
 30
0.0
 10
23.2304318721
 20
102.714472801
 30
0.0
 10
23.2304318721
 20
102.906799325
 30
0.0
  0
SPLINE
  5
28C
100
AcDbEntity
  8
0
100
AcDbSpline
 62
7
  6
BYLAYER
 70
0
 71
3
 72
10
 73
6
 74
0
 42
0.0000001
 43
0.0000001
 44
0.0000000001
 40
0.0
 40
0.0
 40
0.0
 40
0.0
 40
0.5198436151
 40
0.7628005334
 40
1.0
 40
1.0
 40
1.0
 40
1.0
 10
61.4893279456
 20
81.7691065075
 30
0.0
 10
61.3595251665
 20
81.628383181
 30
0.0
 10
61.196417166
 20
81.3904868777
 30
0.0
 10
61.0838193969
 20
81.0378165954
 30
0.0
 10
61.0650711644
 20
80.8604188343
 30
0.0
 10
61.0650940549
 20
80.7730636411
 30
0.0
  0
SPLINE
  5
28D
100
AcDbEntity
  8
0
100
AcDbSpline
 62
7
  6
BYLAYER
 70
0
 71
3
 72
11
 73
7
 74
0
 42
0.0000001
 43
0.0000001
 44
0.0000000001
 40
0.0
 40
0.0
 40
0.0
 40
0.0
 40
0.2177843137
 40
0.4509117637
 40
0.7102976701
 40
1.0
 40
1.0
 40
1.0
 40
1.0
 10
55.8699318979
 20
85.3618536399
 30
0.0
 10
55.9441500917
 20
85.4047032456
 30
0.0
 10
56.1146779305
 20
85.4665891948
 30
0.0
 10
56.3979217647
 20
85.4737608741
 30
0.0
 10
56.6997933107
 20
85.4008642773
 30
0.0
 10
56.8961938937
 20
85.3074327102
 30
0.0
 10
56.9949212479
 20
85.2504337352
 30
0.0
  0
SPLINE
  5
28E
100
AcDbEntity
  8
0
100
AcDbSpline
 62
7
  6
BYLAYER
 70
0
 71
3
 72
11
 73
7
 74
0
 42
0.0000001
 43
0.0000001
 44
0.0000000001
 40
0.0
 40
0.0
 40
0.0
 40
0.0
 40
0.289702809
 40
0.549088757
 40
0.7822160314
 40
1.0
 40
1.0
 40
1.0
 40
1.0
 10
68.6622405447
 20
16.2561782426
 30
0.0
 10
68.7280578467
 20
16.2941776528
 30
0.0
 10
68.8589896658
 20
16.3564657215
 30
0.0
 10
69.0602346943
 20
16.4050645739
 30
0.0
 10
69.2490616187
 20
16.4002851244
 30
0.0
 10
69.3627457436
 20
16.359029276
 30
0.0
 10
69.4122240771
 20
16.3304635874
 30
0.0
  0
SPLINE
  5
28F
100
AcDbEntity
  8
0
100
AcDbSpline
 62
7
  6
BYLAYER
 70
0
 71
3
 72
9
 73
5
 74
0
 42
0.0000001
 43
0.0000001
 44
0.0000000001
 40
0.0
 40
0.0
 40
0.0
 40
0.0
 40
0.2586285117
 40
1.0
 40
1.0
 40
1.0
 40
1.0
 10
61.0608021675
 20
81.0659189582
 30
0.0
 10
61.0608021675
 20
81.039108907
 30
0.0
 10
61.0588134142
 20
80.9354659159
 30
0.0
 10
61.0486958098
 20
80.8319026803
 30
0.0
 10
61.0357896313
 20
80.7561417836
 30
0.0
  0
SPLINE
  5
290
100
AcDbEntity
  8
0
100
AcDbSpline
 62
7
  6
BYLAYER
 70
0
 71
3
 72
11
 73
7
 74
0
 42
0.0000001
 43
0.0000001
 44
0.0000000001
 40
0.0
 40
0.0
 40
0.0
 40
0.0
 40
0.2788988579
 40
0.5345611594
 40
0.7722433192
 40
1.0
 40
1.0
 40
1.0
 40
1.0
 10
61.0357896313
 20
80.7561417836
 30
0.0
 10
61.0221909589
 20
80.6763158593
 30
0.0
 10
60.9844537935
 20
80.5248497381
 30
0.0
 10
60.8895975807
 20
80.3199542221
 30
0.0
 10
60.7604315315
 20
80.1527376731
 30
0.0
 10
60.6520625974
 20
80.068973763
 30
0.0
 10
60.5947946359
 20
80.0359103126
 30
0.0
  0
SPLINE
  5
291
100
AcDbEntity
  8
0
100
AcDbSpline
 62
7
  6
BYLAYER
 70
0
 71
3
 72
15
 73
11
 74
0
 42
0.0000001
 43
0.0000001
 44
0.0000000001
 40
0.0
 40
0.0
 40
0.0
 40
0.0
 40
0.1141232787
 40
0.2373467935
 40
0.3669716251
 40
0.4999988493
 40
0.6330262331
 40
0.7626515288
 40
0.885875802
 40
1.0
 40
1.0
 40
1.0
 40
1.0
 10
59.4698052859
 20
83.8215910944
 30
0.0
 10
59.5786913509
 20
83.7587271176
 30
0.0
 10
59.793809106
 20
83.6078740981
 30
0.0
 10
60.0898612431
 20
83.3309968253
 30
0.0
 10
60.3626282542
 20
83.0035789266
 30
0.0
 10
60.6019445392
 20
82.6381202126
 30
0.0
 10
60.7987850514
 20
82.2481373764
 30
0.0
 10
60.9459564341
 20
81.8482046353
 30
0.0
 10
61.0377161493
 20
81.4533756264
 30
0.0
 10
61.0608021675
 20
81.1916500578
 30
0.0
 10
61.0608021675
 20
81.0659189582
 30
0.0
  0
SPLINE
  5
292
100
AcDbEntity
  8
0
100
AcDbSpline
 62
7
  6
BYLAYER
 70
0
 71
3
 72
15
 73
11
 74
0
 42
0.0000001
 43
0.0000001
 44
0.0000000001
 40
0.0
 40
0.0
 40
0.0
 40
0.0
 40
0.1141232787
 40
0.2373467935
 40
0.3669716251
 40
0.4999988493
 40
0.6330262331
 40
0.7626515288
 40
0.885875802
 40
1.0
 40
1.0
 40
1.0
 40
1.0
 10
70.7835402805
 20
82.3928178486
 30
0.0
 10
70.8803278939
 20
82.3369387581
 30
0.0
 10
71.0715436761
 20
82.2028471851
 30
0.0
 10
71.3347011313
 20
81.9567340538
 30
0.0
 10
71.5771606968
 20
81.6656959216
 30
0.0
 10
71.7898862834
 20
81.3408437314
 30
0.0
 10
71.9648556276
 20
80.9941923215
 30
0.0
 10
72.0956746344
 20
80.6386965516
 30
0.0
 10
72.1772388257
 20
80.2877374325
 30
0.0
 10
72.1977597308
 20
80.0550924827
 30
0.0
 10
72.1977597308
 20
79.9433315053
 30
0.0
  0
SPLINE
  5
293
100
AcDbEntity
  8
0
100
AcDbSpline
 62
7
  6
BYLAYER
 70
0
 71
3
 72
11
 73
7
 74
0
 42
0.0000001
 43
0.0000001
 44
0.0000000001
 40
0.0
 40
0.0
 40
0.0
 40
0.0
 40
0.2897033281
 40
0.5490895198
 40
0.7822165953
 40
1.0
 40
1.0
 40
1.0
 40
1.0
 10
72.1977597308
 20
11.3571284664
 30
0.0
 10
72.1977597308
 20
11.2557921776
 30
0.0
 10
72.1823956585
 20
11.0630720336
 30
0.0
 10
72.1043463123
 20
10.7982846549
 30
0.0
 10
71.9729371346
 20
10.5834246713
 30
0.0
 10
71.84950403
 20
10.4796546235
 30
0.0
 10
71.7835308138
 20
10.4415652259
 30
0.0
  0
SPLINE
  5
294
100
AcDbEntity
  8
0
100
AcDbSpline
 62
7
  6
BYLAYER
 70
0
 71
3
 72
11
 73
7
 74
0
 42
0.0000001
 43
0.0000001
 44
0.0000000001
 40
0.0
 40
0.0
 40
0.0
 40
0.0
 40
0.2631804984
 40
0.5238872608
 40
0.7722901012
 40
1.0
 40
1.0
 40
1.0
 40
1.0
 10
58.1573629603
 20
84.5614453225
 30
0.0
 10
58.2306300747
 20
84.3957177257
 30
0.0
 10
58.4002479082
 20
84.0758308612
 30
0.0
 10
58.7127035903
 20
83.6434611471
 30
0.0
 10
59.0677350526
 20
83.278534714
 30
0.0
 10
59.3340092289
 20
83.0834156155
 30
0.0
 10
59.4697846781
 20
83.0050273967
 30
0.0
  0
SPLINE
  5
295
100
AcDbEntity
  8
0
100
AcDbSpline
 62
7
  6
BYLAYER
 70
0
 71
3
 72
9
 73
5
 74
0
 42
0.0000001
 43
0.0000001
 44
0.0000000001
 40
0.0
 40
0.0
 40
0.0
 40
0.0
 40
0.5211251756
 40
1.0
 40
1.0
 40
1.0
 40
1.0
 10
66.5519952035
 20
15.024753076
 30
0.0
 10
66.6045662228
 20
14.8719998797
 30
0.0
 10
66.6855517655
 20
14.5715242123
 30
0.0
 10
66.7176799687
 20
14.2612534052
 30
0.0
 10
66.7176799687
 20
14.1128043859
 30
0.0
  0
SPLINE
  5
296
100
AcDbEntity
  8
0
100
AcDbSpline
 62
7
  6
BYLAYER
 70
0
 71
3
 72
9
 73
5
 74
0
 42
0.0000001
 43
0.0000001
 44
0.0000000001
 40
0.0
 40
0.0
 40
0.0
 40
0.0
 40
0.4744352788
 40
1.0
 40
1.0
 40
1.0
 40
1.0
 10
44.6205628811
 20
77.324558481
 30
0.0
 10
44.6205628811
 20
77.3825130653
 30
0.0
 10
44.642273294
 20
77.5047095678
 30
0.0
 10
44.6920158266
 20
77.6174224875
 30
0.0
 10
44.7241158406
 20
77.6730216512
 30
0.0
  0
SPLINE
  5
297
100
AcDbEntity
  8
0
100
AcDbSpline
 62
7
  6
BYLAYER
 70
0
 71
3
 72
11
 73
7
 74
0
 42
0.0000001
 43
0.0000001
 44
0.0000000001
 40
0.0
 40
0.0
 40
0.0
 40
0.0
 40
0.2177167293
 40
0.4509418166
 40
0.7102950539
 40
1.0
 40
1.0
 40
1.0
 40
1.0
 10
44.7241158406
 20
22.7282116824
 30
0.0
 10
44.7076279544
 20
22.73773124
 30
0.0
 10
44.6767779182
 20
22.7636841143
 30
0.0
 10
44.6439049455
 20
22.8173852425
 30
0.0
 10
44.6244104007
 20
22.8835944806
 30
0.0
 10
44.6205628811
 20
22.9317690369
 30
0.0
 10
44.6205628811
 20
22.9571029082
 30
0.0
  0
SPLINE
  5
298
100
AcDbEntity
  8
0
100
AcDbSpline
 62
7
  6
BYLAYER
 70
0
 71
3
 72
11
 73
7
 74
0
 42
0.0000001
 43
0.0000001
 44
0.0000000001
 40
0.0
 40
0.0
 40
0.0
 40
0.0
 40
0.2177182217
 40
0.4509432136
 40
0.7102956781
 40
1.0
 40
1.0
 40
1.0
 40
1.0
 10
53.3558196627
 20
17.744594486
 30
0.0
 10
53.3723074679
 20
17.735074975
 30
0.0
 10
53.4102076742
 20
17.7213336474
 30
0.0
 10
53.4731500358
 20
17.7197142186
 30
0.0
 10
53.5402354837
 20
17.7359351358
 30
0.0
 10
53.5838791182
 20
17.7566898775
 30
0.0
 10
53.6058186218
 20
17.7693565802
 30
0.0
  0
SPLINE
  5
299
100
AcDbEntity
  8
0
100
AcDbSpline
 62
7
  6
BYLAYER
 70
0
 71
3
 72
11
 73
7
 74
0
 42
0.0000001
 43
0.0000001
 44
0.0000000001
 40
0.0
 40
0.0
 40
0.0
 40
0.0
 40
0.2177839237
 40
0.4509111717
 40
0.7102971901
 40
1.0
 40
1.0
 40
1.0
 40
1.0
 10
62.6089782332
 20
13.1200617438
 30
0.0
 10
62.6584565696
 20
13.0914960842
 30
0.0
 10
62.772140652
 20
13.0502402006
 30
0.0
 10
62.9609675864
 20
13.0454607529
 30
0.0
 10
63.1622126175
 20
13.0940596241
 30
0.0
 10
63.2931444636
 20
13.1563476784
 30
0.0
 10
63.3589617656
 20
13.1943470886
 30
0.0
  0
SPLINE
  5
29A
100
AcDbEntity
  8
0
100
AcDbSpline
 62
7
  6
BYLAYER
 70
0
 71
3
 72
11
 73
7
 74
0
 42
0.0000001
 43
0.0000001
 44
0.0000000001
 40
0.0
 40
0.0
 40
0.0
 40
0.0
 40
0.2897016594
 40
0.5490895814
 40
0.7822189142
 40
1.0
 40
1.0
 40
1.0
 40
1.0
 10
66.7176799687
 20
14.1128043859
 30
0.0
 10
66.7176799687
 20
13.9988014626
 30
0.0
 10
66.7003955701
 20
13.7819909511
 30
0.0
 10
66.6125945074
 20
13.4841024741
 30
0.0
 10
66.4647559068
 20
13.2423830305
 30
0.0
 10
66.3258902041
 20
13.1256485015
 30
0.0
 10
66.2516742123
 20
13.0827926568
 30
0.0
  0
SPLINE
  5
29B
100
AcDbEntity
  8
0
100
AcDbSpline
 62
7
  6
BYLAYER
 70
0
 71
3
 72
11
 73
7
 74
0
 42
0.0000001
 43
0.0000001
 44
0.0000000001
 40
0.0
 40
0.0
 40
0.0
 40
0.0
 40
0.2177843137
 40
0.4509117637
 40
0.7102976701
 40
1.0
 40
1.0
 40
1.0
 40
1.0
 10
54.9342455191
 20
91.0649136088
 30
0.0
 10
55.0002172469
 20
91.1030021471
 30
0.0
 10
55.151797548
 20
91.1580118798
 30
0.0
 10
55.4035698451
 20
91.1643867058
 30
0.0
 10
55.6719001082
 20
91.0995897309
 30
0.0
 10
55.8464784043
 20
91.016539449
 30
0.0
 10
55.9342360524
 20
90.9658736935
 30
0.0
  0
SPLINE
  5
29C
100
AcDbEntity
  8
0
100
AcDbSpline
 62
7
  6
BYLAYER
 70
0
 71
3
 72
11
 73
7
 74
0
 42
0.0000001
 43
0.0000001
 44
0.0000000001
 40
0.0
 40
0.0
 40
0.0
 40
0.0
 40
0.2360491636
 40
0.4781736336
 40
0.7315679973
 40
1.0
 40
1.0
 40
1.0
 40
1.0
 10
67.0650589225
 20
80.7737505326
 30
0.0
 10
67.0650353302
 20
80.8637842661
 30
0.0
 10
67.0451812021
 20
81.0467406227
 30
0.0
 10
66.9569695219
 20
81.313413482
 30
0.0
 10
66.8129544719
 20
81.5685970094
 30
0.0
 10
66.6857215073
 20
81.7230073774
 30
0.0
 10
66.6149210342
 20
81.7969669489
 30
0.0
  0
SPLINE
  5
29D
100
AcDbEntity
  8
0
100
AcDbSpline
 62
7
  6
BYLAYER
 70
0
 71
3
 72
16
 73
12
 74
0
 42
0.0000001
 43
0.0000001
 44
0.0000000001
 40
0.0
 40
0.0
 40
0.0
 40
0.0
 40
0.0033174103
 40
0.0051253782
 40
0.0192160533
 40
0.0767474874
 40
0.1651813863
 40
0.2811960126
 40
0.4234256962
 40
0.5910544142
 40
1.0
 40
1.0
 40
1.0
 40
1.0
 10
66.5538468075
 20
84.8357851529
 30
0.0
 10
66.5538832147
 20
84.8369819467
 30
0.0
 10
66.553980897
 20
84.8410006755
 30
0.0
 10
66.5537470216
 20
84.8309353129
 30
0.0
 10
66.5534638913
 20
84.8102549081
 30
0.0
 10
66.5525792728
 20
84.746397061
 30
0.0
 10
66.551762389
 20
84.6551491993
 30
0.0
 10
66.5507433869
 20
84.5286865524
 30
0.0
 10
66.5497315034
 20
84.3754661775
 30
0.0
 10
66.5482159052
 20
84.1158129439
 30
0.0
 10
66.5472151087
 20
83.9078106698
 30
0.0
 10
66.5465523497
 20
83.7602121106
 30
0.0
  0
SPLINE
  5
29E
100
AcDbEntity
  8
0
100
AcDbSpline
 62
7
  6
BYLAYER
 70
0
 71
3
 72
9
 73
5
 74
0
 42
0.0000001
 43
0.0000001
 44
0.0000000001
 40
0.0
 40
0.0
 40
0.0
 40
0.0
 40
0.2996086449
 40
1.0
 40
1.0
 40
1.0
 40
1.0
 10
66.56507565
 20
80.7734472786
 30
0.0
 10
66.5650346702
 20
81.0726589763
 30
0.0
 10
66.564741562
 20
82.0713339658
 30
0.0
 10
66.5640173242
 20
83.0700094772
 30
0.0
 10
66.5625736017
 20
83.7694714104
 30
0.0
  0
LINE
  5
29F
100
AcDbEntity
  8
0
100
AcDbLine
 62
7
  6
BYLAYER
 10
66.5625736017
 20
83.7694714104
 11
66.5623169478
 21
83.8879862295
  0
SPLINE
  5
2A0
100
AcDbEntity
  8
0
100
AcDbSpline
 62
7
  6
BYLAYER
 70
0
 71
3
 72
15
 73
11
 74
0
 42
0.0000001
 43
0.0000001
 44
0.0000000001
 40
0.0
 40
0.0
 40
0.0
 40
0.0
 40
0.0355323726
 40
0.0620246758
 40
0.0985590692
 40
0.2643624295
 40
0.448076727
 40
0.6319480507
 40
0.8159227566
 40
1.0
 40
1.0
 40
1.0
 40
1.0
 10
66.5595879374
 20
84.6629413398
 30
0.0
 10
66.5592972289
 20
84.7123768452
 30
0.0
 10
66.558686388
 20
84.7986689612
 30
0.0
 10
66.5573675607
 20
84.935792698
 30
0.0
 10
66.5483894632
 20
85.2540403145
 30
0.0
 10
66.4413548867
 20
85.7883531717
 30
0.0
 10
66.0863292915
 20
86.4532202525
 30
0.0
 10
65.5276484204
 20
86.9972441064
 30
0.0
 10
64.8305507563
 20
87.3463243487
 30
0.0
 10
64.3150917221
 20
87.4269123991
 30
0.0
 10
64.0589843508
 20
87.4272152903
 30
0.0
  0
SPLINE
  5
2A1
100
AcDbEntity
  8
0
100
AcDbSpline
 62
7
  6
BYLAYER
 70
0
 71
3
 72
15
 73
11
 74
0
 42
0.0000001
 43
0.0000001
 44
0.0000000001
 40
0.0
 40
0.0
 40
0.0
 40
0.0
 40
0.1187094084
 40
0.2384116053
 40
0.359926058
 40
0.4837724774
 40
0.610097375
 40
0.7386283312
 40
0.8689220508
 40
1.0
 40
1.0
 40
1.0
 40
1.0
 10
61.5466172344
 20
83.7826632254
 30
0.0
 10
61.5459524772
 20
83.6345445778
 30
0.0
 10
61.5773312425
 20
83.3359240979
 30
0.0
 10
61.7203191457
 20
82.906733312
 30
0.0
 10
61.953286394
 20
82.5114486755
 30
0.0
 10
62.2668306577
 20
82.1655455873
 30
0.0
 10
62.6485416837
 20
81.8821345247
 30
0.0
 10
63.0836004203
 20
81.6715351895
 30
0.0
 10
63.5551331639
 20
81.5419252526
 30
0.0
 10
63.8819624545
 20
81.5124243893
 30
0.0
 10
64.0455153709
 20
81.5122269379
 30
0.0
  0
SPLINE
  5
2A2
100
AcDbEntity
  8
0
100
AcDbSpline
 62
7
  6
BYLAYER
 70
0
 71
3
 72
21
 73
17
 74
0
 42
0.0000001
 43
0.0000001
 44
0.0000000001
 40
0.0
 40
0.0
 40
0.0
 40
0.0
 40
0.109453938
 40
0.1642573518
 40
0.2190581788
 40
0.3284294343
 40
0.4378202787
 40
0.5471032045
 40
0.6561113713
 40
0.747113375
 40
0.7694200706
 40
0.7839564185
 40
0.801251927
 40
0.8488277468
 40
0.9150775214
 40
1.0
 40
1.0
 40
1.0
 40
1.0
 10
64.0589843508
 20
87.4272152903
 30
0.0
 10
63.8740789239
 20
87.4274339729
 30
0.0
 10
63.5952770888
 20
87.3966482006
 30
0.0
 10
63.2387832964
 20
87.2953194877
 30
0.0
 10
62.8956846403
 20
87.1551946712
 30
0.0
 10
62.4992333008
 20
86.9097682181
 30
0.0
 10
62.100815029
 20
86.5181348915
 30
0.0
 10
61.798673795
 20
86.0488305028
 30
0.0
 10
61.6179192839
 20
85.5540216267
 30
0.0
 10
61.5624302705
 20
85.1802081464
 30
0.0
 10
61.5552359733
 20
84.9643421008
 30
0.0
 10
61.5537721339
 20
84.8728933939
 30
0.0
 10
61.5522081654
 20
84.7387557373
 30
0.0
 10
61.5504905556
 20
84.5172526489
 30
0.0
 10
61.5484743204
 20
84.1815046957
 30
0.0
 10
61.5472469402
 20
83.9261252823
 30
0.0
 10
61.5466027555
 20
83.7826632916
 30
0.0
  0
SPLINE
  5
2A3
100
AcDbEntity
  8
0
100
AcDbSpline
 62
7
  6
BYLAYER
 70
0
 71
3
 72
15
 73
11
 74
0
 42
0.0000001
 43
0.0000001
 44
0.0000000001
 40
0.0
 40
0.0
 40
0.0
 40
0.0
 40
0.1310939231
 40
0.2613760285
 40
0.389882021
 40
0.5161825502
 40
0.6400163295
 40
0.7615363714
 40
0.8812603082
 40
1.0
 40
1.0
 40
1.0
 40
1.0
 10
64.0455153709
 20
81.5122269379
 30
0.0
 10
64.208298032
 20
81.5120304164
 30
0.0
 10
64.5336179056
 20
81.5404676179
 30
0.0
 10
65.0032870843
 20
81.6677603113
 30
0.0
 10
65.4370483011
 20
81.8754480187
 30
0.0
 10
65.8182384032
 20
82.155530775
 30
0.0
 10
66.1322011509
 20
82.4979145648
 30
0.0
 10
66.3666187274
 20
82.8897495076
 30
0.0
 10
66.5121251015
 20
83.3158293538
 30
0.0
 10
66.5458761561
 20
83.6127714567
 30
0.0
 10
66.5465378707
 20
83.7602121768
 30
0.0
  0
SPLINE
  5
2A4
100
AcDbEntity
  8
0
100
AcDbSpline
 62
7
  6
BYLAYER
 70
0
 71
3
 72
9
 73
5
 74
0
 42
0.0000001
 43
0.0000001
 44
0.0000000001
 40
0.0
 40
0.0
 40
0.0
 40
0.0
 40
0.2972126851
 40
1.0
 40
1.0
 40
1.0
 40
1.0
 10
61.565075688
 20
80.772827265
 30
0.0
 10
61.5650363281
 20
81.0601702429
 30
0.0
 10
61.5647612929
 20
82.0269625849
 30
0.0
 10
61.5640670207
 20
82.9937553202
 30
0.0
 10
61.5627557875
 20
83.6732035264
 30
0.0
  0
SPLINE
  5
2A5
100
AcDbEntity
  8
0
100
AcDbSpline
 62
7
  6
BYLAYER
 70
0
 71
3
 72
14
 73
10
 74
0
 42
0.0000001
 43
0.0000001
 44
0.0000000001
 40
0.0
 40
0.0
 40
0.0
 40
0.0
 40
0.2954641808
 40
0.4355447391
 40
0.5669791896
 40
0.6882993235
 40
0.7994392776
 40
0.9021767119
 40
1.0
 40
1.0
 40
1.0
 40
1.0
 10
64.0601568883
 20
79.1543158277
 30
0.0
 10
64.3821943733
 20
79.1539270437
 30
0.0
 10
64.8606414021
 20
79.2121004139
 30
0.0
 10
65.4471284563
 20
79.4119345793
 30
0.0
 10
65.8284176525
 20
79.6111241839
 30
0.0
 10
66.1439025656
 20
79.8554556736
 30
0.0
 10
66.3817059343
 20
80.1371412261
 30
0.0
 10
66.5307244528
 20
80.4469621499
 30
0.0
 10
66.5650626022
 20
80.6668262728
 30
0.0
 10
66.5650795688
 20
80.7734476174
 30
0.0
  0
SPLINE
  5
2A6
100
AcDbEntity
  8
0
100
AcDbSpline
 62
7
  6
BYLAYER
 70
0
 71
3
 72
14
 73
10
 74
0
 42
0.0000001
 43
0.0000001
 44
0.0000000001
 40
0.0
 40
0.0
 40
0.0
 40
0.0
 40
0.096271589
 40
0.19696412
 40
0.3055906023
 40
0.4242780101
 40
0.5538142053
 40
0.6939006896
 40
1.0
 40
1.0
 40
1.0
 40
1.0
 10
66.2516742123
 20
13.0827926568
 30
0.0
 10
66.1929421659
 20
13.0488779788
 30
0.0
 10
66.0625479053
 20
12.9959217785
 30
0.0
 10
65.8468854771
 20
12.9689823795
 30
0.0
 10
65.6153501119
 20
12.993060624
 30
0.0
 10
65.3736104024
 20
13.0664566169
 30
0.0
 10
65.1268100235
 20
13.1867440557
 30
0.0
 10
64.7887016892
 20
13.4123179151
 30
0.0
 10
64.5598742712
 20
13.6323901377
 30
0.0
 10
64.418456858
 20
13.7951821221
 30
0.0
  0
SPLINE
  5
2A7
100
AcDbEntity
  8
0
100
AcDbSpline
 62
7
  6
BYLAYER
 70
0
 71
3
 72
13
 73
9
 74
0
 42
0.0000001
 43
0.0000001
 44
0.0000000001
 40
0.0
 40
0.0
 40
0.0
 40
0.0
 40
0.1142260229
 40
0.2375602528
 40
0.5000015383
 40
0.7624419778
 40
0.8857752456
 40
1.0
 40
1.0
 40
1.0
 40
1.0
 10
53.4593726221
 20
88.3122655292
 30
0.0
 10
53.4593726221
 20
88.3960862622
 30
0.0
 10
53.4747505802
 20
88.5705850021
 30
0.0
 10
53.558107479
 20
88.9288017656
 30
0.0
 10
53.7518362081
 20
89.3681591134
 30
0.0
 10
54.0354640329
 20
89.7556128091
 30
0.0
 10
54.3040081348
 20
90.0069095354
 30
0.0
 10
54.4474381917
 20
90.1074756723
 30
0.0
 10
54.520028378
 20
90.1493853857
 30
0.0
  0
SPLINE
  5
2A8
100
AcDbEntity
  8
0
100
AcDbSpline
 62
7
  6
BYLAYER
 70
0
 71
3
 72
13
 73
9
 74
0
 42
0.0000001
 43
0.0000001
 44
0.0000000001
 40
0.0
 40
0.0
 40
0.0
 40
0.0
 40
0.1142247162
 40
0.2375579183
 40
0.4999983243
 40
0.7624396433
 40
0.8857739388
 40
1.0
 40
1.0
 40
1.0
 40
1.0
 10
52.3987168663
 20
80.3513775443
 30
0.0
 10
52.4713070283
 20
80.3932872437
 30
0.0
 10
52.6147370373
 20
80.4938533152
 30
0.0
 10
52.8832810643
 20
80.7451499752
 30
0.0
 10
53.1669089057
 20
81.1326035906
 30
0.0
 10
53.3606377126
 20
81.5719609641
 30
0.0
 10
53.4439946314
 20
81.9301778257
 30
0.0
 10
53.4593726221
 20
82.1046766397
 30
0.0
 10
53.4593726221
 20
82.1884974008
 30
0.0
  0
SPLINE
  5
2A9
100
AcDbEntity
  8
0
100
AcDbSpline
 62
7
  6
BYLAYER
 70
0
 71
3
 72
13
 73
9
 74
0
 42
0.0000001
 43
0.0000001
 44
0.0000000001
 40
0.0
 40
0.0
 40
0.0
 40
0.0
 40
0.1142260229
 40
0.2375602528
 40
0.5000015383
 40
0.7624419778
 40
0.8857752456
 40
1.0
 40
1.0
 40
1.0
 40
1.0
 10
46.0347823314
 20
75.4524265337
 30
0.0
 10
46.0347823314
 20
75.5362472667
 30
0.0
 10
46.0501602894
 20
75.7107460066
 30
0.0
 10
46.1335171883
 20
76.0689627701
 30
0.0
 10
46.3272459174
 20
76.5083201179
 30
0.0
 10
46.6108737422
 20
76.8957738136
 30
0.0
 10
46.879417844
 20
77.1470705399
 30
0.0
 10
47.0228479009
 20
77.2476366768
 30
0.0
 10
47.0954380872
 20
77.2895463902
 30
0.0
  0
SPLINE
  5
2AA
100
AcDbEntity
  8
0
100
AcDbSpline
 62
7
  6
BYLAYER
 70
0
 71
3
 72
9
 73
5
 74
0
 42
0.0000001
 43
0.0000001
 44
0.0000000001
 40
0.0
 40
0.0
 40
0.0
 40
0.0
 40
0.5255647212
 40
1.0
 40
1.0
 40
1.0
 40
1.0
 10
46.1383352909
 20
76.8565401421
 30
0.0
 10
46.1062352769
 20
76.8009409785
 30
0.0
 10
46.0564927443
 20
76.6882280588
 30
0.0
 10
46.0347823314
 20
76.5660315562
 30
0.0
 10
46.0347823314
 20
76.508076972
 30
0.0
  0
SPLINE
  5
2AB
100
AcDbEntity
  8
0
100
AcDbSpline
 62
7
  6
BYLAYER
 70
0
 71
3
 72
9
 73
5
 74
0
 42
0.0000001
 43
0.0000001
 44
0.0000000001
 40
0.0
 40
0.0
 40
0.0
 40
0.0
 40
0.4744336386
 40
1.0
 40
1.0
 40
1.0
 40
1.0
 10
53.6058186218
 20
89.6215692876
 30
0.0
 10
53.5556289031
 20
89.5925924129
 30
0.0
 10
53.4606595609
 20
89.512692646
 30
0.0
 10
53.387919569
 20
89.4132581496
 30
0.0
 10
53.3558196627
 20
89.3576591722
 30
0.0
  0
SPLINE
  5
2AC
100
AcDbEntity
  8
0
100
AcDbSpline
 62
7
  6
BYLAYER
 70
0
 71
3
 72
11
 73
7
 74
0
 42
0.0000001
 43
0.0000001
 44
0.0000000001
 40
0.0
 40
0.0
 40
0.0
 40
0.0
 40
0.2801841582
 40
0.5369994918
 40
0.7741302019
 40
1.0
 40
1.0
 40
1.0
 40
1.0
 10
66.1822197056
 20
79.3972957
 30
0.0
 10
66.3157639164
 20
79.4834347852
 30
0.0
 10
66.5584870159
 20
79.6710157105
 30
0.0
 10
66.8444513643
 20
80.0092691696
 30
0.0
 10
67.0237243997
 20
80.381513263
 30
0.0
 10
67.0650924921
 20
80.6456415313
 30
0.0
 10
67.0650589225
 20
80.7737505326
 30
0.0
  0
SPLINE
  5
2AD
100
AcDbEntity
  8
0
100
AcDbSpline
 62
7
  6
BYLAYER
 70
0
 71
3
 72
11
 73
7
 74
0
 42
0.0000001
 43
0.0000001
 44
0.0000000001
 40
0.0
 40
0.0
 40
0.0
 40
0.0
 40
0.2177843137
 40
0.4509117637
 40
0.7102976701
 40
1.0
 40
1.0
 40
1.0
 40
1.0
 10
60.5947946359
 20
80.0359103126
 30
0.0
 10
60.5205764421
 20
79.993060707
 30
0.0
 10
60.3500486033
 20
79.9311747577
 30
0.0
 10
60.0668047691
 20
79.9240030784
 30
0.0
 10
59.7649332231
 20
79.9968996753
 30
0.0
 10
59.56853264
 20
80.0903312423
 30
0.0
 10
59.4698052859
 20
80.1473302173
 30
0.0
  0
SPLINE
  5
2AE
100
AcDbEntity
  8
0
100
AcDbSpline
 62
7
  6
BYLAYER
 70
0
 71
3
 72
9
 73
5
 74
0
 42
0.0000001
 43
0.0000001
 44
0.0000000001
 40
0.0
 40
0.0
 40
0.0
 40
0.0
 40
0.4868934601
 40
1.0
 40
1.0
 40
1.0
 40
1.0
 10
52.8246207699
 20
89.6643400579
 30
0.0
 10
52.9513999687
 20
89.6755848148
 30
0.0
 10
53.2137564523
 20
89.678786535
 30
0.0
 10
53.4741062689
 20
89.6469166276
 30
0.0
 10
53.6058186218
 20
89.6215692876
 30
0.0
  0
SPLINE
  5
2AF
100
AcDbEntity
  8
0
100
AcDbSpline
 62
7
  6
BYLAYER
 70
0
 71
3
 72
13
 73
9
 74
0
 42
0.0000001
 43
0.0000001
 44
0.0000000001
 40
0.0
 40
0.0
 40
0.0
 40
0.0
 40
0.0445823902
 40
0.1074945882
 40
0.1921617569
 40
0.3008131763
 40
0.596743226
 40
1.0
 40
1.0
 40
1.0
 40
1.0
 10
69.52838691
 20
9.1396225807
 30
0.0
 10
69.5339994417
 20
9.1428950591
 30
0.0
 10
69.545397537
 20
9.1541677523
 30
0.0
 10
69.5605381839
 20
9.1777557075
 30
0.0
 10
69.5768494012
 20
9.2114381397
 30
0.0
 10
69.6029591409
 20
9.2778108454
 30
0.0
 10
69.6374159735
 20
9.3905183485
 30
0.0
 10
69.6633747478
 20
9.4890298548
 30
0.0
 10
69.677988945
 20
9.5459494066
 30
0.0
  0
SPLINE
  5
2B0
100
AcDbEntity
  8
0
100
AcDbSpline
 62
7
  6
BYLAYER
 70
0
 71
3
 72
11
 73
7
 74
0
 42
0.0000001
 43
0.0000001
 44
0.0000000001
 40
0.0
 40
0.0
 40
0.0
 40
0.0
 40
0.2897049461
 40
0.5490581834
 40
0.7822832707
 40
1.0
 40
1.0
 40
1.0
 40
1.0
 10
46.0347823314
 20
22.1406213992
 30
0.0
 10
46.0347823314
 20
22.1152875278
 30
0.0
 10
46.038629851
 20
22.0671129716
 30
0.0
 10
46.0581243958
 20
22.0009037335
 30
0.0
 10
46.0909973685
 20
21.9472026053
 30
0.0
 10
46.1218474047
 20
21.921249731
 30
0.0
 10
46.1383352909
 20
21.9117301733
 30
0.0
  0
SPLINE
  5
2B1
100
AcDbEntity
  8
0
100
AcDbSpline
 62
7
  6
BYLAYER
 70
0
 71
3
 72
11
 73
7
 74
0
 42
0.0000001
 43
0.0000001
 44
0.0000000001
 40
0.0
 40
0.0
 40
0.0
 40
0.0
 40
0.2897042895
 40
0.5490907647
 40
0.7822174449
 40
1.0
 40
1.0
 40
1.0
 40
1.0
 10
62.2983060098
 20
13.8067344835
 30
0.0
 10
62.2983060098
 20
13.7307319238
 30
0.0
 10
62.3098290521
 20
13.5861913156
 30
0.0
 10
62.3683661185
 20
13.3876002982
 30
0.0
 10
62.4669231536
 20
13.2264553901
 30
0.0
 10
62.5594982476
 20
13.1486283556
 30
0.0
 10
62.6089782332
 20
13.1200617438
 30
0.0
  0
SPLINE
  5
2B2
100
AcDbEntity
  8
0
100
AcDbSpline
 62
7
  6
BYLAYER
 70
0
 71
3
 72
11
 73
7
 74
0
 42
0.0000001
 43
0.0000001
 44
0.0000000001
 40
0.0
 40
0.0
 40
0.0
 40
0.0
 40
0.2177825102
 40
0.4509091639
 40
0.7102957096
 40
1.0
 40
1.0
 40
1.0
 40
1.0
 10
69.4122240771
 20
16.3304635874
 30
0.0
 10
69.4617040391
 20
16.3018969586
 30
0.0
 10
69.5542791423
 20
16.2240699786
 30
0.0
 10
69.6528361808
 20
16.0629250608
 30
0.0
 10
69.7113732323
 20
15.8643340318
 30
0.0
 10
69.7228963005
 20
15.7197934074
 30
0.0
 10
69.7228963005
 20
15.6437908477
 30
0.0
  0
SPLINE
  5
2B3
100
AcDbEntity
  8
0
100
AcDbSpline
 62
7
  6
BYLAYER
 70
0
 71
3
 72
11
 73
7
 74
0
 42
0.0000001
 43
0.0000001
 44
0.0000000001
 40
0.0
 40
0.0
 40
0.0
 40
0.0
 40
0.2177825102
 40
0.4509091639
 40
0.7102957096
 40
1.0
 40
1.0
 40
1.0
 40
1.0
 10
46.3454545548
 20
22.5095990978
 30
0.0
 10
46.2959745928
 20
22.5381657266
 30
0.0
 10
46.2033994896
 20
22.6159927066
 30
0.0
 10
46.1048424511
 20
22.7771376243
 30
0.0
 10
46.0463053996
 20
22.9757286534
 30
0.0
 10
46.0347823314
 20
23.1202692778
 30
0.0
 10
46.0347823314
 20
23.1962718374
 30
0.0
  0
SPLINE
  5
2B4
100
AcDbEntity
  8
0
100
AcDbSpline
 62
7
  6
BYLAYER
 70
0
 71
3
 72
13
 73
9
 74
0
 42
0.0000001
 43
0.0000001
 44
0.0000000001
 40
0.0
 40
0.0
 40
0.0
 40
0.0
 40
0.1142247162
 40
0.2375579183
 40
0.4999983243
 40
0.7624396433
 40
0.8857739388
 40
1.0
 40
1.0
 40
1.0
 40
1.0
 10
63.3589617656
 20
67.9000090363
 30
0.0
 10
63.2863716036
 20
67.8580993369
 30
0.0
 10
63.1429415946
 20
67.7575332654
 30
0.0
 10
62.8743975676
 20
67.5062366053
 30
0.0
 10
62.5907697263
 20
67.1187829899
 30
0.0
 10
62.3970409193
 20
66.6794256164
 30
0.0
 10
62.3136840005
 20
66.3212087548
 30
0.0
 10
62.2983060098
 20
66.1467099408
 30
0.0
 10
62.2983060098
 20
66.0628891798
 30
0.0
  0
SPLINE
  5
2B5
100
AcDbEntity
  8
0
100
AcDbSpline
 62
7
  6
BYLAYER
 70
0
 71
3
 72
13
 73
9
 74
0
 42
0.0000001
 43
0.0000001
 44
0.0000000001
 40
0.0
 40
0.0
 40
0.0
 40
0.0
 40
0.1142260229
 40
0.2375602528
 40
0.5000015383
 40
0.7624419778
 40
0.8857752456
 40
1.0
 40
1.0
 40
1.0
 40
1.0
 10
69.7228963005
 20
72.7989600468
 30
0.0
 10
69.7228963005
 20
72.7151393138
 30
0.0
 10
69.7075183425
 20
72.540640574
 30
0.0
 10
69.6241614436
 20
72.1824238104
 30
0.0
 10
69.4304327145
 20
71.7430664627
 30
0.0
 10
69.1468048898
 20
71.355612767
 30
0.0
 10
68.8782607879
 20
71.1043160406
 30
0.0
 10
68.734830731
 20
71.0037499037
 30
0.0
 10
68.6622405447
 20
70.9618401903
 30
0.0
  0
SPLINE
  5
2B6
100
AcDbEntity
  8
0
100
AcDbSpline
 62
7
  6
BYLAYER
 70
0
 71
3
 72
9
 73
5
 74
0
 42
0.0000001
 43
0.0000001
 44
0.0000000001
 40
0.0
 40
0.0
 40
0.0
 40
0.0
 40
0.2371754943
 40
1.0
 40
1.0
 40
1.0
 40
1.0
 10
69.677988945
 20
9.5459494066
 30
0.0
 10
69.6855689196
 20
9.5754719836
 30
0.0
 10
69.7129491805
 20
9.701116433
 30
0.0
 10
69.7228963005
 20
9.8302410628
 30
0.0
 10
69.7228963005
 20
9.9282739278
 30
0.0
  0
SPLINE
  5
2B7
100
AcDbEntity
  8
0
100
AcDbSpline
 62
7
  6
BYLAYER
 70
0
 71
3
 72
9
 73
5
 74
0
 42
0.0000001
 43
0.0000001
 44
0.0000000001
 40
0.0
 40
0.0
 40
0.0
 40
0.0
 40
0.2397657511
 40
1.0
 40
1.0
 40
1.0
 40
1.0
 10
69.7228963005
 20
78.5144769667
 30
0.0
 10
69.7228963005
 20
78.5493943016
 30
0.0
 10
69.7188480947
 20
78.6950166828
 30
0.0
 10
69.6994969656
 20
78.8400504023
 30
0.0
 10
69.677988945
 20
78.9486548626
 30
0.0
  0
SPLINE
  5
2B8
100
AcDbEntity
  8
0
100
AcDbSpline
 62
7
  6
BYLAYER
 70
0
 71
3
 72
18
 73
14
 74
0
 42
0.0000001
 43
0.0000001
 44
0.0000000001
 40
0.0
 40
0.0
 40
0.0
 40
0.0
 40
0.046709357
 40
0.0947658633
 40
0.1452981334
 40
0.1990898814
 40
0.317372424
 40
0.3819384114
 40
0.4494420756
 40
0.590295666
 40
0.7335651756
 40
0.8721618535
 40
1.0
 40
1.0
 40
1.0
 40
1.0
 10
61.0650940549
 20
80.7730636411
 30
0.0
 10
61.0651190882
 20
80.6775310233
 30
0.0
 10
61.0875496442
 20
80.4830285544
 30
0.0
 10
61.1869501958
 20
80.2006760551
 30
0.0
 10
61.3488579457
 20
79.932046615
 30
0.0
 10
61.6518378099
 20
79.5895301327
 30
0.0
 10
62.0565483928
 20
79.3103404828
 30
0.0
 10
62.5234220367
 20
79.0988444232
 30
0.0
 10
63.0554712556
 20
78.9262902193
 30
0.0
 10
63.7707039183
 20
78.8128269641
 30
0.0
 10
64.6398969521
 20
78.8392279503
 30
0.0
 10
65.4625010943
 20
79.0236057153
 30
0.0
 10
65.9625003773
 20
79.2555716834
 30
0.0
 10
66.1822197056
 20
79.3972957
 30
0.0
  0
SPLINE
  5
2B9
100
AcDbEntity
  8
0
100
AcDbSpline
 62
7
  6
BYLAYER
 70
0
 71
3
 72
11
 73
7
 74
0
 42
0.0000001
 43
0.0000001
 44
0.0000000001
 40
0.0
 40
0.0
 40
0.0
 40
0.0
 40
0.2897033281
 40
0.5490895198
 40
0.7822165953
 40
1.0
 40
1.0
 40
1.0
 40
1.0
 10
55.4039243663
 20
84.3318449944
 30
0.0
 10
55.4039243663
 20
84.4458483192
 30
0.0
 10
55.4212089476
 20
84.6626584813
 30
0.0
 10
55.5090144621
 20
84.9605442822
 30
0.0
 10
55.656849787
 20
85.2022617638
 30
0.0
 10
55.7957120297
 20
85.3190030676
 30
0.0
 10
55.8699318979
 20
85.3618536399
 30
0.0
  0
SPLINE
  5
2BA
100
AcDbEntity
  8
0
100
AcDbSpline
 62
7
  6
BYLAYER
 70
0
 71
3
 72
15
 73
11
 74
0
 42
0.0000001
 43
0.0000001
 44
0.0000000001
 40
0.0
 40
0.0
 40
0.0
 40
0.0
 40
0.1141232787
 40
0.2373467935
 40
0.3669716251
 40
0.4999988493
 40
0.6330262331
 40
0.7626515288
 40
0.885875802
 40
1.0
 40
1.0
 40
1.0
 40
1.0
 10
56.9949212479
 20
81.5761728582
 30
0.0
 10
56.8860351828
 20
81.6390368349
 30
0.0
 10
56.6709174278
 20
81.7898898545
 30
0.0
 10
56.3748652907
 20
82.0667671273
 30
0.0
 10
56.1020982796
 20
82.394185026
 30
0.0
 10
55.8627819946
 20
82.75964374
 30
0.0
 10
55.6659414824
 20
83.1496265761
 30
0.0
 10
55.5187700997
 20
83.5495593172
 30
0.0
 10
55.4270103845
 20
83.9443883262
 30
0.0
 10
55.4039243663
 20
84.2061138947
 30
0.0
 10
55.4039243663
 20
84.3318449944
 30
0.0
  0
SPLINE
  5
2BB
100
AcDbEntity
  8
0
100
AcDbSpline
 62
7
  6
BYLAYER
 70
0
 71
3
 72
15
 73
11
 74
0
 42
0.0000001
 43
0.0000001
 44
0.0000000001
 40
0.0
 40
0.0
 40
0.0
 40
0.0
 40
0.1187094084
 40
0.2384116053
 40
0.359926058
 40
0.4837724774
 40
0.610097375
 40
0.7386283312
 40
0.8689220508
 40
1.0
 40
1.0
 40
1.0
 40
1.0
 10
66.5465378707
 20
83.7602121768
 30
0.0
 10
66.5472026279
 20
83.9083308245
 30
0.0
 10
66.5158238626
 20
84.2069513044
 30
0.0
 10
66.3728359594
 20
84.6361420903
 30
0.0
 10
66.1398687112
 20
85.0314267268
 30
0.0
 10
65.8263244475
 20
85.377329815
 30
0.0
 10
65.4446134215
 20
85.6607408776
 30
0.0
 10
65.0095546849
 20
85.8713402128
 30
0.0
 10
64.5380219413
 20
86.0009501497
 30
0.0
 10
64.2111926507
 20
86.0304510129
 30
0.0
 10
64.0476397342
 20
86.0306484643
 30
0.0
  0
SPLINE
  5
2BC
100
AcDbEntity
  8
0
100
AcDbSpline
 62
7
  6
BYLAYER
 70
0
 71
3
 72
13
 73
9
 74
0
 42
0.0000001
 43
0.0000001
 44
0.0000000001
 40
0.0
 40
0.0
 40
0.0
 40
0.0
 40
0.1401513212
 40
0.2861199935
 40
0.429130428
 40
0.5646234036
 40
0.8053796247
 40
1.0
 40
1.0
 40
1.0
 40
1.0
 10
69.677988945
 20
78.9486548626
 30
0.0
 10
69.6539711671
 20
79.0699323081
 30
0.0
 10
69.6136714392
 20
79.3192254779
 30
0.0
 10
69.5651983633
 20
79.6946728882
 30
0.0
 10
69.5245408292
 20
80.0669191956
 30
0.0
 10
69.4785556553
 20
80.5226653411
 30
0.0
 10
69.4304413902
 20
81.0239337558
 30
0.0
 10
69.3905205638
 20
81.4059599642
 30
0.0
 10
69.3693326061
 20
81.5763295408
 30
0.0
  0
SPLINE
  5
2BD
100
AcDbEntity
  8
0
100
AcDbSpline
 62
7
  6
BYLAYER
 70
0
 71
3
 72
15
 73
11
 74
0
 42
0.0000001
 43
0.0000001
 44
0.0000000001
 40
0.0
 40
0.0
 40
0.0
 40
0.0
 40
0.1310939231
 40
0.2613760285
 40
0.389882021
 40
0.5161825502
 40
0.6400163295
 40
0.7615363714
 40
0.8812603082
 40
1.0
 40
1.0
 40
1.0
 40
1.0
 10
64.0476397342
 20
86.0306484643
 30
0.0
 10
63.8848570731
 20
86.0308449858
 30
0.0
 10
63.5595371995
 20
86.0024077843
 30
0.0
 10
63.0898680209
 20
85.875115091
 30
0.0
 10
62.656106804
 20
85.6674273836
 30
0.0
 10
62.274916702
 20
85.3873446273
 30
0.0
 10
61.9609539543
 20
85.0449608374
 30
0.0
 10
61.7265363778
 20
84.6531258946
 30
0.0
 10
61.5810300037
 20
84.2270460484
 30
0.0
 10
61.5472789491
 20
83.9301039456
 30
0.0
 10
61.5466172344
 20
83.7826632254
 30
0.0
  0
SPLINE
  5
2BE
100
AcDbEntity
  8
0
100
AcDbSpline
 62
7
  6
BYLAYER
 70
0
 71
3
 72
9
 73
5
 74
0
 42
0.0000001
 43
0.0000001
 44
0.0000000001
 40
0.0
 40
0.0
 40
0.0
 40
0.0
 40
0.4675407326
 40
1.0
 40
1.0
 40
1.0
 40
1.0
 10
66.9642452455
 20
71.941568166
 30
0.0
 10
67.0009284121
 20
72.021098284
 30
0.0
 10
67.0523976386
 20
72.2036455093
 30
0.0
 10
67.0660309953
 20
72.3913408045
 30
0.0
 10
67.0660232815
 20
72.4910842293
 30
0.0
  0
SPLINE
  5
2BF
100
AcDbEntity
  8
0
100
AcDbSpline
 62
7
  6
BYLAYER
 70
0
 71
3
 72
10
 73
6
 74
0
 42
0.0000001
 43
0.0000001
 44
0.0000000001
 40
0.0
 40
0.0
 40
0.0
 40
0.0
 40
0.2786413113
 40
0.5377970068
 40
1.0
 40
1.0
 40
1.0
 40
1.0
 10
66.1831628809
 20
71.1586861768
 30
0.0
 10
66.2732979706
 20
71.2107253845
 30
0.0
 10
66.442073764
 20
71.3210183977
 30
0.0
 10
66.7261418519
 20
71.5639321543
 30
0.0
 10
66.8921485667
 20
71.7852623726
 30
0.0
 10
66.9644587299
 20
71.9420328032
 30
0.0
  0
SPLINE
  5
2C0
100
AcDbEntity
  8
0
100
AcDbSpline
 62
7
  6
BYLAYER
 70
0
 71
3
 72
14
 73
10
 74
0
 42
0.0000001
 43
0.0000001
 44
0.0000000001
 40
0.0
 40
0.0
 40
0.0
 40
0.0
 40
0.0978711434
 40
0.2006022722
 40
0.3117549699
 40
0.4330439015
 40
0.5644381545
 40
0.7044875309
 40
1.0
 40
1.0
 40
1.0
 40
1.0
 10
61.5650757178
 20
80.772827275
 30
0.0
 10
61.5650921759
 20
80.666486749
 30
0.0
 10
61.5992897639
 20
80.4472643189
 30
0.0
 10
61.7476565594
 20
80.1382855122
 30
0.0
 10
61.9842401597
 20
79.8571273011
 30
0.0
 10
62.2983377803
 20
79.6131392405
 30
0.0
 10
62.6779835974
 20
79.4139657563
 30
0.0
 10
63.2622450621
 20
79.2136742317
 30
0.0
 10
63.7390721662
 20
79.1547034614
 30
0.0
 10
64.0601568883
 20
79.1543158277
 30
0.0
  0
ELLIPSE
  5
2C1
100
AcDbEntity
  8
0
100
AcDbEllipse
 62
7
  6
BYLAYER
 10
52.0451649477
 20
87.0875260129
 30
0.0
 11
1.4142167279
 21
2.449487915
 31
0.0
 40
0.5773494077
 41
0.3850642777
 42
1.5708027286
  0
ELLIPSE
  5
2C2
100
AcDbEntity
  8
0
100
AcDbEllipse
 62
7
  6
BYLAYER
 10
64.0660361632
 20
72.3906777321
 30
0.0
 11
3.0000000115
 21
0.0000203474
 31
0.0
 40
0.5796272781
 41
-3.1415302245
 42
-0.7873770438
  0
ENDSEC
  0
SECTION
  2
OBJECTS
  0
DICTIONARY
  5
C
100
AcDbDictionary
280
0
281
1
  3
ACAD_GROUP
350
D
  3
ACAD_MLINESTYLE
350
17
  3
ACAD_LAYOUT
350
1A
  3
ACAD_PLOTSETTINGS
350
19
  3
ACAD_PLOTSTYLENAME
350
E
  0
DICTIONARY
  5
D
102
{ACAD_REACTORS
330
C
102
}
100
AcDbDictionary
280
0
281
1
  0
ACDBDICTIONARYWDFLT
  5
E
102
{ACAD_REACTORS
330
C
102
}
100
AcDbDictionary
281
1
  3
Normal
350
F
100
AcDbDictionaryWithDefault
340
F
  0
DICTIONARY
  5
17
102
{ACAD_REACTORS
330
C
102
}
100
AcDbDictionary
280
0
281
1
  3
Standard
350
18
  0
DICTIONARY
  5
19
102
{ACAD_REACTORS
330
C
102
}
100
AcDbDictionary
281
1
  0
DICTIONARY
  5
1A
102
{ACAD_REACTORS
330
C
102
}
100
AcDbDictionary
281
1
  3
Model
350
2C3
  3
Layout1
350
2C4
  0
ACDBPLACEHOLDER
  5
F
102
{ACAD_REACTORS
330
E
102
}
  0
MLINESTYLE
  5
18
102
{ACAD_REACTORS
330
17
102
}
100
AcDbMlineStyle
  2
STANDARD
 70
0
  3

 62
256
 51
90.0
 52
90.0
 71
2
 49
0.5
 62
256
  6
BYLAYER
 49
-0.5
 62
256
  6
BYLAYER
  0
LAYOUT
  5
2C3
102
{ACAD_REACTORS
330
1A
102
}
100
AcDbPlotSettings
  1

  2
none_device
  4

  6

 40
0.0
 41
0.0
 42
0.0
 43
0.0
 44
210.0
 45
297.0
 46
0.0
 47
0.0
 48
0.0
 49
0.0
140
0.0
141
0.0
142
1.0
143
1.0
 70
1024
 72
1
 73
0
 74
0
  7

 75
0
147
1.0
148
0.0
149
0.0
100
AcDbLayout
  1
Model
 70
0
 71
0
 10
0.0
 20
0.0
 11
210.0
 21
297.0
 12
0.0
 22
0.0
 32
0.0
 14
0.0
 24
0.0
 34
0.0
 15
0.0
 25
0.0
 35
0.0
146
0.0
 13
0.0
 23
0.0
 33
0.0
 16
1.0
 26
0.0
 36
0.0
 17
0.0
 27
1.0
 37
0.0
 76
0
330
210
345
0
346
0
  0
LAYOUT
  5
2C4
102
{ACAD_REACTORS
330
1A
102
}
100
AcDbPlotSettings
  1

  2
none_device
  4

  6

 40
0.0
 41
0.0
 42
0.0
 43
0.0
 44
210.0
 45
297.0
 46
0.0
 47
0.0
 48
0.0
 49
0.0
140
0.0
141
0.0
142
1.0
143
1.0
 70
0
 72
1
 73
0
 74
0
  7

 75
0
147
1.0
148
0.0
149
0.0
100
AcDbLayout
  1
Layout1
 70
0
 71
1
 10
0.0
 20
0.0
 11
210.0
 21
297.0
 12
0.0
 22
0.0
 32
0.0
 14
0.0
 24
0.0
 34
0.0
 15
0.0
 25
0.0
 35
0.0
146
0.0
 13
0.0
 23
0.0
 33
0.0
 16
1.0
 26
0.0
 36
0.0
 17
0.0
 27
1.0
 37
0.0
 76
0
330
211
345
0
346
0
  0
ENDSEC
  0
EOF
