999
DXF file: C:\Users\sesa63760\Dev\_Creo\CAD\MCADID0004472_3D-CAD\drw0001_1.dxf
999
Pro/ENGINEER 2019471 by Parametric Technology Corporation
  0
SECTION
  2
HEADER
  9
$ACADVER
  1
AC1024
  9
$DWGCODEPAGE
  3
ANSI_1252
  9
$EXTMAX
 10
72.6503816196
 20
102.748396862
 30
0.0
  9
$EXTMIN
 10
0.0
 20
0.0
 30
0.0
  9
$LIMMIN
 10
0.0
 20
0.0
  9
$LIMMAX
 10
72.6503816196
 20
102.748396862
  9
$VIEWCTR
 10
36.3251908098
 20
51.374198431
  9
$VIEWSIZE
 40
102.748396862
  9
$CLAYER
  8
0
  9
$LTSCALE
 40
6.6976732769
  9
$CELTYPE
  6
BYLAYER
  9
$DIMSCALE
 40
1.0
  9
$DIMASZ
 40
0.8648854955
  9
$DIMEXO
 40
1.0
  9
$DIMDLI
 40
4.627483355
  9
$DIMEXE
 40
1.0
  9
$DIMCEN
 40
1.0959828999
  9
$DIMLFAC
 40
1.0
  9
$DIMBLK
  1
_FILLED
  9
$DIMALT
 70
0
  9
$DIMALTF
 40
0.0393700787
  9
$DIMTXT
 40
1.2108396937
  9
$DIMTOL
 70
1
  9
$DIMLIM
 70
0
  9
$DIMTFAC
 40
1.0
  9
$DIMTP
 40
0.01
  9
$DIMTM
 40
0.01
  9
$DIMGAP
 40
0.625
  9
$DIMDSEP
 70
46
  9
$AUNITS
 70
0
  9
$PDMODE
 70
3
  9
$PDSIZE
 40
0.3125
  9
$HANDSEED
  5
35C
  9
$TILEMODE
 70
1
  9
$MEASUREMENT
 70
1
  9
$INSUNITS
 70
4
  0
ENDSEC
  0
SECTION
  2
CLASSES
  0
CLASS
  1
ACDBDICTIONARYWDFLT
  2
AcDbDictionaryWithDefault
  3
AutoCAD 2000
 90
0
 91
1
280
0
281
0
  0
CLASS
  1
ACDBPLACEHOLDER
  2
AcDbPlaceHolder
  3
AutoCAD 2000
 90
0
 91
1
280
0
281
0
  0
CLASS
  1
LAYOUT
  2
AcDbLayout
  3
AutoCAD 2000
 90
0
 91
0
280
0
281
0
  0
ENDSEC
  0
SECTION
  2
TABLES
  0
TABLE
  2
VPORT
  5
8
100
AcDbSymbolTable
 70
2
  0
VPORT
  5
1F4
100
AcDbSymbolTableRecord
100
AcDbViewportTableRecord
  2
*ACTIVE
 70
0
 10
0.0
 20
0.0
 11
1.0
 21
1.0
 12
36.3251908098
 22
51.374198431
 13
0.0
 23
0.0
 14
1.0
 24
1.0
 15
0.0
 25
0.0
 16
0.0
 26
0.0
 36
1.0
 17
0.0
 27
0.0
 37
0.0
 40
102.748396862
 41
0.7070707071
 42
50.0
 43
0.0
 44
0.0
 50
0.0
 51
0.0
 71
0
 72
100
 73
1
 74
1
 75
0
 76
0
 77
0
 78
0
  0
ENDTAB
  0
TABLE
  2
LTYPE
  5
5
100
AcDbSymbolTable
 70
6
  0
LTYPE
  5
14
100
AcDbSymbolTableRecord
100
AcDbLinetypeTableRecord
  2
BYBLOCK
 70
0
  3

 72
65
 73
0
 40
0.0
  0
LTYPE
  5
15
100
AcDbSymbolTableRecord
100
AcDbLinetypeTableRecord
  2
BYLAYER
 70
0
  3

 72
65
 73
0
 40
0.0
  0
LTYPE
  5
16
100
AcDbSymbolTableRecord
100
AcDbLinetypeTableRecord
  2
CONTINUOUS
 70
64
  3
Solid line
 72
65
 73
0
 40
0.0
  0
LTYPE
  5
1F5
100
AcDbSymbolTableRecord
100
AcDbLinetypeTableRecord
  2
CENTER
 70
64
  3
____ _ ____ _ ____ _ ____ _ ____ _ ____ _ ____
 72
65
 73
4
 40
0.6
 49
0.375
 74
0
 49
-0.075
 74
0
 49
0.075
 74
0
 49
-0.075
 74
0
  0
LTYPE
  5
1F6
100
AcDbSymbolTableRecord
100
AcDbLinetypeTableRecord
  2
HIDDEN
 70
64
  3
- - - - - - - - - - - - - - - - - - - -
 72
65
 73
2
 40
0.2
 49
0.1
 74
0
 49
-0.1
 74
0
  0
LTYPE
  5
1F7
100
AcDbSymbolTableRecord
100
AcDbLinetypeTableRecord
  2
PHANTOM
 70
64
  3
_____ _ _ _____ _ _ _____ _ _ _____
 72
65
 73
6
 40
0.8
 49
0.45
 74
0
 49
-0.05
 74
0
 49
0.1
 74
0
 49
-0.05
 74
0
 49
0.1
 74
0
 49
-0.05
 74
0
  0
LTYPE
  5
1F8
100
AcDbSymbolTableRecord
100
AcDbLinetypeTableRecord
  2
DOT
 70
64
  3
. . . . . . . . . . . . . . . . . . . .
 72
65
 73
2
 40
0.2
 49
0.1
 74
0
 49
-0.1
 74
0
  0
LTYPE
  5
1F9
100
AcDbSymbolTableRecord
100
AcDbLinetypeTableRecord
  2
DASHED
 70
64
  3
- - - - - - - - - - - - - - - - - - - -
 72
65
 73
2
 40
0.2
 49
0.1
 74
0
 49
-0.1
 74
0
  0
ENDTAB
  0
TABLE
  2
LAYER
  5
2
100
AcDbSymbolTable
 70
36
  0
LAYER
  5
10
100
AcDbSymbolTableRecord
100
AcDbLayerTableRecord
  2
0
 70
0
 62
7
  6
CONTINUOUS
370
-3
390
F
  0
LAYER
  5
1FA
100
AcDbSymbolTableRecord
100
AcDbLayerTableRecord
  2
DEFAULT_1
 70
0
 62
7
  6
CENTER
370
-3
390
F
  0
LAYER
  5
1FB
100
AcDbSymbolTableRecord
100
AcDbLayerTableRecord
  2
DEFAULT_2
 70
0
 62
7
  6
HIDDEN
370
-3
390
F
  0
LAYER
  5
1FC
100
AcDbSymbolTableRecord
100
AcDbLayerTableRecord
  2
DEFAULT_3
 70
0
 62
7
  6
PHANTOM
370
-3
390
F
  0
LAYER
  5
1FD
100
AcDbSymbolTableRecord
100
AcDbLayerTableRecord
  2
00_COMPONENTS
 70
0
 62
7
  6
CONTINUOUS
370
-3
390
F
  0
LAYER
  5
1FE
100
AcDbSymbolTableRecord
100
AcDbLayerTableRecord
  2
01_1_DEFAULT_DATUMS
 70
0
 62
7
  6
CONTINUOUS
370
-3
390
F
  0
LAYER
  5
1FF
100
AcDbSymbolTableRecord
100
AcDbLayerTableRecord
  2
01_PLANES
 70
0
 62
7
  6
CONTINUOUS
370
-3
390
F
  0
LAYER
  5
200
100
AcDbSymbolTableRecord
100
AcDbLayerTableRecord
  2
02_COORD_SYS
 70
0
 62
7
  6
CONTINUOUS
370
-3
390
F
  0
LAYER
  5
201
100
AcDbSymbolTableRecord
100
AcDbLayerTableRecord
  2
03_AXES
 70
0
 62
7
  6
CONTINUOUS
370
-3
390
F
  0
LAYER
  5
202
100
AcDbSymbolTableRecord
100
AcDbLayerTableRecord
  2
04_POINTS
 70
0
 62
7
  6
CONTINUOUS
370
-3
390
F
  0
LAYER
  5
203
100
AcDbSymbolTableRecord
100
AcDbLayerTableRecord
  2
05_CURVES
 70
0
 62
7
  6
CONTINUOUS
370
-3
390
F
  0
LAYER
  5
204
100
AcDbSymbolTableRecord
100
AcDbLayerTableRecord
  2
06_SURFS
 70
0
 62
7
  6
CONTINUOUS
370
-3
390
F
  0
LAYER
  5
205
100
AcDbSymbolTableRecord
100
AcDbLayerTableRecord
  2
07_COSMETICS
 70
0
 62
7
  6
CONTINUOUS
370
-3
390
F
  0
LAYER
  5
206
100
AcDbSymbolTableRecord
100
AcDbLayerTableRecord
  2
10_NOTES
 70
0
 62
7
  6
CONTINUOUS
370
-3
390
F
  0
LAYER
  5
207
100
AcDbSymbolTableRecord
100
AcDbLayerTableRecord
  2
11_NOTES_PUB
 70
0
 62
7
  6
CONTINUOUS
370
-3
390
F
  0
LAYER
  5
208
100
AcDbSymbolTableRecord
100
AcDbLayerTableRecord
  2
13_REF_GTOL
 70
0
 62
7
  6
CONTINUOUS
370
-3
390
F
  0
LAYER
  5
209
100
AcDbSymbolTableRecord
100
AcDbLayerTableRecord
  2
16_MISC
 70
0
 62
7
  6
CONTINUOUS
370
-3
390
F
  0
LAYER
  5
20A
100
AcDbSymbolTableRecord
100
AcDbLayerTableRecord
  2
17_NO_PRINT
 70
0
 62
7
  6
CONTINUOUS
370
-3
390
F
  0
LAYER
  5
20B
100
AcDbSymbolTableRecord
100
AcDbLayerTableRecord
  2
18_DATUM_CAMS_JOINTS
 70
0
 62
7
  6
CONTINUOUS
370
-3
390
F
  0
LAYER
  5
20C
100
AcDbSymbolTableRecord
100
AcDbLayerTableRecord
  2
19_DATUM_FUNCTIONAL
 70
0
 62
7
  6
CONTINUOUS
370
-3
390
F
  0
LAYER
  5
20D
100
AcDbSymbolTableRecord
100
AcDbLayerTableRecord
  2
20_DATUM_KINEMATIC_SCHEME
 70
0
 62
7
  6
CONTINUOUS
370
-3
390
F
  0
ENDTAB
  0
TABLE
  2
STYLE
  5
3
100
AcDbSymbolTable
 70
1
  0
STYLE
  5
11
100
AcDbSymbolTableRecord
100
AcDbTextStyleTableRecord
  2
STANDARD
 70
0
 40
0.0
 41
1.0
 50
0.0
 71
0
 42
0.2
  3
ARIAL.TTF
  4

  0
STYLE
  5
20E
100
AcDbSymbolTableRecord
100
AcDbTextStyleTableRecord
  2
TEXTSTYLE_1
 70
0
 40
0.0
 41
0.8
 50
0.0
 71
0
 42
0.2
  3
gdt
  4

  0
ENDTAB
  0
TABLE
  2
VIEW
  5
6
100
AcDbSymbolTable
 70
0
  0
ENDTAB
  0
TABLE
  2
UCS
  5
7
100
AcDbSymbolTable
 70
0
  0
ENDTAB
  0
TABLE
  2
APPID
  5
9
100
AcDbSymbolTable
 70
1
  0
APPID
  5
20F
100
AcDbSymbolTableRecord
100
AcDbRegAppTableRecord
  2
ACAD
 70
0
  0
ENDTAB
  0
TABLE
  2
BLOCK_RECORD
  5
1
100
AcDbSymbolTable
 70
0
  0
BLOCK_RECORD
  5
210
100
AcDbSymbolTableRecord
100
AcDbBlockTableRecord
  2
*Model_Space
  0
BLOCK_RECORD
  5
211
100
AcDbSymbolTableRecord
100
AcDbBlockTableRecord
  2
*Paper_Space
  0
BLOCK_RECORD
  5
212
100
AcDbSymbolTableRecord
100
AcDbBlockTableRecord
  2
_FILLED
  0
ENDTAB
  0
TABLE
  2
DIMSTYLE
  5
A
100
AcDbSymbolTable
 70
1
100
AcDbDimStyleTable
 71
0
  0
DIMSTYLE
105
213
100
AcDbSymbolTableRecord
100
AcDbDimStyleTableRecord
  2
STANDARD
 70
0
  3

  4

 40
1.0
 41
0.8648854955
 42
1.0
 43
0.38
 44
1.0
 45
0.0
 46
0.0
 47
0.01
 48
0.01
140
1.2108396937
141
0.09
142
0.0
143
25.4
144
1.0
145
0.0
146
1.0
147
0.625
 71
1
 72
0
 73
0
 74
0
 75
0
 76
0
 77
1
 78
8
 79
2
170
0
171
1
172
0
173
0
174
0
175
0
176
0
177
0
178
0
270
2
179
2
271
2
272
2
273
2
274
2
275
0
280
0
281
0
282
0
283
1
284
8
285
0
286
0
287
3
288
0
340
11
278
46
341
212
342
212
343
212
344
212
  0
ENDTAB
  0
ENDSEC
  0
SECTION
  2
BLOCKS
  0
BLOCK
  5
20
100
AcDbEntity
  8
0
100
AcDbBlockBegin
  2
*Model_Space
 70
0
 10
0.0
 20
0.0
 30
0.0
  3
*Model_Space
  1

  0
ENDBLK
  5
21
100
AcDbEntity
  8
0
100
AcDbBlockEnd
  0
BLOCK
  5
1C
100
AcDbEntity
  8
0
100
AcDbBlockBegin
  2
*Paper_Space
 70
0
 10
0.0
 20
0.0
 30
0.0
  3
*Paper_Space
  1

  0
ENDBLK
  5
1D
100
AcDbEntity
  8
0
100
AcDbBlockEnd
  0
BLOCK
  5
214
100
AcDbEntity
  8
0
100
AcDbBlockBegin
  2
_FILLED
 70
64
 10
0.0
 20
0.0
  3
_FILLED
  1

  0
SOLID
  5
215
100
AcDbEntity
  8
0
  6
BYBLOCK
 62
0
100
AcDbTrace
 10
0.0
 20
0.0
 11
-1.0
 21
0.25
 12
-1.0
 22
-0.25
 13
-1.0
 23
-0.25
  0
ENDBLK
  5
216
100
AcDbEntity
  8
0
  6
BYBLOCK
 62
0
100
AcDbBlockEnd
  0
ENDSEC
  0
SECTION
  2
ENTITIES
  0
LINE
  5
217
100
AcDbEntity
  8
0
100
AcDbLine
 62
7
  6
BYLAYER
 10
21.1561492002
 20
91.9160703392
 11
8.4282801304
 21
84.5676755695
  0
LINE
  5
218
100
AcDbEntity
  8
0
100
AcDbLine
 62
7
  6
BYLAYER
 10
8.4282801304
 20
35.5775305417
 11
8.4282801304
 21
84.5676755695
  0
LINE
  5
219
100
AcDbEntity
  8
0
100
AcDbLine
 62
7
  6
BYLAYER
 10
50.8548636392
 20
11.0830852705
 11
8.4282801304
 21
35.5775305417
  0
LINE
  5
21A
100
AcDbEntity
  8
0
100
AcDbLine
 62
7
  6
BYLAYER
 10
54.924663138
 20
33.0769425443
 11
55.3265986663
 21
33.175257479
  0
LINE
  5
21B
100
AcDbEntity
  8
0
100
AcDbLine
 62
7
  6
BYLAYER
 10
63.0604398715
 20
34.8246307727
 11
63.4561189646
 21
34.8964207342
  0
LINE
  5
21C
100
AcDbEntity
  8
0
100
AcDbLine
 62
7
  6
BYLAYER
 10
54.8245270167
 20
33.5406959163
 11
55.2148385045
 21
33.5923579141
  0
LINE
  5
21D
100
AcDbEntity
  8
0
100
AcDbLine
 62
7
  6
BYLAYER
 10
62.7067233783
 20
34.3344200404
 11
63.0890728178
 21
34.359289172
  0
LINE
  5
21E
100
AcDbEntity
  8
0
100
AcDbLine
 62
7
  6
BYLAYER
 10
54.7641388725
 20
34.0354906294
 11
55.1398558137
 21
34.0401065112
  0
LINE
  5
21F
100
AcDbEntity
  8
0
100
AcDbLine
 62
7
  6
BYLAYER
 10
62.3327665884
 20
33.8692099294
 11
62.6988764643
 21
33.846968962
  0
LINE
  5
220
100
AcDbEntity
  8
0
100
AcDbLine
 62
7
  6
BYLAYER
 10
65.1698110114
 20
42.161841758
 11
64.7678754831
 21
42.0635268233
  0
LINE
  5
221
100
AcDbEntity
  8
0
100
AcDbLine
 62
7
  6
BYLAYER
 10
57.0340342779
 20
40.4141535296
 11
56.6383551848
 21
40.3423635682
  0
LINE
  5
222
100
AcDbEntity
  8
0
100
AcDbLine
 62
7
  6
BYLAYER
 10
65.2699471327
 20
41.698088386
 11
64.8796356449
 21
41.6464263882
  0
LINE
  5
223
100
AcDbEntity
  8
0
100
AcDbLine
 62
7
  6
BYLAYER
 10
54.7439582956
 20
34.5575609971
 11
55.1022212574
 21
34.5150956334
  0
LINE
  5
224
100
AcDbEntity
  8
0
100
AcDbLine
 62
7
  6
BYLAYER
 10
61.9414155389
 20
33.4325409695
 11
62.2884995338
 21
33.3633591704
  0
LINE
  5
225
100
AcDbEntity
  8
0
100
AcDbLine
 62
7
  6
BYLAYER
 10
53.8099162842
 20
41.9753265862
 11
54.2055953773
 21
42.0471165477
  0
LINE
  5
226
100
AcDbEntity
  8
0
100
AcDbLine
 62
7
  6
BYLAYER
 10
57.3877507711
 20
40.9043642619
 11
57.0054013316
 21
40.8794951303
  0
LINE
  5
227
100
AcDbEntity
  8
0
100
AcDbLine
 62
7
  6
BYLAYER
 10
54.176962431
 20
42.5124581484
 11
54.5593118705
 21
42.53732728
  0
LINE
  5
228
100
AcDbEntity
  8
0
100
AcDbLine
 62
7
  6
BYLAYER
 10
65.3303352769
 20
41.2032936729
 11
64.9546183357
 21
41.1986777911
  0
LINE
  5
229
100
AcDbEntity
  8
0
100
AcDbLine
 62
7
  6
BYLAYER
 10
54.7641388725
 20
35.1029337487
 11
55.1022212574
 21
35.0137103264
  0
LINE
  5
22A
100
AcDbEntity
  8
0
100
AcDbLine
 62
7
  6
BYLAYER
 10
57.761707561
 20
41.3695743729
 11
57.3955976851
 21
41.3918153403
  0
LINE
  5
22B
100
AcDbEntity
  8
0
100
AcDbLine
 62
7
  6
BYLAYER
 10
54.5671587846
 20
43.0247783584
 11
54.9332686604
 21
43.002537391
  0
LINE
  5
22C
100
AcDbEntity
  8
0
100
AcDbLine
 62
7
  6
BYLAYER
 10
65.3505158538
 20
40.6812233052
 11
64.992252892
 21
40.723688669
  0
LINE
  5
22D
100
AcDbEntity
  8
0
100
AcDbLine
 62
7
  6
BYLAYER
 10
61.5356486476
 20
33.0277364751
 11
61.8610652428
 21
32.9121403596
  0
LINE
  5
22E
100
AcDbEntity
  8
0
100
AcDbLine
 62
7
  6
BYLAYER
 10
54.8245270167
 20
35.6674582682
 11
55.1398558137
 21
35.5321558315
  0
LINE
  5
22F
100
AcDbEntity
  8
0
100
AcDbLine
 62
7
  6
BYLAYER
 10
56.2972526875
 20
31.1241926092
 11
53.4688137869
 21
32.7571556273
  0
LINE
  5
230
100
AcDbEntity
  8
0
100
AcDbLine
 62
7
  6
BYLAYER
 10
56.6383551848
 20
30.9602064766
 11
56.3201155645
 21
31.1439380505
  0
LINE
  5
231
100
AcDbEntity
  8
0
100
AcDbLine
 62
7
  6
BYLAYER
 10
55.9846898357
 20
31.3376111323
 11
53.1562509351
 21
32.9705741503
  0
LINE
  5
232
100
AcDbEntity
  8
0
100
AcDbLine
 62
7
  6
BYLAYER
 10
57.0054013316
 20
30.8469007679
 11
56.7019460145
 21
31.0220968135
  0
LINE
  5
233
100
AcDbEntity
  8
0
100
AcDbLine
 62
7
  6
BYLAYER
 10
55.7030454214
 20
31.5988378019
 11
52.8746065208
 21
33.23180082
  0
LINE
  5
234
100
AcDbEntity
  8
0
100
AcDbLine
 62
7
  6
BYLAYER
 10
57.3955976851
 20
30.785137808
 11
57.1034895733
 21
30.9537826897
  0
LINE
  5
235
100
AcDbEntity
  8
0
100
AcDbLine
 62
7
  6
BYLAYER
 10
55.4544629286
 20
31.9058845254
 11
52.6260240281
 21
33.5388475435
  0
LINE
  5
236
100
AcDbEntity
  8
0
100
AcDbLine
 62
7
  6
BYLAYER
 10
57.8059746155
 20
30.7753876503
 11
57.5223146706
 21
30.9391550909
  0
LINE
  5
237
100
AcDbEntity
  8
0
100
AcDbLine
 62
7
  6
BYLAYER
 10
55.2408342204
 20
32.2564144919
 11
52.4123953198
 21
33.88937751
  0
LINE
  5
238
100
AcDbEntity
  8
0
100
AcDbLine
 62
7
  6
BYLAYER
 10
58.2334089066
 20
30.8177244993
 11
57.9556678367
 21
30.9780747531
  0
LINE
  5
239
100
AcDbEntity
  8
0
100
AcDbLine
 62
7
  6
BYLAYER
 10
55.06378514
 20
32.6477599566
 11
52.2353462394
 21
34.2807229747
  0
LINE
  5
23A
100
AcDbEntity
  8
0
100
AcDbLine
 62
7
  6
BYLAYER
 10
58.6746475252
 20
30.9118261461
 11
58.4005398865
 21
31.070078685
  0
LINE
  5
23B
100
AcDbEntity
  8
0
100
AcDbLine
 62
7
  6
BYLAYER
 10
54.924663138
 20
33.0769425443
 11
52.0962242374
 21
34.7099055624
  0
LINE
  5
23C
100
AcDbEntity
  8
0
100
AcDbLine
 62
7
  6
BYLAYER
 10
59.126332379
 20
31.0569764204
 11
58.8559685718
 21
31.213067506
  0
LINE
  5
23D
100
AcDbEntity
  8
0
100
AcDbLine
 62
7
  6
BYLAYER
 10
54.8245270167
 20
33.5406959163
 11
51.9960881161
 21
35.1736589344
  0
LINE
  5
23E
100
AcDbEntity
  8
0
100
AcDbLine
 62
7
  6
BYLAYER
 10
59.5850258737
 20
31.2520706408
 11
59.3052361498
 21
31.4136036589
  0
LINE
  5
23F
100
AcDbEntity
  8
0
100
AcDbLine
 62
7
  6
BYLAYER
 10
54.7641388725
 20
34.0354906294
 11
51.9356999719
 21
35.6684536475
  0
LINE
  5
240
100
AcDbEntity
  8
0
100
AcDbLine
 62
7
  6
BYLAYER
 10
58.1530586105
 20
41.8062433329
 11
57.8059746155
 21
41.8754251319
  0
LINE
  5
241
100
AcDbEntity
  8
0
100
AcDbLine
 62
7
  6
BYLAYER
 10
54.977535715
 20
43.50838815
 11
55.3246197099
 21
43.4392063509
  0
LINE
  5
242
100
AcDbEntity
  8
0
100
AcDbLine
 62
7
  6
BYLAYER
 10
65.3303352769
 20
40.1358505536
 11
64.992252892
 21
40.2250739759
  0
LINE
  5
243
100
AcDbEntity
  8
0
100
AcDbLine
 62
7
  6
BYLAYER
 10
61.1185540455
 20
32.657877253
 11
61.4198266242
 21
32.4967465772
  0
LINE
  5
244
100
AcDbEntity
  8
0
100
AcDbLine
 62
7
  6
BYLAYER
 10
60.0472370747
 20
31.4956240227
 11
59.7713289403
 21
31.6549160547
  0
LINE
  5
245
100
AcDbEntity
  8
0
100
AcDbLine
 62
7
  6
BYLAYER
 10
54.7439582956
 20
34.5575609971
 11
51.915519395
 21
36.1905240152
  0
LINE
  5
246
100
AcDbEntity
  8
0
100
AcDbLine
 62
7
  6
BYLAYER
 10
60.5094482757
 20
31.7857829776
 11
60.2286281766
 21
31.9479108696
  0
LINE
  5
247
100
AcDbEntity
  8
0
100
AcDbLine
 62
7
  6
BYLAYER
 10
54.7641388725
 20
35.1029337487
 11
51.9356999719
 21
36.7358967668
  0
LINE
  5
248
100
AcDbEntity
  8
0
100
AcDbLine
 62
7
  6
BYLAYER
 10
60.9681417703
 20
32.1203392208
 11
60.673056005
 21
32.2907032127
  0
LINE
  5
249
100
AcDbEntity
  8
0
100
AcDbLine
 62
7
  6
BYLAYER
 10
54.8245270167
 20
35.6674582682
 11
51.9960881161
 21
37.3004212863
  0
LINE
  5
24A
100
AcDbEntity
  8
0
100
AcDbLine
 62
7
  6
BYLAYER
 10
55.2148385045
 20
36.0664864653
 11
52.3863996039
 21
37.6994494834
  0
LINE
  5
24B
100
AcDbEntity
  8
0
100
AcDbLine
 62
7
  6
BYLAYER
 10
54.924663138
 20
36.2468381832
 11
52.0962242374
 21
37.8798012013
  0
LINE
  5
24C
100
AcDbEntity
  8
0
100
AcDbLine
 62
7
  6
BYLAYER
 10
55.3265986663
 20
36.612635649
 11
52.4981597657
 21
38.2455986671
  0
LINE
  5
24D
100
AcDbEntity
  8
0
100
AcDbLine
 62
7
  6
BYLAYER
 10
55.06378514
 20
36.8366640626
 11
52.2353462394
 21
38.4696270807
  0
LINE
  5
24E
100
AcDbEntity
  8
0
100
AcDbLine
 62
7
  6
BYLAYER
 10
55.4742857368
 20
37.1664468576
 11
52.6458468362
 21
38.7994098757
  0
LINE
  5
24F
100
AcDbEntity
  8
0
100
AcDbLine
 62
7
  6
BYLAYER
 10
55.2408342204
 20
37.4324469754
 11
52.4123953198
 21
39.0654099935
  0
LINE
  5
250
100
AcDbEntity
  8
0
100
AcDbLine
 62
7
  6
BYLAYER
 10
52.3863996039
 20
37.6994494834
 11
52.0962242374
 21
37.8798012013
  0
LINE
  5
251
100
AcDbEntity
  8
0
100
AcDbLine
 62
7
  6
BYLAYER
 10
54.924663138
 20
36.2468381832
 11
55.2148385045
 21
36.0664864653
  0
LINE
  5
252
100
AcDbEntity
  8
0
100
AcDbLine
 62
7
  6
BYLAYER
 10
63.582732709
 20
67.421625068
 11
50.8548636392
 21
60.0732302983
  0
LINE
  5
253
100
AcDbEntity
  8
0
100
AcDbLine
 62
7
  6
BYLAYER
 10
58.5588255018
 20
42.2110478272
 11
58.2334089066
 21
42.3266439427
  0
LINE
  5
254
100
AcDbEntity
  8
0
100
AcDbLine
 62
7
  6
BYLAYER
 10
55.404970006
 20
43.9596069608
 11
55.7303866012
 21
43.8440108453
  0
LINE
  5
255
100
AcDbEntity
  8
0
100
AcDbLine
 62
7
  6
BYLAYER
 10
65.2699471327
 20
39.5713260341
 11
64.9546183357
 21
39.7066284708
  0
LINE
  5
256
100
AcDbEntity
  8
0
100
AcDbLine
 62
7
  6
BYLAYER
 10
55.6567757282
 20
37.7237052534
 11
52.8283368276
 21
39.3566682715
  0
LINE
  5
257
100
AcDbEntity
  8
0
100
AcDbLine
 62
7
  6
BYLAYER
 10
55.4544629286
 20
38.0296526539
 11
52.6260240281
 21
39.662615672
  0
LINE
  5
258
100
AcDbEntity
  8
0
100
AcDbLine
 62
7
  6
BYLAYER
 10
55.8726797814
 20
38.2801697635
 11
53.0442408809
 21
39.9131327816
  0
LINE
  5
259
100
AcDbEntity
  8
0
100
AcDbLine
 62
7
  6
BYLAYER
 10
55.7030454214
 20
38.6237360022
 11
52.8746065208
 21
40.2566990203
  0
LINE
  5
25A
100
AcDbEntity
  8
0
100
AcDbLine
 62
7
  6
BYLAYER
 10
56.1203547364
 20
38.8316053569
 11
53.2919158358
 21
40.464568375
  0
LINE
  5
25B
100
AcDbEntity
  8
0
100
AcDbLine
 62
7
  6
BYLAYER
 10
55.9846898357
 20
39.2101756874
 11
53.1562509351
 21
40.8431387055
  0
LINE
  5
25C
100
AcDbEntity
  8
0
100
AcDbLine
 62
7
  6
BYLAYER
 10
56.3979156371
 20
39.373815276
 11
53.5694767365
 21
41.006778294
  0
LINE
  5
25D
100
AcDbEntity
  8
0
100
AcDbLine
 62
7
  6
BYLAYER
 10
56.2972526875
 20
39.7845085493
 11
53.4688137869
 21
41.4174715674
  0
LINE
  5
25E
100
AcDbEntity
  8
0
100
AcDbLine
 62
7
  6
BYLAYER
 10
56.7032500774
 20
39.9026729757
 11
53.8748111768
 21
41.5356359937
  0
LINE
  5
25F
100
AcDbEntity
  8
0
100
AcDbLine
 62
7
  6
BYLAYER
 10
56.6383551848
 20
40.3423635682
 11
53.8099162842
 21
41.9753265862
  0
LINE
  5
260
100
AcDbEntity
  8
0
100
AcDbLine
 62
7
  6
BYLAYER
 10
60.6933060743
 20
32.3257781551
 11
60.9681417703
 21
32.1203392208
  0
LINE
  5
261
100
AcDbEntity
  8
0
100
AcDbLine
 62
7
  6
BYLAYER
 10
52.4981597657
 20
38.2455986671
 11
52.2353462394
 21
38.4696270807
  0
LINE
  5
262
100
AcDbEntity
  8
0
100
AcDbLine
 62
7
  6
BYLAYER
 10
58.8109683449
 20
63.054152329
 11
55.6266280034
 21
61.2156835498
  0
LINE
  5
263
100
AcDbEntity
  8
0
100
AcDbLine
 62
7
  6
BYLAYER
 10
58.9759201039
 20
42.5809070493
 11
58.6746475252
 21
42.7420377251
  0
LINE
  5
264
100
AcDbEntity
  8
0
100
AcDbLine
 62
7
  6
BYLAYER
 10
55.8462086246
 20
44.3750007432
 11
56.1474812033
 21
44.2138700674
  0
LINE
  5
265
100
AcDbEntity
  8
0
100
AcDbLine
 62
7
  6
BYLAYER
 10
57.0340342779
 20
40.4141535296
 11
54.2055953773
 21
42.0471165477
  0
LINE
  5
266
100
AcDbEntity
  8
0
100
AcDbLine
 62
7
  6
BYLAYER
 10
57.0054013316
 20
40.8794951303
 11
54.176962431
 21
42.5124581484
  0
LINE
  5
267
100
AcDbEntity
  8
0
100
AcDbLine
 62
7
  6
BYLAYER
 10
57.3877507711
 20
40.9043642619
 11
54.5593118705
 21
42.53732728
  0
LINE
  5
268
100
AcDbEntity
  8
0
100
AcDbLine
 62
7
  6
BYLAYER
 10
57.3955976851
 20
41.3918153403
 11
54.5671587846
 21
43.0247783584
  0
LINE
  5
269
100
AcDbEntity
  8
0
100
AcDbLine
 62
7
  6
BYLAYER
 10
57.761707561
 20
41.3695743729
 11
54.9332686604
 21
43.002537391
  0
LINE
  5
26A
100
AcDbEntity
  8
0
100
AcDbLine
 62
7
  6
BYLAYER
 10
57.8059746155
 20
41.8754251319
 11
54.977535715
 21
43.50838815
  0
LINE
  5
26B
100
AcDbEntity
  8
0
100
AcDbLine
 62
7
  6
BYLAYER
 10
58.1530586105
 20
41.8062433329
 11
55.3246197099
 21
43.4392063509
  0
LINE
  5
26C
100
AcDbEntity
  8
0
100
AcDbLine
 62
7
  6
BYLAYER
 10
58.2334089066
 20
42.3266439427
 11
55.404970006
 21
43.9596069608
  0
LINE
  5
26D
100
AcDbEntity
  8
0
100
AcDbLine
 62
7
  6
BYLAYER
 10
58.5588255018
 20
42.2110478272
 11
55.7303866012
 21
43.8440108453
  0
LINE
  5
26E
100
AcDbEntity
  8
0
100
AcDbLine
 62
7
  6
BYLAYER
 10
58.6746475252
 20
42.7420377251
 11
55.8462086246
 21
44.3750007432
  0
LINE
  5
26F
100
AcDbEntity
  8
0
100
AcDbLine
 62
7
  6
BYLAYER
 10
58.9759201039
 20
42.5809070493
 11
56.1474812033
 21
44.2138700674
  0
LINE
  5
270
100
AcDbEntity
  8
0
100
AcDbLine
 62
7
  6
BYLAYER
 10
55.06378514
 20
36.8366640626
 11
55.3265986663
 21
36.612635649
  0
LINE
  5
271
100
AcDbEntity
  8
0
100
AcDbLine
 62
7
  6
BYLAYER
 10
60.263141128
 20
32.0339666561
 11
60.5094482757
 21
31.7857829776
  0
LINE
  5
272
100
AcDbEntity
  8
0
100
AcDbLine
 62
7
  6
BYLAYER
 10
52.6458468362
 20
38.7994098757
 11
52.4123953198
 21
39.0654099935
  0
LINE
  5
273
100
AcDbEntity
  8
0
100
AcDbLine
 62
7
  6
BYLAYER
 10
52.6169434847
 20
52.7643417637
 11
63.0934503688
 21
58.8129197283
  0
LINE
  5
274
100
AcDbEntity
  8
0
100
AcDbLine
 62
7
  6
BYLAYER
 10
65.2699471327
 20
39.5713260341
 11
64.9748608489
 21
39.7416903253
  0
LINE
  5
275
100
AcDbEntity
  8
0
100
AcDbLine
 62
7
  6
BYLAYER
 10
59.126332379
 20
43.1184450815
 11
56.2978934785
 21
44.7514080996
  0
LINE
  5
276
100
AcDbEntity
  8
0
100
AcDbLine
 62
7
  6
BYLAYER
 10
65.3303352769
 20
40.1358505536
 11
65.0495133949
 21
40.2979794749
  0
LINE
  5
277
100
AcDbEntity
  8
0
100
AcDbLine
 62
7
  6
BYLAYER
 10
59.5850258737
 20
43.4530013247
 11
56.7565869731
 21
45.0859643428
  0
LINE
  5
278
100
AcDbEntity
  8
0
100
AcDbLine
 62
7
  6
BYLAYER
 10
65.3505158538
 20
40.6812233052
 11
65.0746066099
 21
40.8405159778
  0
LINE
  5
279
100
AcDbEntity
  8
0
100
AcDbLine
 62
7
  6
BYLAYER
 10
60.0472370747
 20
43.7431602796
 11
57.2187981741
 21
45.3761232977
  0
LINE
  5
27A
100
AcDbEntity
  8
0
100
AcDbLine
 62
7
  6
BYLAYER
 10
65.3303352769
 20
41.2032936729
 11
65.0505430965
 21
41.3648281092
  0
LINE
  5
27B
100
AcDbEntity
  8
0
100
AcDbLine
 62
7
  6
BYLAYER
 10
60.5094482757
 20
43.9867136615
 11
57.6810093751
 21
45.6196766796
  0
LINE
  5
27C
100
AcDbEntity
  8
0
100
AcDbLine
 62
7
  6
BYLAYER
 10
52.7159823089
 20
48.514757396
 11
52.1393705968
 21
48.847656792
  0
LINE
  5
27D
100
AcDbEntity
  8
0
100
AcDbLine
 62
7
  6
BYLAYER
 10
65.2699471327
 20
41.698088386
 11
64.9995802539
 21
41.854181245
  0
LINE
  5
27E
100
AcDbEntity
  8
0
100
AcDbLine
 62
7
  6
BYLAYER
 10
60.9681417703
 20
44.1818078819
 11
58.1397028698
 21
45.8147709
  0
LINE
  5
27F
100
AcDbEntity
  8
0
100
AcDbLine
 62
7
  6
BYLAYER
 10
65.1698110114
 20
42.161841758
 11
64.8957041198
 21
42.3200938656
  0
LINE
  5
280
100
AcDbEntity
  8
0
100
AcDbLine
 62
7
  6
BYLAYER
 10
61.4198266242
 20
44.3269581562
 11
58.5913877236
 21
45.9599211743
  0
LINE
  5
281
100
AcDbEntity
  8
0
100
AcDbLine
 62
7
  6
BYLAYER
 10
65.0306890094
 20
42.5910243457
 11
64.7529493317
 21
42.7513737958
  0
LINE
  5
282
100
AcDbEntity
  8
0
100
AcDbLine
 62
7
  6
BYLAYER
 10
61.8610652428
 20
44.421059803
 11
59.0326263422
 21
46.0540228211
  0
LINE
  5
283
100
AcDbEntity
  8
0
100
AcDbLine
 62
7
  6
BYLAYER
 10
64.853639929
 20
42.9823698104
 11
64.5699820772
 21
43.1461360426
  0
LINE
  5
284
100
AcDbEntity
  8
0
100
AcDbLine
 62
7
  6
BYLAYER
 10
62.2884995338
 20
44.4633966521
 11
59.4600606333
 21
46.0963596701
  0
LINE
  5
285
100
AcDbEntity
  8
0
100
AcDbLine
 62
7
  6
BYLAYER
 10
64.6400112208
 20
43.3328997769
 11
64.3479059915
 21
43.5015429944
  0
LINE
  5
286
100
AcDbEntity
  8
0
100
AcDbLine
 62
7
  6
BYLAYER
 10
62.6988764643
 20
44.4536464943
 11
59.8704375637
 21
46.0866095124
  0
LINE
  5
287
100
AcDbEntity
  8
0
100
AcDbLine
 62
7
  6
BYLAYER
 10
64.391428728
 20
43.6399465004
 11
64.0879772135
 21
43.8151403506
  0
LINE
  5
288
100
AcDbEntity
  8
0
100
AcDbLine
 62
7
  6
BYLAYER
 10
63.0890728178
 20
44.3918835344
 11
60.2606339172
 21
46.0248465525
  0
LINE
  5
289
100
AcDbEntity
  8
0
100
AcDbLine
 62
7
  6
BYLAYER
 10
64.1097843137
 20
43.9011731701
 11
63.7915496045
 21
44.0849019086
  0
LINE
  5
28A
100
AcDbEntity
  8
0
100
AcDbLine
 62
7
  6
BYLAYER
 10
63.4561189646
 20
44.2785778257
 11
60.627680064
 21
45.9115408438
  0
LINE
  5
28B
100
AcDbEntity
  8
0
100
AcDbLine
 62
7
  6
BYLAYER
 10
65.1698110114
 20
38.9919461191
 11
64.8796356449
 21
39.172297837
  0
LINE
  5
28C
100
AcDbEntity
  8
0
100
AcDbLine
 62
7
  6
BYLAYER
 10
59.4011680751
 20
42.9130061472
 11
59.126332379
 21
43.1184450815
  0
LINE
  5
28D
100
AcDbEntity
  8
0
100
AcDbLine
 62
7
  6
BYLAYER
 10
55.2408342204
 20
37.4324469754
 11
55.4742857368
 21
37.1664468576
  0
LINE
  5
28E
100
AcDbEntity
  8
0
100
AcDbLine
 62
7
  6
BYLAYER
 10
59.8313330214
 20
31.7846636177
 11
60.0472370747
 21
31.4956240227
  0
LINE
  5
28F
100
AcDbEntity
  8
0
100
AcDbLine
 62
7
  6
BYLAYER
 10
52.8283368276
 20
39.3566682715
 11
52.6260240281
 21
39.662615672
  0
LINE
  5
290
100
AcDbEntity
  8
0
100
AcDbLine
 62
7
  6
BYLAYER
 10
63.0934503688
 20
55.624375859
 11
52.6169434847
 21
49.5757978944
  0
LINE
  5
291
100
AcDbEntity
  8
0
100
AcDbLine
 62
7
  6
BYLAYER
 10
63.7972214619
 20
44.1145916931
 11
60.9687825613
 21
45.7475547112
  0
LINE
  5
292
100
AcDbEntity
  8
0
100
AcDbLine
 62
7
  6
BYLAYER
 10
52.5519181477
 20
50.9368999163
 11
51.915519395
 21
51.3043165954
  0
LINE
  5
293
100
AcDbEntity
  8
0
100
AcDbLine
 62
7
  6
BYLAYER
 10
51.915519395
 20
51.6955720774
 11
52.5519181477
 21
51.3281553983
  0
LINE
  5
294
100
AcDbEntity
  8
0
100
AcDbLine
 62
7
  6
BYLAYER
 10
52.7159771872
 20
54.077815002
 11
52.1393705968
 21
54.410711441
  0
LINE
  5
295
100
AcDbEntity
  8
0
100
AcDbLine
 62
7
  6
BYLAYER
 10
65.0306890094
 20
38.4021202397
 11
64.7678754831
 21
38.6261486533
  0
LINE
  5
296
100
AcDbEntity
  8
0
100
AcDbLine
 62
7
  6
BYLAYER
 10
55.4544629286
 20
38.0296526539
 11
55.6567757282
 21
37.7237052534
  0
LINE
  5
297
100
AcDbEntity
  8
0
100
AcDbLine
 62
7
  6
BYLAYER
 10
59.4011680751
 20
31.5797663865
 11
59.5850258737
 21
31.2520706408
  0
LINE
  5
298
100
AcDbEntity
  8
0
100
AcDbLine
 62
7
  6
BYLAYER
 10
53.0442408809
 20
39.9131327816
 11
52.8746065208
 21
40.2566990203
  0
LINE
  5
299
100
AcDbEntity
  8
0
100
AcDbLine
 62
7
  6
BYLAYER
 10
59.8313330214
 20
43.2048176462
 11
59.5850258737
 21
43.4530013247
  0
LINE
  5
29A
100
AcDbEntity
  8
0
100
AcDbLine
 62
7
  6
BYLAYER
 10
64.853639929
 20
37.8063373269
 11
64.6201884126
 21
38.0723374447
  0
LINE
  5
29B
100
AcDbEntity
  8
0
100
AcDbLine
 62
7
  6
BYLAYER
 10
55.7030454214
 20
38.6237360022
 11
55.8726797814
 21
38.2801697635
  0
LINE
  5
29C
100
AcDbEntity
  8
0
100
AcDbLine
 62
7
  6
BYLAYER
 10
58.9759201039
 20
31.4208343542
 11
59.126332379
 21
31.0569764204
  0
LINE
  5
29D
100
AcDbEntity
  8
0
100
AcDbLine
 62
7
  6
BYLAYER
 10
53.2919158358
 20
40.464568375
 11
53.1562509351
 21
40.8431387055
  0
LINE
  5
29E
100
AcDbEntity
  8
0
100
AcDbLine
 62
7
  6
BYLAYER
 10
54.2055953773
 20
42.0471165477
 11
54.176962431
 21
42.5124581484
  0
LINE
  5
29F
100
AcDbEntity
  8
0
100
AcDbLine
 62
7
  6
BYLAYER
 10
50.8548636392
 20
60.0732302983
 11
50.8548636392
 21
11.0830852705
  0
LINE
  5
2A0
100
AcDbEntity
  8
0
100
AcDbLine
 62
7
  6
BYLAYER
 10
51.915519395
 20
51.6955720774
 11
51.915519395
 21
51.3043165954
  0
LINE
  5
2A1
100
AcDbEntity
  8
0
100
AcDbLine
 62
7
  6
BYLAYER
 10
52.5519181477
 20
51.3281553983
 11
52.5519181477
 21
50.9368999163
  0
LINE
  5
2A2
100
AcDbEntity
  8
0
100
AcDbLine
 62
7
  6
BYLAYER
 10
55.6266280034
 20
46.0693986518
 11
58.8109683449
 21
47.907867431
  0
LINE
  5
2A3
100
AcDbEntity
  8
0
100
AcDbLine
 62
7
  6
BYLAYER
 10
53.1562509351
 20
40.8431387055
 11
53.5694767365
 21
41.006778294
  0
LINE
  5
2A4
100
AcDbEntity
  8
0
100
AcDbLine
 62
7
  6
BYLAYER
 10
53.4688137869
 20
41.4174715674
 11
53.8748111768
 21
41.5356359937
  0
LINE
  5
2A5
100
AcDbEntity
  8
0
100
AcDbLine
 62
7
  6
BYLAYER
 10
56.7032500774
 20
39.9026729757
 11
56.2972526875
 21
39.7845085493
  0
LINE
  5
2A6
100
AcDbEntity
  8
0
100
AcDbLine
 62
7
  6
BYLAYER
 10
8.4282801304
 20
84.5676755695
 11
50.8548636392
 21
60.0732302983
  0
LINE
  5
2A7
100
AcDbEntity
  8
0
100
AcDbLine
 62
7
  6
BYLAYER
 10
60.263141128
 20
43.4541206846
 11
60.0472370747
 21
43.7431602796
  0
LINE
  5
2A8
100
AcDbEntity
  8
0
100
AcDbLine
 62
7
  6
BYLAYER
 10
64.6400112208
 20
37.2091316484
 11
64.4376984212
 21
37.5150790489
  0
LINE
  5
2A9
100
AcDbEntity
  8
0
100
AcDbLine
 62
7
  6
BYLAYER
 10
55.9846898357
 20
39.2101756874
 11
56.1203547364
 21
38.8316053569
  0
LINE
  5
2AA
100
AcDbEntity
  8
0
100
AcDbLine
 62
7
  6
BYLAYER
 10
58.5588255018
 20
31.3090770896
 11
58.6746475252
 21
30.9118261461
  0
LINE
  5
2AB
100
AcDbEntity
  8
0
100
AcDbLine
 62
7
  6
BYLAYER
 10
53.5694767365
 20
41.006778294
 11
53.4688137869
 21
41.4174715674
  0
LINE
  5
2AC
100
AcDbEntity
  8
0
100
AcDbLine
 62
7
  6
BYLAYER
 10
56.2972526875
 20
39.7845085493
 11
56.3979156371
 21
39.373815276
  0
LINE
  5
2AD
100
AcDbEntity
  8
0
100
AcDbLine
 62
7
  6
BYLAYER
 10
53.8748111768
 20
41.5356359937
 11
53.8099162842
 21
41.9753265862
  0
LINE
  5
2AE
100
AcDbEntity
  8
0
100
AcDbLine
 62
7
  6
BYLAYER
 10
57.761707561
 20
31.2301235226
 11
57.8059746155
 21
30.7753876503
  0
LINE
  5
2AF
100
AcDbEntity
  8
0
100
AcDbLine
 62
7
  6
BYLAYER
 10
57.0054013316
 20
40.8794951303
 11
57.0340342779
 21
40.4141535296
  0
LINE
  5
2B0
100
AcDbEntity
  8
0
100
AcDbLine
 62
7
  6
BYLAYER
 10
57.3877507711
 20
31.2635281046
 11
57.3955976851
 21
30.785137808
  0
LINE
  5
2B1
100
AcDbEntity
  8
0
100
AcDbLine
 62
7
  6
BYLAYER
 10
54.5671587846
 20
43.0247783584
 11
54.5593118705
 21
42.53732728
  0
LINE
  5
2B2
100
AcDbEntity
  8
0
100
AcDbLine
 62
7
  6
BYLAYER
 10
54.9332686604
 20
43.002537391
 11
54.977535715
 21
43.50838815
  0
LINE
  5
2B3
100
AcDbEntity
  8
0
100
AcDbLine
 62
7
  6
BYLAYER
 10
55.3246197099
 20
43.4392063509
 11
55.404970006
 21
43.9596069608
  0
LINE
  5
2B4
100
AcDbEntity
  8
0
100
AcDbLine
 62
7
  6
BYLAYER
 10
53.4688137869
 20
32.7571556273
 11
53.4744856443
 21
32.7868454118
  0
LINE
  5
2B5
100
AcDbEntity
  8
0
100
AcDbLine
 62
7
  6
BYLAYER
 10
55.7303866012
 20
43.8440108453
 11
55.8462086246
 21
44.3750007432
  0
LINE
  5
2B6
100
AcDbEntity
  8
0
100
AcDbLine
 62
7
  6
BYLAYER
 10
60.9459196843
 20
45.7278092699
 11
60.9687825613
 21
45.7475547112
  0
LINE
  5
2B7
100
AcDbEntity
  8
0
100
AcDbLine
 62
7
  6
BYLAYER
 10
52.2353462394
 20
38.4696270807
 11
52.6458468362
 21
38.7994098757
  0
LINE
  5
2B8
100
AcDbEntity
  8
0
100
AcDbLine
 62
7
  6
BYLAYER
 10
52.4123953198
 20
39.0654099935
 11
52.8283368276
 21
39.3566682715
  0
LINE
  5
2B9
100
AcDbEntity
  8
0
100
AcDbLine
 62
7
  6
BYLAYER
 10
53.0442408809
 20
39.9131327816
 11
52.6260240281
 21
39.662615672
  0
LINE
  5
2BA
100
AcDbEntity
  8
0
100
AcDbLine
 62
7
  6
BYLAYER
 10
52.8746065208
 20
40.2566990203
 11
53.2919158358
 21
40.464568375
  0
LINE
  5
2BB
100
AcDbEntity
  8
0
100
AcDbLine
 62
7
  6
BYLAYER
 10
56.1203547364
 20
38.8316053569
 11
55.7030454214
 21
38.6237360022
  0
LINE
  5
2BC
100
AcDbEntity
  8
0
100
AcDbLine
 62
7
  6
BYLAYER
 10
64.853639929
 20
42.9823698104
 11
64.4376984212
 21
42.7933430723
  0
LINE
  5
2BD
100
AcDbEntity
  8
0
100
AcDbLine
 62
7
  6
BYLAYER
 10
56.3979156371
 20
39.373815276
 11
55.9846898357
 21
39.2101756874
  0
LINE
  5
2BE
100
AcDbEntity
  8
0
100
AcDbLine
 62
7
  6
BYLAYER
 10
65.0306890094
 20
42.5910243457
 11
64.6201884126
 21
42.44680471
  0
LINE
  5
2BF
100
AcDbEntity
  8
0
100
AcDbLine
 62
7
  6
BYLAYER
 10
60.6933060743
 20
43.6590179158
 11
60.5094482757
 21
43.9867136615
  0
LINE
  5
2C0
100
AcDbEntity
  8
0
100
AcDbLine
 62
7
  6
BYLAYER
 10
64.391428728
 20
36.6150483001
 11
64.221794368
 21
36.9586145388
  0
LINE
  5
2C1
100
AcDbEntity
  8
0
100
AcDbLine
 62
7
  6
BYLAYER
 10
61.1185540455
 20
43.8179499481
 11
60.9681417703
 21
44.1818078819
  0
LINE
  5
2C2
100
AcDbEntity
  8
0
100
AcDbLine
 62
7
  6
BYLAYER
 10
58.1530586105
 20
31.2453451328
 11
58.2334089066
 21
30.8177244993
  0
LINE
  5
2C3
100
AcDbEntity
  8
0
100
AcDbLine
 62
7
  6
BYLAYER
 10
56.6383551848
 20
40.3423635682
 11
56.7032500774
 21
39.9026729757
  0
LINE
  5
2C4
100
AcDbEntity
  8
0
100
AcDbLine
 62
7
  6
BYLAYER
 10
57.3955976851
 20
41.3918153403
 11
57.3877507711
 21
40.9043642619
  0
LINE
  5
2C5
100
AcDbEntity
  8
0
100
AcDbLine
 62
7
  6
BYLAYER
 10
57.0340342779
 20
31.3453046498
 11
57.0054013316
 21
30.8469007679
  0
LINE
  5
2C6
100
AcDbEntity
  8
0
100
AcDbLine
 62
7
  6
BYLAYER
 10
57.8059746155
 20
41.8754251319
 11
57.761707561
 21
41.3695743729
  0
LINE
  5
2C7
100
AcDbEntity
  8
0
100
AcDbLine
 62
7
  6
BYLAYER
 10
56.7032500774
 20
31.4748307893
 11
56.6383551848
 21
30.9602064766
  0
LINE
  5
2C8
100
AcDbEntity
  8
0
100
AcDbLine
 62
7
  6
BYLAYER
 10
58.2334089066
 20
42.3266439427
 11
58.1530586105
 21
41.8062433329
  0
LINE
  5
2C9
100
AcDbEntity
  8
0
100
AcDbLine
 62
7
  6
BYLAYER
 10
56.3979156371
 20
31.6511207509
 11
56.2972526875
 21
31.1241926092
  0
LINE
  5
2CA
100
AcDbEntity
  8
0
100
AcDbLine
 62
7
  6
BYLAYER
 10
58.6746475252
 20
42.7420377251
 11
58.5588255018
 21
42.2110478272
  0
LINE
  5
2CB
100
AcDbEntity
  8
0
100
AcDbLine
 62
7
  6
BYLAYER
 10
53.1562509351
 20
32.9705741503
 11
53.1780580353
 21
33.0566069698
  0
LINE
  5
2CC
100
AcDbEntity
  8
0
100
AcDbLine
 62
7
  6
BYLAYER
 10
56.1203547364
 20
31.8728328616
 11
55.9846898357
 21
31.3376111323
  0
LINE
  5
2CD
100
AcDbEntity
  8
0
100
AcDbLine
 62
7
  6
BYLAYER
 10
56.1474812033
 20
44.2138700674
 11
56.2978934785
 21
44.7514080996
  0
LINE
  5
2CE
100
AcDbEntity
  8
0
100
AcDbLine
 62
7
  6
BYLAYER
 10
52.8746065208
 20
33.23180082
 11
52.9181292574
 21
33.370204326
  0
LINE
  5
2CF
100
AcDbEntity
  8
0
100
AcDbLine
 62
7
  6
BYLAYER
 10
56.5860362959
 20
44.5850525299
 11
56.7565869731
 21
45.0859643428
  0
LINE
  5
2D0
100
AcDbEntity
  8
0
100
AcDbLine
 62
7
  6
BYLAYER
 10
52.6260240281
 20
33.5388475435
 11
52.6960531716
 21
33.7256112778
  0
LINE
  5
2D1
100
AcDbEntity
  8
0
100
AcDbLine
 62
7
  6
BYLAYER
 10
57.0374070722
 20
44.9238364508
 11
57.2187981741
 21
45.3761232977
  0
LINE
  5
2D2
100
AcDbEntity
  8
0
100
AcDbLine
 62
7
  6
BYLAYER
 10
52.4123953198
 20
33.88937751
 11
52.5130859172
 21
34.1203735246
  0
LINE
  5
2D3
100
AcDbEntity
  8
0
100
AcDbLine
 62
7
  6
BYLAYER
 10
57.4947063085
 20
45.2168312657
 11
57.6810093751
 21
45.6196766796
  0
LINE
  5
2D4
100
AcDbEntity
  8
0
100
AcDbLine
 62
7
  6
BYLAYER
 10
52.2353462394
 20
34.2807229747
 11
52.3703311291
 21
34.5516534548
  0
LINE
  5
2D5
100
AcDbEntity
  8
0
100
AcDbLine
 62
7
  6
BYLAYER
 10
57.9542179638
 20
45.4619431957
 11
58.1397028698
 21
45.8147709
  0
LINE
  5
2D6
100
AcDbEntity
  8
0
100
AcDbLine
 62
7
  6
BYLAYER
 10
52.0962242374
 20
34.7099055624
 11
52.2687040115
 21
35.0162676344
  0
LINE
  5
2D7
100
AcDbEntity
  8
0
100
AcDbLine
 62
7
  6
BYLAYER
 10
58.4123188961
 20
45.6573795245
 11
58.5913877236
 21
45.9599211743
  0
LINE
  5
2D8
100
AcDbEntity
  8
0
100
AcDbLine
 62
7
  6
BYLAYER
 10
51.9960881161
 20
35.1736589344
 11
52.2089090406
 21
35.5107198865
  0
LINE
  5
2D9
100
AcDbEntity
  8
0
100
AcDbLine
 62
7
  6
BYLAYER
 10
58.8654953623
 20
45.8016686354
 11
59.0326263422
 21
46.0540228211
  0
LINE
  5
2DA
100
AcDbEntity
  8
0
100
AcDbLine
 62
7
  6
BYLAYER
 10
51.9356999719
 20
35.6684536475
 11
52.1914286389
 21
36.0312313426
  0
LINE
  5
2DB
100
AcDbEntity
  8
0
100
AcDbLine
 62
7
  6
BYLAYER
 10
59.3103674121
 20
45.8936725673
 11
59.4600606333
 21
46.0963596701
  0
LINE
  5
2DC
100
AcDbEntity
  8
0
100
AcDbLine
 62
7
  6
BYLAYER
 10
51.915519395
 20
36.1905240152
 11
52.2165218539
 21
36.5737678455
  0
LINE
  5
2DD
100
AcDbEntity
  8
0
100
AcDbLine
 62
7
  6
BYLAYER
 10
59.7437205782
 20
45.9325922295
 11
59.8704375637
 21
46.0866095124
  0
LINE
  5
2DE
100
AcDbEntity
  8
0
100
AcDbLine
 62
7
  6
BYLAYER
 10
51.9356999719
 20
36.7358967668
 11
52.2842334633
 21
37.134064256
  0
LINE
  5
2DF
100
AcDbEntity
  8
0
100
AcDbLine
 62
7
  6
BYLAYER
 10
60.1625456755
 20
45.9179646307
 11
60.2606339172
 21
46.0248465525
  0
LINE
  5
2E0
100
AcDbEntity
  8
0
100
AcDbLine
 62
7
  6
BYLAYER
 10
51.9960881161
 20
37.3004212863
 11
52.3863996039
 21
37.6994494834
  0
LINE
  5
2E1
100
AcDbEntity
  8
0
100
AcDbLine
 62
7
  6
BYLAYER
 10
60.5640892343
 20
45.8496505069
 11
60.627680064
 21
45.9115408438
  0
LINE
  5
2E2
100
AcDbEntity
  8
0
100
AcDbLine
 62
7
  6
BYLAYER
 10
52.0962242374
 20
37.8798012013
 11
52.4981597657
 21
38.2455986671
  0
LINE
  5
2E3
100
AcDbEntity
  8
0
100
AcDbLine
 62
7
  6
BYLAYER
 10
55.3265986663
 20
36.612635649
 11
54.924663138
 21
36.2468381832
  0
LINE
  5
2E4
100
AcDbEntity
  8
0
100
AcDbLine
 62
7
  6
BYLAYER
 10
63.7972214619
 20
44.1145916931
 11
63.391224072
 21
43.7639535131
  0
LINE
  5
2E5
100
AcDbEntity
  8
0
100
AcDbLine
 62
7
  6
BYLAYER
 10
55.4742857368
 20
37.1664468576
 11
55.06378514
 21
36.8366640626
  0
LINE
  5
2E6
100
AcDbEntity
  8
0
100
AcDbLine
 62
7
  6
BYLAYER
 10
64.1097843137
 20
43.9011731701
 11
63.6965585123
 21
43.5876635515
  0
LINE
  5
2E7
100
AcDbEntity
  8
0
100
AcDbLine
 62
7
  6
BYLAYER
 10
55.6567757282
 20
37.7237052534
 11
55.2408342204
 21
37.4324469754
  0
LINE
  5
2E8
100
AcDbEntity
  8
0
100
AcDbLine
 62
7
  6
BYLAYER
 10
64.391428728
 20
43.6399465004
 11
63.974119413
 21
43.3659514407
  0
LINE
  5
2E9
100
AcDbEntity
  8
0
100
AcDbLine
 62
7
  6
BYLAYER
 10
55.8726797814
 20
38.2801697635
 11
55.4544629286
 21
38.0296526539
  0
LINE
  5
2EA
100
AcDbEntity
  8
0
100
AcDbLine
 62
7
  6
BYLAYER
 10
64.6400112208
 20
43.3328997769
 11
64.221794368
 21
43.100504544
  0
LINE
  5
2EB
100
AcDbEntity
  8
0
100
AcDbLine
 62
7
  6
BYLAYER
 10
63.391224072
 20
35.3361113267
 11
63.7972214619
 21
35.454275753
  0
LINE
  5
2EC
100
AcDbEntity
  8
0
100
AcDbLine
 62
7
  6
BYLAYER
 10
64.1097843137
 20
36.0286086149
 11
63.974119413
 21
36.4071789454
  0
LINE
  5
2ED
100
AcDbEntity
  8
0
100
AcDbLine
 62
7
  6
BYLAYER
 10
61.5356486476
 20
43.9297072127
 11
61.4198266242
 21
44.3269581562
  0
LINE
  5
2EE
100
AcDbEntity
  8
0
100
AcDbLine
 62
7
  6
BYLAYER
 10
63.7972214619
 20
35.454275753
 11
63.6965585123
 21
35.8649690263
  0
LINE
  5
2EF
100
AcDbEntity
  8
0
100
AcDbLine
 62
7
  6
BYLAYER
 10
61.9414155389
 20
43.9934391695
 11
61.8610652428
 21
44.421059803
  0
LINE
  5
2F0
100
AcDbEntity
  8
0
100
AcDbLine
 62
7
  6
BYLAYER
 10
62.3327665884
 20
44.0086607797
 11
62.2884995338
 21
44.4633966521
  0
LINE
  5
2F1
100
AcDbEntity
  8
0
100
AcDbLine
 62
7
  6
BYLAYER
 10
63.0890728178
 20
34.359289172
 11
63.0604398715
 21
34.8246307727
  0
LINE
  5
2F2
100
AcDbEntity
  8
0
100
AcDbLine
 62
7
  6
BYLAYER
 10
62.7067233783
 20
43.9752561977
 11
62.6988764643
 21
44.4536464943
  0
LINE
  5
2F3
100
AcDbEntity
  8
0
100
AcDbLine
 62
7
  6
BYLAYER
 10
63.1584757058
 20
57.0605622244
 11
63.1584757058
 21
57.4518177064
  0
LINE
  5
2F4
100
AcDbEntity
  8
0
100
AcDbLine
 62
7
  6
BYLAYER
 10
63.582732709
 20
18.4314800402
 11
63.582732709
 21
35.39184939
  0
LINE
  5
2F5
100
AcDbEntity
  8
0
100
AcDbLine
 62
7
  6
BYLAYER
 10
63.582732709
 20
44.2384240308
 11
63.582732709
 21
67.421625068
  0
LINE
  5
2F6
100
AcDbEntity
  8
0
100
AcDbLine
 62
7
  6
BYLAYER
 10
62.6988764643
 20
33.846968962
 11
62.7067233783
 21
34.3344200404
  0
LINE
  5
2F7
100
AcDbEntity
  8
0
100
AcDbLine
 62
7
  6
BYLAYER
 10
63.0604398715
 20
43.8934796525
 11
63.0890728178
 21
44.3918835344
  0
LINE
  5
2F8
100
AcDbEntity
  8
0
100
AcDbLine
 62
7
  6
BYLAYER
 10
59.126332379
 20
43.1184450815
 11
58.9759201039
 21
42.5809070493
  0
LINE
  5
2F9
100
AcDbEntity
  8
0
100
AcDbLine
 62
7
  6
BYLAYER
 10
55.8726797814
 20
32.1382797583
 11
55.7030454214
 21
31.5988378019
  0
LINE
  5
2FA
100
AcDbEntity
  8
0
100
AcDbLine
 62
7
  6
BYLAYER
 10
59.5850258737
 20
43.4530013247
 11
59.4011680751
 21
42.9130061472
  0
LINE
  5
2FB
100
AcDbEntity
  8
0
100
AcDbLine
 62
7
  6
BYLAYER
 10
55.6567757282
 20
32.44544123
 11
55.4544629286
 21
31.9058845254
  0
LINE
  5
2FC
100
AcDbEntity
  8
0
100
AcDbLine
 62
7
  6
BYLAYER
 10
60.0472370747
 20
43.7431602796
 11
59.8313330214
 21
43.2048176462
  0
LINE
  5
2FD
100
AcDbEntity
  8
0
100
AcDbLine
 62
7
  6
BYLAYER
 10
55.4742857368
 20
32.7919795923
 11
55.2408342204
 21
32.2564144919
  0
LINE
  5
2FE
100
AcDbEntity
  8
0
100
AcDbLine
 62
7
  6
BYLAYER
 10
60.5094482757
 20
43.9867136615
 11
60.263141128
 21
43.4541206846
  0
LINE
  5
2FF
100
AcDbEntity
  8
0
100
AcDbLine
 62
7
  6
BYLAYER
 10
55.3265986663
 20
33.175257479
 11
55.06378514
 21
32.6477599566
  0
LINE
  5
300
100
AcDbEntity
  8
0
100
AcDbLine
 62
7
  6
BYLAYER
 10
60.9681417703
 20
44.1818078819
 11
60.6933060743
 21
43.6590179158
  0
LINE
  5
301
100
AcDbEntity
  8
0
100
AcDbLine
 62
7
  6
BYLAYER
 10
55.2148385045
 20
33.5923579141
 11
54.924663138
 21
33.0769425443
  0
LINE
  5
302
100
AcDbEntity
  8
0
100
AcDbLine
 62
7
  6
BYLAYER
 10
61.4198266242
 20
44.3269581562
 11
61.1185540455
 21
43.8179499481
  0
LINE
  5
303
100
AcDbEntity
  8
0
100
AcDbLine
 62
7
  6
BYLAYER
 10
55.1398558137
 20
34.0401065112
 11
54.8245270167
 21
33.5406959163
  0
LINE
  5
304
100
AcDbEntity
  8
0
100
AcDbLine
 62
7
  6
BYLAYER
 10
61.8610652428
 20
44.421059803
 11
61.5356486476
 21
43.9297072127
  0
LINE
  5
305
100
AcDbEntity
  8
0
100
AcDbLine
 62
7
  6
BYLAYER
 10
55.1022212574
 20
34.5150956334
 11
54.7641388725
 21
34.0354906294
  0
LINE
  5
306
100
AcDbEntity
  8
0
100
AcDbLine
 62
7
  6
BYLAYER
 10
62.2884995338
 20
44.4633966521
 11
61.9414155389
 21
43.9934391695
  0
LINE
  5
307
100
AcDbEntity
  8
0
100
AcDbLine
 62
7
  6
BYLAYER
 10
55.1022212574
 20
35.0137103264
 11
54.7439582956
 21
34.5575609971
  0
LINE
  5
308
100
AcDbEntity
  8
0
100
AcDbLine
 62
7
  6
BYLAYER
 10
62.6988764643
 20
44.4536464943
 11
62.3327665884
 21
44.0086607797
  0
LINE
  5
309
100
AcDbEntity
  8
0
100
AcDbLine
 62
7
  6
BYLAYER
 10
55.1398558137
 20
35.5321558315
 11
54.7641388725
 21
35.1029337487
  0
LINE
  5
30A
100
AcDbEntity
  8
0
100
AcDbLine
 62
7
  6
BYLAYER
 10
63.0890728178
 20
44.3918835344
 11
62.7067233783
 21
43.9752561977
  0
LINE
  5
30B
100
AcDbEntity
  8
0
100
AcDbLine
 62
7
  6
BYLAYER
 10
55.2148385045
 20
36.0664864653
 11
54.8245270167
 21
35.6674582682
  0
LINE
  5
30C
100
AcDbEntity
  8
0
100
AcDbLine
 62
7
  6
BYLAYER
 10
63.4561189646
 20
44.2785778257
 11
63.0604398715
 21
43.8934796525
  0
LINE
  5
30D
100
AcDbEntity
  8
0
100
AcDbLine
 62
7
  6
BYLAYER
 10
64.221794368
 20
36.9586145388
 11
64.6400112208
 21
37.2091316484
  0
LINE
  5
30E
100
AcDbEntity
  8
0
100
AcDbLine
 62
7
  6
BYLAYER
 10
55.4544629286
 20
31.9058845254
 11
55.8726797814
 21
32.1382797583
  0
LINE
  5
30F
100
AcDbEntity
  8
0
100
AcDbLine
 62
7
  6
BYLAYER
 10
63.974119413
 20
36.4071789454
 11
64.391428728
 21
36.6150483001
  0
LINE
  5
310
100
AcDbEntity
  8
0
100
AcDbLine
 62
7
  6
BYLAYER
 10
55.2408342204
 20
32.2564144919
 11
55.6567757282
 21
32.44544123
  0
LINE
  5
311
100
AcDbEntity
  8
0
100
AcDbLine
 62
7
  6
BYLAYER
 10
63.6965585123
 20
35.8649690263
 11
64.1097843137
 21
36.0286086149
  0
LINE
  5
312
100
AcDbEntity
  8
0
100
AcDbLine
 62
7
  6
BYLAYER
 10
55.06378514
 20
32.6477599566
 11
55.4742857368
 21
32.7919795923
  0
LINE
  5
313
100
AcDbEntity
  8
0
100
AcDbLine
 62
7
  6
BYLAYER
 10
63.4561189646
 20
34.8964207342
 11
63.391224072
 21
35.3361113267
  0
LINE
  5
314
100
AcDbEntity
  8
0
100
AcDbLine
 62
7
  6
BYLAYER
 10
62.2884995338
 20
33.3633591704
 11
62.3327665884
 21
33.8692099294
  0
LINE
  5
315
100
AcDbEntity
  8
0
100
AcDbLine
 62
7
  6
BYLAYER
 10
63.391224072
 20
43.7639535131
 11
63.4561189646
 21
44.2785778257
  0
LINE
  5
316
100
AcDbEntity
  8
0
100
AcDbLine
 62
7
  6
BYLAYER
 10
61.8610652428
 20
32.9121403596
 11
61.9414155389
 21
33.4325409695
  0
LINE
  5
317
100
AcDbEntity
  8
0
100
AcDbLine
 62
7
  6
BYLAYER
 10
63.6965585123
 20
43.5876635515
 11
63.7972214619
 21
44.1145916931
  0
LINE
  5
318
100
AcDbEntity
  8
0
100
AcDbLine
 62
7
  6
BYLAYER
 10
61.4198266242
 20
32.4967465772
 11
61.5356486476
 21
33.0277364751
  0
LINE
  5
319
100
AcDbEntity
  8
0
100
AcDbLine
 62
7
  6
BYLAYER
 10
63.974119413
 20
43.3659514407
 11
64.1097843137
 21
43.9011731701
  0
LINE
  5
31A
100
AcDbEntity
  8
0
100
AcDbLine
 62
7
  6
BYLAYER
 10
60.9681417703
 20
32.1203392208
 11
61.1185540455
 21
32.657877253
  0
LINE
  5
31B
100
AcDbEntity
  8
0
100
AcDbLine
 62
7
  6
BYLAYER
 10
64.221794368
 20
43.100504544
 11
64.391428728
 21
43.6399465004
  0
LINE
  5
31C
100
AcDbEntity
  8
0
100
AcDbLine
 62
7
  6
BYLAYER
 10
60.5094482757
 20
31.7857829776
 11
60.6933060743
 21
32.3257781551
  0
LINE
  5
31D
100
AcDbEntity
  8
0
100
AcDbLine
 62
7
  6
BYLAYER
 10
64.4376984212
 20
42.7933430723
 11
64.6400112208
 21
43.3328997769
  0
LINE
  5
31E
100
AcDbEntity
  8
0
100
AcDbLine
 62
7
  6
BYLAYER
 10
60.0472370747
 20
31.4956240227
 11
60.263141128
 21
32.0339666561
  0
LINE
  5
31F
100
AcDbEntity
  8
0
100
AcDbLine
 62
7
  6
BYLAYER
 10
64.6201884126
 20
42.44680471
 11
64.853639929
 21
42.9823698104
  0
LINE
  5
320
100
AcDbEntity
  8
0
100
AcDbLine
 62
7
  6
BYLAYER
 10
59.5850258737
 20
31.2520706408
 11
59.8313330214
 21
31.7846636177
  0
LINE
  5
321
100
AcDbEntity
  8
0
100
AcDbLine
 62
7
  6
BYLAYER
 10
64.7678754831
 20
42.0635268233
 11
65.0306890094
 21
42.5910243457
  0
LINE
  5
322
100
AcDbEntity
  8
0
100
AcDbLine
 62
7
  6
BYLAYER
 10
59.126332379
 20
31.0569764204
 11
59.4011680751
 21
31.5797663865
  0
LINE
  5
323
100
AcDbEntity
  8
0
100
AcDbLine
 62
7
  6
BYLAYER
 10
64.8796356449
 20
41.6464263882
 11
65.1698110114
 21
42.161841758
  0
LINE
  5
324
100
AcDbEntity
  8
0
100
AcDbLine
 62
7
  6
BYLAYER
 10
58.6746475252
 20
30.9118261461
 11
58.9759201039
 21
31.4208343542
  0
LINE
  5
325
100
AcDbEntity
  8
0
100
AcDbLine
 62
7
  6
BYLAYER
 10
64.9546183357
 20
41.1986777911
 11
65.2699471327
 21
41.698088386
  0
LINE
  5
326
100
AcDbEntity
  8
0
100
AcDbLine
 62
7
  6
BYLAYER
 10
58.2334089066
 20
30.8177244993
 11
58.5588255018
 21
31.3090770896
  0
LINE
  5
327
100
AcDbEntity
  8
0
100
AcDbLine
 62
7
  6
BYLAYER
 10
64.992252892
 20
40.723688669
 11
65.3303352769
 21
41.2032936729
  0
LINE
  5
328
100
AcDbEntity
  8
0
100
AcDbLine
 62
7
  6
BYLAYER
 10
57.8059746155
 20
30.7753876503
 11
58.1530586105
 21
31.2453451328
  0
LINE
  5
329
100
AcDbEntity
  8
0
100
AcDbLine
 62
7
  6
BYLAYER
 10
64.992252892
 20
40.2250739759
 11
65.3505158538
 21
40.6812233052
  0
LINE
  5
32A
100
AcDbEntity
  8
0
100
AcDbLine
 62
7
  6
BYLAYER
 10
57.3955976851
 20
30.785137808
 11
57.761707561
 21
31.2301235226
  0
LINE
  5
32B
100
AcDbEntity
  8
0
100
AcDbLine
 62
7
  6
BYLAYER
 10
64.9546183357
 20
39.7066284708
 11
65.3303352769
 21
40.1358505536
  0
LINE
  5
32C
100
AcDbEntity
  8
0
100
AcDbLine
 62
7
  6
BYLAYER
 10
57.0054013316
 20
30.8469007679
 11
57.3877507711
 21
31.2635281046
  0
LINE
  5
32D
100
AcDbEntity
  8
0
100
AcDbLine
 62
7
  6
BYLAYER
 10
64.8796356449
 20
39.172297837
 11
65.2699471327
 21
39.5713260341
  0
LINE
  5
32E
100
AcDbEntity
  8
0
100
AcDbLine
 62
7
  6
BYLAYER
 10
56.6383551848
 20
30.9602064766
 11
57.0340342779
 21
31.3453046498
  0
LINE
  5
32F
100
AcDbEntity
  8
0
100
AcDbLine
 62
7
  6
BYLAYER
 10
64.7678754831
 20
38.6261486533
 11
65.1698110114
 21
38.9919461191
  0
LINE
  5
330
100
AcDbEntity
  8
0
100
AcDbLine
 62
7
  6
BYLAYER
 10
56.2972526875
 20
31.1241926092
 11
56.7032500774
 21
31.4748307893
  0
LINE
  5
331
100
AcDbEntity
  8
0
100
AcDbLine
 62
7
  6
BYLAYER
 10
64.6201884126
 20
38.0723374447
 11
65.0306890094
 21
38.4021202397
  0
LINE
  5
332
100
AcDbEntity
  8
0
100
AcDbLine
 62
7
  6
BYLAYER
 10
55.9846898357
 20
31.3376111323
 11
56.3979156371
 21
31.6511207509
  0
LINE
  5
333
100
AcDbEntity
  8
0
100
AcDbLine
 62
7
  6
BYLAYER
 10
64.4376984212
 20
37.5150790489
 11
64.853639929
 21
37.8063373269
  0
LINE
  5
334
100
AcDbEntity
  8
0
100
AcDbLine
 62
7
  6
BYLAYER
 10
55.7030454214
 20
31.5988378019
 11
56.1203547364
 21
31.8728328616
  0
LINE
  5
335
100
AcDbEntity
  8
0
100
AcDbLine
 62
7
  6
BYLAYER
 10
63.582732709
 20
67.421625068
 11
21.1561492002
 21
91.9160703392
  0
LINE
  5
336
100
AcDbEntity
  8
0
100
AcDbLine
 62
7
  6
BYLAYER
 10
63.582732709
 20
18.4314800402
 11
50.8548636392
 21
11.0830852705
  0
ARC
  5
337
100
AcDbEntity
  8
0
100
AcDbCircle
 62
7
  6
BYLAYER
 10
81.9101940711
 20
51.2161273276
 40
29.334136357
100
AcDbArc
 50
174.4016140483
 51
176.9746579879
  0
ARC
  5
338
100
AcDbEntity
  8
0
100
AcDbCircle
 62
7
  6
BYLAYER
 10
50.1111400708
 20
57.2636368548
 40
13.0853937677
100
AcDbArc
 50
347.268940044
 51
352.8035372195
  0
ARC
  5
339
100
AcDbEntity
  8
0
100
AcDbCircle
 62
7
  6
BYLAYER
 10
53.3409857792
 20
57.512459941
 40
9.8387877465
100
AcDbArc
 50
7.5952548185
 51
14.3022052508
  0
ARC
  5
33A
100
AcDbEntity
  8
0
100
AcDbCircle
 62
7
  6
BYLAYER
 10
58.0491022727
 20
34.1580027098
 40
2.0032574755
100
AcDbArc
 50
237.6958227641
 51
239.99426698
  0
ARC
  5
33B
100
AcDbEntity
  8
0
100
AcDbCircle
 62
7
  6
BYLAYER
 10
62.0465077583
 20
41.082697868
 40
2.001029989
100
AcDbArc
 50
59.9949925935
 51
62.2212906056
  0
SPLINE
  5
33C
100
AcDbEntity
  8
0
100
AcDbSpline
 62
7
  6
BYLAYER
 70
0
 71
3
 72
14
 73
10
 74
0
 42
0.0000001
 43
0.0000001
 44
0.0000000001
 40
0.0
 40
0.0
 40
0.0
 40
0.0
 40
0.1078645161
 40
0.2180937738
 40
0.3323709736
 40
0.4520576596
 40
0.5781962455
 40
0.7114956729
 40
1.0
 40
1.0
 40
1.0
 40
1.0
 10
56.9785334862
 20
32.4648036706
 30
0.0
 10
56.8851182941
 20
32.5238670332
 30
0.0
 10
56.7058311547
 20
32.6592355206
 30
0.0
 10
56.4697885104
 20
32.906570366
 30
0.0
 10
56.2669558794
 20
33.1966234475
 30
0.0
 10
56.0990828525
 20
33.5263932581
 30
0.0
 10
55.9674511097
 20
33.8928879753
 30
0.0
 10
55.8382345937
 20
34.4401601756
 30
0.0
 10
55.8046140514
 20
34.8743177769
 30
0.0
 10
55.8046140514
 20
35.1699272279
 30
0.0
  0
SPLINE
  5
33D
100
AcDbEntity
  8
0
100
AcDbSpline
 62
7
  6
BYLAYER
 70
0
 71
3
 72
13
 73
9
 74
0
 42
0.0000001
 43
0.0000001
 44
0.0000000001
 40
0.0
 40
0.0
 40
0.0
 40
0.0
 40
0.1185363245
 40
0.2379056259
 40
0.3586703766
 40
0.4813597434
 40
0.7342127159
 40
1.0
 40
1.0
 40
1.0
 40
1.0
 10
60.9875192481
 20
62.5745859208
 30
0.0
 10
61.1012560163
 20
62.5089222644
 30
0.0
 10
61.3225295677
 20
62.364563437
 30
0.0
 10
61.6304757236
 20
62.1122590349
 30
0.0
 10
61.9131836364
 20
61.8253993749
 30
0.0
 10
62.256984855
 20
61.3951549909
 30
0.0
 10
62.6130552361
 20
60.7746761074
 30
0.0
 10
62.8019966549
 20
60.2283192538
 30
0.0
 10
62.8748374636
 20
59.9429947928
 30
0.0
  0
SPLINE
  5
33E
100
AcDbEntity
  8
0
100
AcDbSpline
 62
7
  6
BYLAYER
 70
0
 71
3
 72
19
 73
15
 74
0
 42
0.0000001
 43
0.0000001
 44
0.0000000001
 40
0.0
 40
0.0
 40
0.0
 40
0.0
 40
0.0428394104
 40
0.0874448899
 40
0.1352571039
 40
0.1871950253
 40
0.2436735499
 40
0.3046656819
 40
0.4382689093
 40
0.5825434307
 40
0.7296392143
 40
0.871166535
 40
0.9376088396
 40
1.0
 40
1.0
 40
1.0
 40
1.0
 10
33.5663480467
 20
24.6974785536
 30
0.0
 10
33.6168850457
 20
24.7266610213
 30
0.0
 10
33.7283023768
 20
24.7729249075
 30
0.0
 10
33.912190144
 20
24.7999192438
 30
0.0
 10
34.1096670922
 20
24.7853544119
 30
0.0
 10
34.3163365637
 20
24.7304595028
 30
0.0
 10
34.5281636547
 20
24.6368661806
 30
0.0
 10
34.8205616574
 20
24.4578765606
 30
0.0
 10
35.1689005574
 20
24.1493976799
 30
0.0
 10
35.5269255155
 20
23.6910262086
 30
0.0
 10
35.8088430105
 20
23.1700718748
 30
0.0
 10
35.9648390235
 20
22.7090189135
 30
0.0
 10
36.0293344484
 20
22.3458511721
 30
0.0
 10
36.0409148974
 20
22.1702280641
 30
0.0
 10
36.0409148974
 20
22.0852363291
 30
0.0
  0
SPLINE
  5
33F
100
AcDbEntity
  8
0
100
AcDbSpline
 62
7
  6
BYLAYER
 70
0
 71
3
 72
19
 73
15
 74
0
 42
0.0000001
 43
0.0000001
 44
0.0000000001
 40
0.0
 40
0.0
 40
0.0
 40
0.0
 40
0.0428394104
 40
0.0874448899
 40
0.1352571039
 40
0.1871950253
 40
0.2436735499
 40
0.3046656819
 40
0.4382689093
 40
0.5825434307
 40
0.7296392143
 40
0.871166535
 40
0.9376088396
 40
1.0
 40
1.0
 40
1.0
 40
1.0
 10
33.5663480467
 20
68.7886090786
 30
0.0
 10
33.6168850457
 20
68.8177915463
 30
0.0
 10
33.7283023768
 20
68.8640554325
 30
0.0
 10
33.912190144
 20
68.8910497688
 30
0.0
 10
34.1096670922
 20
68.8764849369
 30
0.0
 10
34.3163365637
 20
68.8215900278
 30
0.0
 10
34.5281636547
 20
68.7279967056
 30
0.0
 10
34.8205616574
 20
68.5490070856
 30
0.0
 10
35.1689005574
 20
68.2405282049
 30
0.0
 10
35.5269255155
 20
67.7821567336
 30
0.0
 10
35.8088430105
 20
67.2612023998
 30
0.0
 10
35.9648390235
 20
66.8001494385
 30
0.0
 10
36.0293344484
 20
66.4369816971
 30
0.0
 10
36.0409148974
 20
66.2613585891
 30
0.0
 10
36.0409148974
 20
66.1763668541
 30
0.0
  0
SPLINE
  5
340
100
AcDbEntity
  8
0
100
AcDbSpline
 62
7
  6
BYLAYER
 70
0
 71
3
 72
11
 73
7
 74
0
 42
0.0000001
 43
0.0000001
 44
0.0000000001
 40
0.0
 40
0.0
 40
0.0
 40
0.0
 40
0.2897016594
 40
0.5490895814
 40
0.7822189142
 40
1.0
 40
1.0
 40
1.0
 40
1.0
 10
36.0409148974
 20
66.1763668541
 30
0.0
 10
36.0409148974
 20
66.0724975239
 30
0.0
 10
36.0251668898
 20
65.874959058
 30
0.0
 10
35.945170366
 20
65.6035495566
 30
0.0
 10
35.8104729743
 20
65.3833162858
 30
0.0
 10
35.6839508897
 20
65.2769581594
 30
0.0
 10
35.6163318749
 20
65.2379117231
 30
0.0
  0
SPLINE
  5
341
100
AcDbEntity
  8
0
100
AcDbSpline
 62
7
  6
BYLAYER
 70
0
 71
3
 72
11
 73
7
 74
0
 42
0.0000001
 43
0.0000001
 44
0.0000000001
 40
0.0
 40
0.0
 40
0.0
 40
0.0
 40
0.2897016594
 40
0.5490895814
 40
0.7822189142
 40
1.0
 40
1.0
 40
1.0
 40
1.0
 10
36.0409148974
 20
22.0852363291
 30
0.0
 10
36.0409148974
 20
21.9813669989
 30
0.0
 10
36.0251668898
 20
21.783828533
 30
0.0
 10
35.945170366
 20
21.5124190316
 30
0.0
 10
35.8104729743
 20
21.2921857608
 30
0.0
 10
35.6839508897
 20
21.1858276344
 30
0.0
 10
35.6163318749
 20
21.1467811981
 30
0.0
  0
SPLINE
  5
342
100
AcDbEntity
  8
0
100
AcDbSpline
 62
7
  6
BYLAYER
 70
0
 71
3
 72
15
 73
11
 74
0
 42
0.0000001
 43
0.0000001
 44
0.0000000001
 40
0.0
 40
0.0
 40
0.0
 40
0.0
 40
0.115370159
 40
0.2356245441
 40
0.3598503591
 40
0.4870619077
 40
0.6160590409
 40
0.7455099991
 40
0.874025339
 40
1.0
 40
1.0
 40
1.0
 40
1.0
 10
62.8748374636
 20
54.3799401438
 30
0.0
 10
62.8095034573
 20
54.0890405225
 30
0.0
 10
62.6435931339
 20
53.5018808989
 30
0.0
 10
62.3066277554
 20
52.6338801539
 30
0.0
 10
61.883227837
 20
51.7704721762
 30
0.0
 10
61.3826244402
 20
50.9232753366
 30
0.0
 10
60.8149068688
 20
50.1031629344
 30
0.0
 10
60.1913938488
 20
49.3204058592
 30
0.0
 10
59.5240976004
 20
48.5852584053
 30
0.0
 10
59.051803057
 20
48.1268290409
 30
0.0
 10
58.810927742
 20
47.9078256811
 30
0.0
  0
SPLINE
  5
343
100
AcDbEntity
  8
0
100
AcDbSpline
 62
7
  6
BYLAYER
 70
0
 71
3
 72
11
 73
7
 74
0
 42
0.0000001
 43
0.0000001
 44
0.0000000001
 40
0.0
 40
0.0
 40
0.0
 40
0.0
 40
0.2779624821
 40
0.5335010985
 40
0.7716836426
 40
1.0
 40
1.0
 40
1.0
 40
1.0
 10
55.6266686058
 20
46.0694037857
 30
0.0
 10
55.4667831095
 20
46.0393907288
 30
0.0
 10
55.1558530139
 20
46.0002650193
 30
0.0
 10
54.7023275424
 20
46.0126063614
 30
0.0
 10
54.2864208119
 20
46.1006255005
 30
0.0
 10
54.0343468455
 20
46.211645547
 30
0.0
 10
53.9186251406
 20
46.2784548425
 30
0.0
  0
SPLINE
  5
344
100
AcDbEntity
  8
0
100
AcDbSpline
 62
7
  6
BYLAYER
 70
0
 71
3
 72
9
 73
5
 74
0
 42
0.0000001
 43
0.0000001
 44
0.0000000001
 40
0.0
 40
0.0
 40
0.0
 40
0.0
 40
0.2553005262
 40
1.0
 40
1.0
 40
1.0
 40
1.0
 10
63.1584757058
 20
57.4518177064
 30
0.0
 10
63.1584757058
 20
57.5678056642
 30
0.0
 10
63.1532358269
 20
58.0221009366
 30
0.0
 10
63.1266343233
 20
58.4762196745
 30
0.0
 10
63.0934503688
 20
58.8129197283
 30
0.0
  0
SPLINE
  5
345
100
AcDbEntity
  8
0
100
AcDbSpline
 62
7
  6
BYLAYER
 70
0
 71
3
 72
9
 73
5
 74
0
 42
0.0000001
 43
0.0000001
 44
0.0000000001
 40
0.0
 40
0.0
 40
0.0
 40
0.0
 40
0.2547429433
 40
1.0
 40
1.0
 40
1.0
 40
1.0
 10
63.0934503688
 20
55.624375859
 30
0.0
 10
63.1042124865
 20
55.7460003292
 30
0.0
 10
63.1414775389
 20
56.223861195
 30
0.0
 10
63.1584757058
 20
56.7033564215
 30
0.0
 10
63.1584757058
 20
57.0605622244
 30
0.0
  0
SPLINE
  5
346
100
AcDbEntity
  8
0
100
AcDbSpline
 62
7
  6
BYLAYER
 70
0
 71
3
 72
23
 73
19
 74
0
 42
0.0000001
 43
0.0000001
 44
0.0000000001
 40
0.0
 40
0.0
 40
0.0
 40
0.0
 40
0.0621676301
 40
0.1282854552
 40
0.1976012029
 40
0.2693062043
 40
0.3424318699
 40
0.4159558027
 40
0.4888434962
 40
0.5600798494
 40
0.6287277008
 40
0.6939727089
 40
0.7551765671
 40
0.81195007
 40
0.8642270832
 40
0.9123515936
 40
0.9571627276
 40
1.0
 40
1.0
 40
1.0
 40
1.0
 10
55.8046140514
 20
35.1699272279
 30
0.0
 10
55.8046140514
 20
35.4163390254
 30
0.0
 10
55.8377348202
 20
35.92514903
 30
0.0
 10
55.9737932225
 20
36.6977704364
 30
0.0
 10
56.1952854371
 20
37.4896505053
 30
0.0
 10
56.497355365
 20
38.2840492342
 30
0.0
 10
56.8737623444
 20
39.0645485608
 30
0.0
 10
57.316608236
 20
39.8147883804
 30
0.0
 10
57.8166328291
 20
40.5190647738
 30
0.0
 10
58.3634124306
 20
41.1626251198
 30
0.0
 10
58.9454995191
 20
41.7320751245
 30
0.0
 10
59.5508750122
 20
42.2155573869
 30
0.0
 10
60.1672145783
 20
42.6029667406
 30
0.0
 10
60.7821511816
 20
42.886200787
 30
0.0
 10
61.3836356136
 20
43.058960014
 30
0.0
 10
61.9601243654
 20
43.1162627059
 30
0.0
 10
62.4992201286
 20
43.0547964946
 30
0.0
 10
62.8288787096
 20
42.932250643
 30
0.0
 10
62.9791036042
 20
42.8531175938
 30
0.0
  0
SPLINE
  5
347
100
AcDbEntity
  8
0
100
AcDbSpline
 62
7
  6
BYLAYER
 70
0
 71
3
 72
9
 73
5
 74
0
 42
0.0000001
 43
0.0000001
 44
0.0000000001
 40
0.0
 40
0.0
 40
0.0
 40
0.0
 40
0.2424811234
 40
1.0
 40
1.0
 40
1.0
 40
1.0
 10
52.7159771872
 20
48.5147603529
 30
0.0
 10
52.7049952604
 20
48.6002019571
 30
0.0
 10
52.6629312654
 20
48.9529775695
 30
0.0
 10
52.6333745452
 20
49.3072069094
 30
0.0
 10
52.6169410285
 20
49.5758228153
 30
0.0
  0
SPLINE
  5
348
100
AcDbEntity
  8
0
100
AcDbSpline
 62
7
  6
BYLAYER
 70
0
 71
3
 72
14
 73
10
 74
0
 42
0.0000001
 43
0.0000001
 44
0.0000000001
 40
0.0
 40
0.0
 40
0.0
 40
0.0
 40
0.1198053065
 40
0.2438636465
 40
0.3706887574
 40
0.4989193467
 40
0.6271891596
 40
0.754227837
 40
1.0
 40
1.0
 40
1.0
 40
1.0
 10
52.7159823089
 20
54.077812045
 30
0.0
 10
52.7462349737
 20
54.3885226523
 30
0.0
 10
52.8321770519
 20
55.0188010181
 30
0.0
 10
53.0298112249
 20
55.9650166429
 30
0.0
 10
53.2978100769
 20
56.9166628572
 30
0.0
 10
53.6342271228
 20
57.8579572859
 30
0.0
 10
54.0369392017
 20
58.7737575876
 30
0.0
 10
54.6509590018
 20
59.9267129103
 30
0.0
 10
55.2101712342
 20
60.7292466012
 30
0.0
 10
55.6266686062
 20
61.2157252997
 30
0.0
  0
SPLINE
  5
349
100
AcDbEntity
  8
0
100
AcDbSpline
 62
7
  6
BYLAYER
 70
0
 71
3
 72
11
 73
7
 74
0
 42
0.0000001
 43
0.0000001
 44
0.0000000001
 40
0.0
 40
0.0
 40
0.0
 40
0.0
 40
0.2572008559
 40
0.5081929231
 40
0.7549610399
 40
1.0
 40
1.0
 40
1.0
 40
1.0
 10
58.8109277424
 20
63.0541471951
 30
0.0
 10
59.0042063715
 20
63.068500767
 30
0.0
 10
59.3886803908
 20
63.0704269967
 30
0.0
 10
59.9539282921
 20
62.9899818487
 30
0.0
 10
60.4918431947
 20
62.8277884192
 30
0.0
 10
60.8276093696
 20
62.6669067023
 30
0.0
 10
60.9875192481
 20
62.5745859208
 30
0.0
  0
SPLINE
  5
34A
100
AcDbEntity
  8
0
100
AcDbSpline
 62
7
  6
BYLAYER
 70
0
 71
3
 72
19
 73
15
 74
0
 42
0.0000001
 43
0.0000001
 44
0.0000000001
 40
0.0
 40
0.0
 40
0.0
 40
0.0
 40
0.0428394104
 40
0.0874448899
 40
0.1352571039
 40
0.1871950253
 40
0.2436735499
 40
0.3046656819
 40
0.4382689093
 40
0.5825434307
 40
0.7296392143
 40
0.871166535
 40
0.9376088396
 40
1.0
 40
1.0
 40
1.0
 40
1.0
 10
35.6163318749
 20
65.2379117231
 30
0.0
 10
35.5657948759
 20
65.2087292554
 30
0.0
 10
35.4543775448
 20
65.1624653692
 30
0.0
 10
35.2704897776
 20
65.1354710329
 30
0.0
 10
35.0730128294
 20
65.1500358648
 30
0.0
 10
34.8663433579
 20
65.2049307739
 30
0.0
 10
34.6545162669
 20
65.2985240961
 30
0.0
 10
34.3621182642
 20
65.4775137161
 30
0.0
 10
34.0137793642
 20
65.7859925969
 30
0.0
 10
33.6557544061
 20
66.2443640682
 30
0.0
 10
33.3738369111
 20
66.7653184019
 30
0.0
 10
33.2178408981
 20
67.2263713632
 30
0.0
 10
33.1533454732
 20
67.5895391046
 30
0.0
 10
33.1417650243
 20
67.7651622126
 30
0.0
 10
33.1417650243
 20
67.8501539476
 30
0.0
  0
SPLINE
  5
34B
100
AcDbEntity
  8
0
100
AcDbSpline
 62
7
  6
BYLAYER
 70
0
 71
3
 72
9
 73
5
 74
0
 42
0.0000001
 43
0.0000001
 44
0.0000000001
 40
0.0
 40
0.0
 40
0.0
 40
0.0
 40
0.2553005262
 40
1.0
 40
1.0
 40
1.0
 40
1.0
 10
52.5519181477
 20
50.9368999163
 30
0.0
 10
52.5519181477
 20
50.8209119585
 30
0.0
 10
52.5571580266
 20
50.3666166861
 30
0.0
 10
52.5837595301
 20
49.9124979482
 30
0.0
 10
52.6169434847
 20
49.5757978944
 30
0.0
  0
SPLINE
  5
34C
100
AcDbEntity
  8
0
100
AcDbSpline
 62
7
  6
BYLAYER
 70
0
 71
3
 72
9
 73
5
 74
0
 42
0.0000001
 43
0.0000001
 44
0.0000000001
 40
0.0
 40
0.0
 40
0.0
 40
0.0
 40
0.2547429433
 40
1.0
 40
1.0
 40
1.0
 40
1.0
 10
52.6169434847
 20
52.7643417637
 30
0.0
 10
52.606181367
 20
52.6427172935
 30
0.0
 10
52.5689163146
 20
52.1648564277
 30
0.0
 10
52.5519181477
 20
51.6853612012
 30
0.0
 10
52.5519181477
 20
51.3281553983
 30
0.0
  0
SPLINE
  5
34D
100
AcDbEntity
  8
0
100
AcDbSpline
 62
7
  6
BYLAYER
 70
0
 71
3
 72
23
 73
19
 74
0
 42
0.0000001
 43
0.0000001
 44
0.0000000001
 40
0.0
 40
0.0
 40
0.0
 40
0.0
 40
0.042837327
 40
0.0876490915
 40
0.1357744697
 40
0.1880523657
 40
0.2448263992
 40
0.3060301995
 40
0.3712745123
 40
0.439921161
 40
0.5111560364
 40
0.58404245
 40
0.6575657834
 40
0.7306915252
 40
0.8023968806
 40
0.871713295
 40
0.9378322765
 40
1.0
 40
1.0
 40
1.0
 40
1.0
 10
57.0447541657
 20
32.4264379825
 30
0.0
 10
57.1949826768
 20
32.3473146338
 30
0.0
 10
57.52464696
 20
32.2247859595
 30
0.0
 10
58.0637468117
 20
32.1633474794
 30
0.0
 10
58.6402375091
 20
32.2206685266
 30
0.0
 10
59.2417197084
 20
32.3934481627
 30
0.0
 10
59.8566482829
 20
32.6766971185
 30
0.0
 10
60.4729742659
 20
33.0641137171
 30
0.0
 10
61.0783322283
 20
33.5475940463
 30
0.0
 10
61.6603984029
 20
34.1170357355
 30
0.0
 10
62.2071571355
 20
34.7605829022
 30
0.0
 10
62.7071697369
 20
35.4648417767
 30
0.0
 10
63.150005325
 20
36.2150703637
 30
0.0
 10
63.526406029
 20
36.9955630652
 30
0.0
 10
63.8284784681
 20
37.7899572243
 30
0.0
 10
64.0499702016
 20
38.581838853
 30
0.0
 10
64.1860266977
 20
39.3544609919
 30
0.0
 10
64.2191491255
 20
39.8632712131
 30
0.0
 10
64.2191491255
 20
40.1096811498
 30
0.0
  0
SPLINE
  5
34E
100
AcDbEntity
  8
0
100
AcDbSpline
 62
7
  6
BYLAYER
 70
0
 71
3
 72
14
 73
10
 74
0
 42
0.0000001
 43
0.0000001
 44
0.0000000001
 40
0.0
 40
0.0
 40
0.0
 40
0.0
 40
0.1080440739
 40
0.2181286642
 40
0.3321079645
 40
0.4514904622
 40
0.5774365259
 40
0.7107379666
 40
1.0
 40
1.0
 40
1.0
 40
1.0
 10
63.0471742008
 20
42.8155532249
 30
0.0
 10
63.1455390479
 20
42.7587504651
 30
0.0
 10
63.3346837028
 20
42.62679479
 30
0.0
 10
63.584592349
 20
42.3808382902
 30
0.0
 10
63.7994876407
 20
42.0889173866
 30
0.0
 10
63.9774997779
 20
41.7543949292
 30
0.0
 10
64.1171110084
 20
41.3804882814
 30
0.0
 10
64.2543377151
 20
40.8193886867
 30
0.0
 10
64.289860098
 20
40.3729612
 30
0.0
 10
64.289860098
 20
40.0688570744
 30
0.0
  0
SPLINE
  5
34F
100
AcDbEntity
  8
0
100
AcDbSpline
 62
7
  6
BYLAYER
 70
0
 71
3
 72
11
 73
7
 74
0
 42
0.0000001
 43
0.0000001
 44
0.0000000001
 40
0.0
 40
0.0
 40
0.0
 40
0.0
 40
0.2656737053
 40
0.5184513587
 40
0.7617053607
 40
1.0
 40
1.0
 40
1.0
 40
1.0
 10
58.8109683449
 20
63.054152329
 30
0.0
 10
58.9872207081
 20
63.0764388918
 30
0.0
 10
59.3346520946
 20
63.0973147813
 30
0.0
 10
59.8439878648
 20
63.0509069571
 30
0.0
 10
60.3211807179
 20
62.9256202238
 30
0.0
 10
60.6152396454
 20
62.7895025983
 30
0.0
 10
60.7532394023
 20
62.7098302931
 30
0.0
  0
SPLINE
  5
350
100
AcDbEntity
  8
0
100
AcDbSpline
 62
7
  6
BYLAYER
 70
0
 71
3
 72
12
 73
8
 74
0
 42
0.0000001
 43
0.0000001
 44
0.0000000001
 40
0.0
 40
0.0
 40
0.0
 40
0.0
 40
0.1175512339
 40
0.239720156
 40
0.4929891919
 40
0.7499328852
 40
1.0
 40
1.0
 40
1.0
 40
1.0
 10
52.1393705968
 20
54.410711441
 30
0.0
 10
52.187032437
 20
54.7107698402
 30
0.0
 10
52.3125409905
 20
55.3184713244
 30
0.0
 10
52.6726927403
 20
56.5418058484
 30
0.0
 10
53.3162841689
 20
58.0515350023
 30
0.0
 10
54.338495815
 20
59.7366209812
 30
0.0
 10
55.1760208472
 20
60.7523482023
 30
0.0
 10
55.6266280034
 20
61.2156835498
 30
0.0
  0
SPLINE
  5
351
100
AcDbEntity
  8
0
100
AcDbSpline
 62
7
  6
BYLAYER
 70
0
 71
3
 72
9
 73
5
 74
0
 42
0.0000001
 43
0.0000001
 44
0.0000000001
 40
0.0
 40
0.0
 40
0.0
 40
0.0
 40
0.2416554123
 40
1.0
 40
1.0
 40
1.0
 40
1.0
 10
51.915519395
 20
51.6955720774
 30
0.0
 10
51.915519395
 20
51.91515342
 30
0.0
 10
51.9353690134
 20
52.8237655881
 30
0.0
 10
52.0312720864
 20
53.7301698203
 30
0.0
 10
52.1393705968
 20
54.410711441
 30
0.0
  0
SPLINE
  5
352
100
AcDbEntity
  8
0
100
AcDbSpline
 62
7
  6
BYLAYER
 70
0
 71
3
 72
9
 73
5
 74
0
 42
0.0000001
 43
0.0000001
 44
0.0000000001
 40
0.0
 40
0.0
 40
0.0
 40
0.0
 40
0.2399786176
 40
1.0
 40
1.0
 40
1.0
 40
1.0
 10
52.1393705968
 20
48.847656792
 30
0.0
 10
52.1016590664
 20
49.0415270653
 30
0.0
 10
51.9664577713
 20
49.8536164704
 30
0.0
 10
51.915519395
 20
50.6788138386
 30
0.0
 10
51.915519395
 20
51.3043165954
 30
0.0
  0
SPLINE
  5
353
100
AcDbEntity
  8
0
100
AcDbSpline
 62
7
  6
BYLAYER
 70
0
 71
3
 72
14
 73
10
 74
0
 42
0.0000001
 43
0.0000001
 44
0.0000000001
 40
0.0
 40
0.0
 40
0.0
 40
0.0
 40
0.1074972221
 40
0.2167868519
 40
0.3298593303
 40
0.4484373884
 40
0.5739113668
 40
0.7073373742
 40
1.0
 40
1.0
 40
1.0
 40
1.0
 10
53.9186251406
 20
46.2784548425
 30
0.0
 10
53.8370261971
 20
46.3255641375
 30
0.0
 10
53.6794600973
 20
46.4333050084
 30
0.0
 10
53.4673245527
 20
46.6312047813
 30
0.0
 10
53.2792823599
 20
46.8646668422
 30
0.0
 10
53.1158030329
 20
47.1325200421
 30
0.0
 10
52.9770079258
 20
47.4336032503
 30
0.0
 10
52.820376418
 20
47.8916355044
 30
0.0
 10
52.7486840384
 20
48.2603313489
 30
0.0
 10
52.7159823089
 20
48.514757396
 30
0.0
  0
SPLINE
  5
354
100
AcDbEntity
  8
0
100
AcDbSpline
 62
7
  6
BYLAYER
 70
0
 71
3
 72
13
 73
9
 74
0
 42
0.0000001
 43
0.0000001
 44
0.0000000001
 40
0.0
 40
0.0
 40
0.0
 40
0.0
 40
0.1140302782
 40
0.2292712894
 40
0.3468632361
 40
0.4678309022
 40
0.7229857352
 40
1.0
 40
1.0
 40
1.0
 40
1.0
 10
53.6843569459
 20
46.4137206877
 30
0.0
 10
53.5865525803
 20
46.4701867238
 30
0.0
 10
53.396913291
 20
46.596381122
 30
0.0
 10
53.1365564322
 20
46.8217801267
 30
0.0
 10
52.9009382175
 20
47.0822860082
 30
0.0
 10
52.6166062823
 20
47.4812632959
 30
0.0
 10
52.3314413309
 20
48.0672361473
 30
0.0
 10
52.1917553825
 20
48.5783531428
 30
0.0
 10
52.1393705968
 20
48.847656792
 30
0.0
  0
SPLINE
  5
355
100
AcDbEntity
  8
0
100
AcDbSpline
 62
7
  6
BYLAYER
 70
0
 71
3
 72
23
 73
19
 74
0
 42
0.0000001
 43
0.0000001
 44
0.0000000001
 40
0.0
 40
0.0
 40
0.0
 40
0.0
 40
0.0623792407
 40
0.1287516421
 40
0.198348165
 40
0.2703376933
 40
0.3437266974
 40
0.4174686431
 40
0.4905060268
 40
0.5618042725
 40
0.6304123314
 40
0.6955108761
 40
0.756467343
 40
0.8129125661
 40
0.8648218473
 40
0.9126046352
 40
0.9571861269
 40
1.0
 40
1.0
 40
1.0
 40
1.0
 10
64.289860098
 20
40.0688570744
 30
0.0
 10
64.289860098
 20
39.8199975205
 30
0.0
 10
64.2560762426
 20
39.3060109354
 30
0.0
 10
64.1174050152
 20
38.5256154228
 30
0.0
 10
63.8917476433
 20
37.7259250653
 30
0.0
 10
63.5841474676
 20
36.9241566725
 30
0.0
 10
63.201063396
 20
36.1372071396
 30
0.0
 10
62.7506961783
 20
35.3818838649
 30
0.0
 10
62.2426520696
 20
34.6742885324
 30
0.0
 10
61.6877061369
 20
34.0295359185
 30
0.0
 10
61.0976921985
 20
33.46129705
 30
0.0
 10
60.4850235613
 20
32.9816094774
 30
0.0
 10
59.8623786676
 20
32.6006974035
 30
0.0
 10
59.2424364995
 20
32.3267247732
 30
0.0
 10
58.6375415254
 20
32.1659752903
 30
0.0
 10
58.0595396961
 20
32.1234098638
 30
0.0
 10
57.521306304
 20
32.202348782
 30
0.0
 10
57.1952131182
 20
32.3378156419
 30
0.0
 10
57.0472999486
 20
32.4232310774
 30
0.0
  0
SPLINE
  5
356
100
AcDbEntity
  8
0
100
AcDbSpline
 62
7
  6
BYLAYER
 70
0
 71
3
 72
14
 73
10
 74
0
 42
0.0000001
 43
0.0000001
 44
0.0000000001
 40
0.0
 40
0.0
 40
0.0
 40
0.0
 40
0.2885054226
 40
0.4218029578
 40
0.5479407954
 40
0.6676275506
 40
0.7819051332
 40
0.8921344406
 40
1.0
 40
1.0
 40
1.0
 40
1.0
 10
64.2191491255
 20
40.1096811498
 30
0.0
 10
64.2191491255
 20
40.4052957564
 30
0.0
 10
64.185529862
 20
40.839458963
 30
0.0
 10
64.0563071495
 20
41.3867358314
 30
0.0
 10
63.9246746758
 20
41.7532333336
 30
0.0
 10
63.756794156
 20
42.0830043641
 30
0.0
 10
63.5539610517
 20
42.3730640013
 30
0.0
 10
63.3179051758
 20
42.6203950169
 30
0.0
 10
63.1386144239
 20
42.7557651751
 30
0.0
 10
63.0451962739
 20
42.8148286814
 30
0.0
  0
SPLINE
  5
357
100
AcDbEntity
  8
0
100
AcDbSpline
 62
7
  6
BYLAYER
 70
0
 71
3
 72
11
 73
7
 74
0
 42
0.0000001
 43
0.0000001
 44
0.0000000001
 40
0.0
 40
0.0
 40
0.0
 40
0.0
 40
0.2897016594
 40
0.5490895814
 40
0.7822189142
 40
1.0
 40
1.0
 40
1.0
 40
1.0
 10
33.1417650243
 20
67.8501539476
 30
0.0
 10
33.1417650243
 20
67.9540232778
 30
0.0
 10
33.1575130318
 20
68.1515617438
 30
0.0
 10
33.2375095556
 20
68.4229712451
 30
0.0
 10
33.3722069473
 20
68.6432045159
 30
0.0
 10
33.4987290319
 20
68.7495626423
 30
0.0
 10
33.5663480467
 20
68.7886090786
 30
0.0
  0
SPLINE
  5
358
100
AcDbEntity
  8
0
100
AcDbSpline
 62
7
  6
BYLAYER
 70
0
 71
3
 72
11
 73
7
 74
0
 42
0.0000001
 43
0.0000001
 44
0.0000000001
 40
0.0
 40
0.0
 40
0.0
 40
0.0
 40
0.2897016594
 40
0.5490895814
 40
0.7822189142
 40
1.0
 40
1.0
 40
1.0
 40
1.0
 10
33.1417650243
 20
23.7590234226
 30
0.0
 10
33.1417650243
 20
23.8628927528
 30
0.0
 10
33.1575130318
 20
24.0604312188
 30
0.0
 10
33.2375095556
 20
24.3318407201
 30
0.0
 10
33.3722069473
 20
24.5520739909
 30
0.0
 10
33.4987290319
 20
24.6584321173
 30
0.0
 10
33.5663480467
 20
24.6974785536
 30
0.0
  0
SPLINE
  5
359
100
AcDbEntity
  8
0
100
AcDbSpline
 62
7
  6
BYLAYER
 70
0
 71
3
 72
19
 73
15
 74
0
 42
0.0000001
 43
0.0000001
 44
0.0000000001
 40
0.0
 40
0.0
 40
0.0
 40
0.0
 40
0.0428394104
 40
0.0874448899
 40
0.1352571039
 40
0.1871950253
 40
0.2436735499
 40
0.3046656819
 40
0.4382689093
 40
0.5825434307
 40
0.7296392143
 40
0.871166535
 40
0.9376088396
 40
1.0
 40
1.0
 40
1.0
 40
1.0
 10
35.6163318749
 20
21.1467811981
 30
0.0
 10
35.5657948759
 20
21.1175987304
 30
0.0
 10
35.4543775448
 20
21.0713348442
 30
0.0
 10
35.2704897776
 20
21.044340508
 30
0.0
 10
35.0730128294
 20
21.0589053398
 30
0.0
 10
34.8663433579
 20
21.1138002489
 30
0.0
 10
34.6545162669
 20
21.2073935711
 30
0.0
 10
34.3621182642
 20
21.3863831911
 30
0.0
 10
34.0137793642
 20
21.6948620719
 30
0.0
 10
33.6557544061
 20
22.1532335432
 30
0.0
 10
33.3738369111
 20
22.6741878769
 30
0.0
 10
33.2178408981
 20
23.1352408382
 30
0.0
 10
33.1533454732
 20
23.4984085796
 30
0.0
 10
33.1417650243
 20
23.6740316876
 30
0.0
 10
33.1417650243
 20
23.7590234226
 30
0.0
  0
ENDSEC
  0
SECTION
  2
OBJECTS
  0
DICTIONARY
  5
C
100
AcDbDictionary
280
0
281
1
  3
ACAD_GROUP
350
D
  3
ACAD_MLINESTYLE
350
17
  3
ACAD_LAYOUT
350
1A
  3
ACAD_PLOTSETTINGS
350
19
  3
ACAD_PLOTSTYLENAME
350
E
  0
DICTIONARY
  5
D
102
{ACAD_REACTORS
330
C
102
}
100
AcDbDictionary
280
0
281
1
  0
ACDBDICTIONARYWDFLT
  5
E
102
{ACAD_REACTORS
330
C
102
}
100
AcDbDictionary
281
1
  3
Normal
350
F
100
AcDbDictionaryWithDefault
340
F
  0
DICTIONARY
  5
17
102
{ACAD_REACTORS
330
C
102
}
100
AcDbDictionary
280
0
281
1
  3
Standard
350
18
  0
DICTIONARY
  5
19
102
{ACAD_REACTORS
330
C
102
}
100
AcDbDictionary
281
1
  0
DICTIONARY
  5
1A
102
{ACAD_REACTORS
330
C
102
}
100
AcDbDictionary
281
1
  3
Model
350
35A
  3
Layout1
350
35B
  0
ACDBPLACEHOLDER
  5
F
102
{ACAD_REACTORS
330
E
102
}
  0
MLINESTYLE
  5
18
102
{ACAD_REACTORS
330
17
102
}
100
AcDbMlineStyle
  2
STANDARD
 70
0
  3

 62
256
 51
90.0
 52
90.0
 71
2
 49
0.5
 62
256
  6
BYLAYER
 49
-0.5
 62
256
  6
BYLAYER
  0
LAYOUT
  5
35A
102
{ACAD_REACTORS
330
1A
102
}
100
AcDbPlotSettings
  1

  2
none_device
  4

  6

 40
0.0
 41
0.0
 42
0.0
 43
0.0
 44
210.0
 45
297.0
 46
0.0
 47
0.0
 48
0.0
 49
0.0
140
0.0
141
0.0
142
1.0
143
1.0
 70
1024
 72
1
 73
0
 74
0
  7

 75
0
147
1.0
148
0.0
149
0.0
100
AcDbLayout
  1
Model
 70
0
 71
0
 10
0.0
 20
0.0
 11
210.0
 21
297.0
 12
0.0
 22
0.0
 32
0.0
 14
0.0
 24
0.0
 34
0.0
 15
0.0
 25
0.0
 35
0.0
146
0.0
 13
0.0
 23
0.0
 33
0.0
 16
1.0
 26
0.0
 36
0.0
 17
0.0
 27
1.0
 37
0.0
 76
0
330
210
345
0
346
0
  0
LAYOUT
  5
35B
102
{ACAD_REACTORS
330
1A
102
}
100
AcDbPlotSettings
  1

  2
none_device
  4

  6

 40
0.0
 41
0.0
 42
0.0
 43
0.0
 44
210.0
 45
297.0
 46
0.0
 47
0.0
 48
0.0
 49
0.0
140
0.0
141
0.0
142
1.0
143
1.0
 70
0
 72
1
 73
0
 74
0
  7

 75
0
147
1.0
148
0.0
149
0.0
100
AcDbLayout
  1
Layout1
 70
0
 71
1
 10
0.0
 20
0.0
 11
210.0
 21
297.0
 12
0.0
 22
0.0
 32
0.0
 14
0.0
 24
0.0
 34
0.0
 15
0.0
 25
0.0
 35
0.0
146
0.0
 13
0.0
 23
0.0
 33
0.0
 16
1.0
 26
0.0
 36
0.0
 17
0.0
 27
1.0
 37
0.0
 76
0
330
211
345
0
346
0
  0
ENDSEC
  0
EOF
