999
DXF file: C:\Users\sesa63760\Dev\_Creo\CAD\MCADID0004750_3D-CAD\drw0001_2.dxf
999
Pro/ENGINEER 2019471 by Parametric Technology Corporation
  0
SECTION
  2
HEADER
  9
$ACADVER
  1
AC1024
  9
$DWGCODEPAGE
  3
ANSI_1252
  9
$EXTMAX
 10
68.1507559253
 20
96.3846405229
 30
0.0
  9
$EXTMIN
 10
0.0
 20
0.0
 30
0.0
  9
$LIMMIN
 10
0.0
 20
0.0
  9
$LIMMAX
 10
68.1507559253
 20
96.3846405229
  9
$VIEWCTR
 10
34.0753779626
 20
48.1923202614
  9
$VIEWSIZE
 40
96.3846405229
  9
$CLAYER
  8
0
  9
$LTSCALE
 40
6.2828506415
  9
$CELTYPE
  6
BYLAYER
  9
$DIMSCALE
 40
1.0
  9
$DIMASZ
 40
0.8113185229
  9
$DIMEXO
 40
1.0
  9
$DIMDLI
 40
4.340878625
  9
$DIMEXE
 40
1.0
  9
$DIMCEN
 40
1.0281028322
  9
$DIMLFAC
 40
1.0
  9
$DIMBLK
  1
_FILLED
  9
$DIMALT
 70
0
  9
$DIMALTF
 40
0.0393700787
  9
$DIMTXT
 40
1.1358459321
  9
$DIMTOL
 70
1
  9
$DIMLIM
 70
0
  9
$DIMTFAC
 40
1.0
  9
$DIMTP
 40
0.01
  9
$DIMTM
 40
0.01
  9
$DIMGAP
 40
0.625
  9
$DIMDSEP
 70
46
  9
$AUNITS
 70
0
  9
$PDMODE
 70
3
  9
$PDSIZE
 40
0.3125
  9
$HANDSEED
  5
2F1
  9
$TILEMODE
 70
1
  9
$MEASUREMENT
 70
1
  9
$INSUNITS
 70
4
  0
ENDSEC
  0
SECTION
  2
CLASSES
  0
CLASS
  1
ACDBDICTIONARYWDFLT
  2
AcDbDictionaryWithDefault
  3
AutoCAD 2000
 90
0
 91
1
280
0
281
0
  0
CLASS
  1
ACDBPLACEHOLDER
  2
AcDbPlaceHolder
  3
AutoCAD 2000
 90
0
 91
1
280
0
281
0
  0
CLASS
  1
LAYOUT
  2
AcDbLayout
  3
AutoCAD 2000
 90
0
 91
0
280
0
281
0
  0
ENDSEC
  0
SECTION
  2
TABLES
  0
TABLE
  2
VPORT
  5
8
100
AcDbSymbolTable
 70
2
  0
VPORT
  5
1F4
100
AcDbSymbolTableRecord
100
AcDbViewportTableRecord
  2
*ACTIVE
 70
0
 10
0.0
 20
0.0
 11
1.0
 21
1.0
 12
34.0753779626
 22
48.1923202614
 13
0.0
 23
0.0
 14
1.0
 24
1.0
 15
0.0
 25
0.0
 16
0.0
 26
0.0
 36
1.0
 17
0.0
 27
0.0
 37
0.0
 40
96.3846405229
 41
0.7070707071
 42
50.0
 43
0.0
 44
0.0
 50
0.0
 51
0.0
 71
0
 72
100
 73
1
 74
1
 75
0
 76
0
 77
0
 78
0
  0
ENDTAB
  0
TABLE
  2
LTYPE
  5
5
100
AcDbSymbolTable
 70
6
  0
LTYPE
  5
14
100
AcDbSymbolTableRecord
100
AcDbLinetypeTableRecord
  2
BYBLOCK
 70
0
  3

 72
65
 73
0
 40
0.0
  0
LTYPE
  5
15
100
AcDbSymbolTableRecord
100
AcDbLinetypeTableRecord
  2
BYLAYER
 70
0
  3

 72
65
 73
0
 40
0.0
  0
LTYPE
  5
16
100
AcDbSymbolTableRecord
100
AcDbLinetypeTableRecord
  2
CONTINUOUS
 70
64
  3
Solid line
 72
65
 73
0
 40
0.0
  0
LTYPE
  5
1F5
100
AcDbSymbolTableRecord
100
AcDbLinetypeTableRecord
  2
CENTER
 70
64
  3
____ _ ____ _ ____ _ ____ _ ____ _ ____ _ ____
 72
65
 73
4
 40
0.6
 49
0.375
 74
0
 49
-0.075
 74
0
 49
0.075
 74
0
 49
-0.075
 74
0
  0
LTYPE
  5
1F6
100
AcDbSymbolTableRecord
100
AcDbLinetypeTableRecord
  2
HIDDEN
 70
64
  3
- - - - - - - - - - - - - - - - - - - -
 72
65
 73
2
 40
0.2
 49
0.1
 74
0
 49
-0.1
 74
0
  0
LTYPE
  5
1F7
100
AcDbSymbolTableRecord
100
AcDbLinetypeTableRecord
  2
PHANTOM
 70
64
  3
_____ _ _ _____ _ _ _____ _ _ _____
 72
65
 73
6
 40
0.8
 49
0.45
 74
0
 49
-0.05
 74
0
 49
0.1
 74
0
 49
-0.05
 74
0
 49
0.1
 74
0
 49
-0.05
 74
0
  0
LTYPE
  5
1F8
100
AcDbSymbolTableRecord
100
AcDbLinetypeTableRecord
  2
DOT
 70
64
  3
. . . . . . . . . . . . . . . . . . . .
 72
65
 73
2
 40
0.2
 49
0.1
 74
0
 49
-0.1
 74
0
  0
LTYPE
  5
1F9
100
AcDbSymbolTableRecord
100
AcDbLinetypeTableRecord
  2
DASHED
 70
64
  3
- - - - - - - - - - - - - - - - - - - -
 72
65
 73
2
 40
0.2
 49
0.1
 74
0
 49
-0.1
 74
0
  0
ENDTAB
  0
TABLE
  2
LAYER
  5
2
100
AcDbSymbolTable
 70
36
  0
LAYER
  5
10
100
AcDbSymbolTableRecord
100
AcDbLayerTableRecord
  2
0
 70
0
 62
7
  6
CONTINUOUS
370
-3
390
F
  0
LAYER
  5
1FA
100
AcDbSymbolTableRecord
100
AcDbLayerTableRecord
  2
DEFAULT_1
 70
0
 62
7
  6
CENTER
370
-3
390
F
  0
LAYER
  5
1FB
100
AcDbSymbolTableRecord
100
AcDbLayerTableRecord
  2
DEFAULT_2
 70
0
 62
7
  6
HIDDEN
370
-3
390
F
  0
LAYER
  5
1FC
100
AcDbSymbolTableRecord
100
AcDbLayerTableRecord
  2
DEFAULT_3
 70
0
 62
7
  6
PHANTOM
370
-3
390
F
  0
LAYER
  5
1FD
100
AcDbSymbolTableRecord
100
AcDbLayerTableRecord
  2
00_COMPONENTS
 70
0
 62
7
  6
CONTINUOUS
370
-3
390
F
  0
LAYER
  5
1FE
100
AcDbSymbolTableRecord
100
AcDbLayerTableRecord
  2
01_1_DEFAULT_DATUMS
 70
0
 62
7
  6
CONTINUOUS
370
-3
390
F
  0
LAYER
  5
1FF
100
AcDbSymbolTableRecord
100
AcDbLayerTableRecord
  2
01_PLANES
 70
0
 62
7
  6
CONTINUOUS
370
-3
390
F
  0
LAYER
  5
200
100
AcDbSymbolTableRecord
100
AcDbLayerTableRecord
  2
02_COORD_SYS
 70
0
 62
7
  6
CONTINUOUS
370
-3
390
F
  0
LAYER
  5
201
100
AcDbSymbolTableRecord
100
AcDbLayerTableRecord
  2
03_AXES
 70
0
 62
7
  6
CONTINUOUS
370
-3
390
F
  0
LAYER
  5
202
100
AcDbSymbolTableRecord
100
AcDbLayerTableRecord
  2
04_POINTS
 70
0
 62
7
  6
CONTINUOUS
370
-3
390
F
  0
LAYER
  5
203
100
AcDbSymbolTableRecord
100
AcDbLayerTableRecord
  2
05_CURVES
 70
0
 62
7
  6
CONTINUOUS
370
-3
390
F
  0
LAYER
  5
204
100
AcDbSymbolTableRecord
100
AcDbLayerTableRecord
  2
06_SURFS
 70
0
 62
7
  6
CONTINUOUS
370
-3
390
F
  0
LAYER
  5
205
100
AcDbSymbolTableRecord
100
AcDbLayerTableRecord
  2
07_COSMETICS
 70
0
 62
7
  6
CONTINUOUS
370
-3
390
F
  0
LAYER
  5
206
100
AcDbSymbolTableRecord
100
AcDbLayerTableRecord
  2
10_NOTES
 70
0
 62
7
  6
CONTINUOUS
370
-3
390
F
  0
LAYER
  5
207
100
AcDbSymbolTableRecord
100
AcDbLayerTableRecord
  2
11_NOTES_PUB
 70
0
 62
7
  6
CONTINUOUS
370
-3
390
F
  0
LAYER
  5
208
100
AcDbSymbolTableRecord
100
AcDbLayerTableRecord
  2
13_REF_GTOL
 70
0
 62
7
  6
CONTINUOUS
370
-3
390
F
  0
LAYER
  5
209
100
AcDbSymbolTableRecord
100
AcDbLayerTableRecord
  2
16_MISC
 70
0
 62
7
  6
CONTINUOUS
370
-3
390
F
  0
LAYER
  5
20A
100
AcDbSymbolTableRecord
100
AcDbLayerTableRecord
  2
17_NO_PRINT
 70
0
 62
7
  6
CONTINUOUS
370
-3
390
F
  0
LAYER
  5
20B
100
AcDbSymbolTableRecord
100
AcDbLayerTableRecord
  2
18_DATUM_CAMS_JOINTS
 70
0
 62
7
  6
CONTINUOUS
370
-3
390
F
  0
LAYER
  5
20C
100
AcDbSymbolTableRecord
100
AcDbLayerTableRecord
  2
19_DATUM_FUNCTIONAL
 70
0
 62
7
  6
CONTINUOUS
370
-3
390
F
  0
LAYER
  5
20D
100
AcDbSymbolTableRecord
100
AcDbLayerTableRecord
  2
20_DATUM_KINEMATIC_SCHEME
 70
0
 62
7
  6
CONTINUOUS
370
-3
390
F
  0
ENDTAB
  0
TABLE
  2
STYLE
  5
3
100
AcDbSymbolTable
 70
1
  0
STYLE
  5
11
100
AcDbSymbolTableRecord
100
AcDbTextStyleTableRecord
  2
STANDARD
 70
0
 40
0.0
 41
1.0
 50
0.0
 71
0
 42
0.2
  3
ARIAL.TTF
  4

  0
STYLE
  5
20E
100
AcDbSymbolTableRecord
100
AcDbTextStyleTableRecord
  2
TEXTSTYLE_1
 70
0
 40
0.0
 41
0.8
 50
0.0
 71
0
 42
0.2
  3
gdt
  4

  0
ENDTAB
  0
TABLE
  2
VIEW
  5
6
100
AcDbSymbolTable
 70
0
  0
ENDTAB
  0
TABLE
  2
UCS
  5
7
100
AcDbSymbolTable
 70
0
  0
ENDTAB
  0
TABLE
  2
APPID
  5
9
100
AcDbSymbolTable
 70
1
  0
APPID
  5
20F
100
AcDbSymbolTableRecord
100
AcDbRegAppTableRecord
  2
ACAD
 70
0
  0
ENDTAB
  0
TABLE
  2
BLOCK_RECORD
  5
1
100
AcDbSymbolTable
 70
0
  0
BLOCK_RECORD
  5
210
100
AcDbSymbolTableRecord
100
AcDbBlockTableRecord
  2
*Model_Space
  0
BLOCK_RECORD
  5
211
100
AcDbSymbolTableRecord
100
AcDbBlockTableRecord
  2
*Paper_Space
  0
BLOCK_RECORD
  5
212
100
AcDbSymbolTableRecord
100
AcDbBlockTableRecord
  2
_FILLED
  0
ENDTAB
  0
TABLE
  2
DIMSTYLE
  5
A
100
AcDbSymbolTable
 70
1
100
AcDbDimStyleTable
 71
0
  0
DIMSTYLE
105
213
100
AcDbSymbolTableRecord
100
AcDbDimStyleTableRecord
  2
STANDARD
 70
0
  3

  4

 40
1.0
 41
0.8113185229
 42
1.0
 43
0.38
 44
1.0
 45
0.0
 46
0.0
 47
0.01
 48
0.01
140
1.1358459321
141
0.09
142
0.0
143
25.4
144
1.0
145
0.0
146
1.0
147
0.625
 71
1
 72
0
 73
0
 74
0
 75
0
 76
0
 77
1
 78
8
 79
2
170
0
171
1
172
0
173
0
174
0
175
0
176
0
177
0
178
0
270
2
179
2
271
2
272
2
273
2
274
2
275
0
280
0
281
0
282
0
283
1
284
8
285
0
286
0
287
3
288
0
340
11
278
46
341
212
342
212
343
212
344
212
  0
ENDTAB
  0
ENDSEC
  0
SECTION
  2
BLOCKS
  0
BLOCK
  5
20
100
AcDbEntity
  8
0
100
AcDbBlockBegin
  2
*Model_Space
 70
0
 10
0.0
 20
0.0
 30
0.0
  3
*Model_Space
  1

  0
ENDBLK
  5
21
100
AcDbEntity
  8
0
100
AcDbBlockEnd
  0
BLOCK
  5
1C
100
AcDbEntity
  8
0
100
AcDbBlockBegin
  2
*Paper_Space
 70
0
 10
0.0
 20
0.0
 30
0.0
  3
*Paper_Space
  1

  0
ENDBLK
  5
1D
100
AcDbEntity
  8
0
100
AcDbBlockEnd
  0
BLOCK
  5
214
100
AcDbEntity
  8
0
100
AcDbBlockBegin
  2
_FILLED
 70
64
 10
0.0
 20
0.0
  3
_FILLED
  1

  0
SOLID
  5
215
100
AcDbEntity
  8
0
  6
BYBLOCK
 62
0
100
AcDbTrace
 10
0.0
 20
0.0
 11
-1.0
 21
0.25
 12
-1.0
 22
-0.25
 13
-1.0
 23
-0.25
  0
ENDBLK
  5
216
100
AcDbEntity
  8
0
  6
BYBLOCK
 62
0
100
AcDbBlockEnd
  0
ENDSEC
  0
SECTION
  2
ENTITIES
  0
LINE
  5
217
100
AcDbEntity
  8
0
100
AcDbLine
 62
7
  6
BYLAYER
 10
7.4722733875
 20
49.2653594771
 11
7.4722733875
 21
57.2653594771
  0
LINE
  5
218
100
AcDbEntity
  8
0
100
AcDbLine
 62
7
  6
BYLAYER
 10
10.9722733875
 20
57.2653594771
 11
10.9722733875
 21
49.2653594771
  0
LINE
  5
219
100
AcDbEntity
  8
0
100
AcDbLine
 62
7
  6
BYLAYER
 10
15.9722733875
 20
49.2653594771
 11
15.9722733875
 21
57.2653594771
  0
LINE
  5
21A
100
AcDbEntity
  8
0
100
AcDbLine
 62
7
  6
BYLAYER
 10
19.9722733875
 20
57.2653594771
 11
19.9722733875
 21
49.2653594771
  0
LINE
  5
21B
100
AcDbEntity
  8
0
100
AcDbLine
 62
7
  6
BYLAYER
 10
20.2722733875
 20
49.7653594771
 11
20.2722733875
 21
56.7653594771
  0
LINE
  5
21C
100
AcDbEntity
  8
0
100
AcDbLine
 62
7
  6
BYLAYER
 10
48.1222735381
 20
33.7653594771
 11
59.1222732368
 21
33.7653594771
  0
LINE
  5
21D
100
AcDbEntity
  8
0
100
AcDbLine
 62
7
  6
BYLAYER
 10
29.6315997232
 20
60.8801131839
 11
30.2722733875
 21
61.1653594771
  0
LINE
  5
21E
100
AcDbEntity
  8
0
100
AcDbLine
 62
7
  6
BYLAYER
 10
30.7222733875
 20
61.1653594771
 11
30.9722733875
 21
61.2653594771
  0
LINE
  5
21F
100
AcDbEntity
  8
0
100
AcDbLine
 62
7
  6
BYLAYER
 10
59.3722733875
 20
34.0153594771
 11
54.6899812127
 21
34.0153594771
  0
LINE
  5
220
100
AcDbEntity
  8
0
100
AcDbLine
 62
7
  6
BYLAYER
 10
52.5545655623
 20
34.0153594771
 11
47.8722733875
 21
34.0153594771
  0
LINE
  5
221
100
AcDbEntity
  8
0
100
AcDbLine
 62
7
  6
BYLAYER
 10
47.8722733875
 20
35.4153594771
 11
48.6426273156
 21
35.4153594771
  0
LINE
  5
222
100
AcDbEntity
  8
0
100
AcDbLine
 62
7
  6
BYLAYER
 10
58.6019194595
 20
35.4153594771
 11
59.3718425914
 21
35.4153594771
  0
LINE
  5
223
100
AcDbEntity
  8
0
100
AcDbLine
 62
7
  6
BYLAYER
 10
48.1223520743
 20
35.6653594771
 11
48.8473380037
 21
35.6653594771
  0
LINE
  5
224
100
AcDbEntity
  8
0
100
AcDbLine
 62
7
  6
BYLAYER
 10
58.4040829236
 20
35.6653594771
 11
59.1218613217
 21
35.6653594771
  0
LINE
  5
225
100
AcDbEntity
  8
0
100
AcDbLine
 62
7
  6
BYLAYER
 10
48.9835290126
 20
35.9153594853
 11
48.9352135501
 21
35.9153594853
  0
LINE
  5
226
100
AcDbEntity
  8
0
100
AcDbLine
 62
7
  6
BYLAYER
 10
58.2610177624
 20
35.9153605089
 11
58.3093332248
 21
35.9153554522
  0
LINE
  5
227
100
AcDbEntity
  8
0
100
AcDbLine
 62
7
  6
BYLAYER
 10
24.4722733875
 20
49.2653594771
 11
24.4722733875
 21
49.7653594771
  0
LINE
  5
228
100
AcDbEntity
  8
0
100
AcDbLine
 62
7
  6
BYLAYER
 10
24.4722733875
 20
56.7653594771
 11
24.4722733875
 21
57.2653594771
  0
LINE
  5
229
100
AcDbEntity
  8
0
100
AcDbLine
 62
7
  6
BYLAYER
 10
29.1722733875
 20
58.2653594771
 11
29.5722733875
 21
58.6653594771
  0
LINE
  5
22A
100
AcDbEntity
  8
0
100
AcDbLine
 62
7
  6
BYLAYER
 10
58.2610177624
 20
37.1153594688
 11
58.3093332233
 21
37.1153594688
  0
LINE
  5
22B
100
AcDbEntity
  8
0
100
AcDbLine
 62
7
  6
BYLAYER
 10
48.9835290126
 20
37.1153665074
 11
48.9352135501
 21
37.1153684905
  0
LINE
  5
22C
100
AcDbEntity
  8
0
100
AcDbLine
 62
7
  6
BYLAYER
 10
59.9722733875
 20
37.3653594771
 11
47.2722733875
 21
37.3653594771
  0
LINE
  5
22D
100
AcDbEntity
  8
0
100
AcDbLine
 62
7
  6
BYLAYER
 10
47.2722733875
 20
37.9653594771
 11
59.9722733875
 21
37.9653594771
  0
LINE
  5
22E
100
AcDbEntity
  8
0
100
AcDbLine
 62
7
  6
BYLAYER
 10
59.6222733875
 20
38.0653594771
 11
47.6222733875
 21
38.0653594771
  0
LINE
  5
22F
100
AcDbEntity
  8
0
100
AcDbLine
 62
7
  6
BYLAYER
 10
59.6222733875
 20
39.0653594771
 11
47.6222733875
 21
39.0653594771
  0
LINE
  5
230
100
AcDbEntity
  8
0
100
AcDbLine
 62
7
  6
BYLAYER
 10
59.9722733875
 20
39.1653594771
 11
47.2722733875
 21
39.1653594771
  0
LINE
  5
231
100
AcDbEntity
  8
0
100
AcDbLine
 62
7
  6
BYLAYER
 10
29.5722733875
 20
53.0153594771
 11
30.2722733875
 21
53.2653594771
  0
LINE
  5
232
100
AcDbEntity
  8
0
100
AcDbLine
 62
7
  6
BYLAYER
 10
47.2722733875
 20
40.3153594771
 11
59.9722733875
 21
40.3153594771
  0
LINE
  5
233
100
AcDbEntity
  8
0
100
AcDbLine
 62
7
  6
BYLAYER
 10
60.3222733875
 20
41.6153594771
 11
46.9222733875
 21
41.6153594771
  0
LINE
  5
234
100
AcDbEntity
  8
0
100
AcDbLine
 62
7
  6
BYLAYER
 10
60.7958228282
 20
41.7653594771
 11
59.5735807302
 21
41.7653594771
  0
LINE
  5
235
100
AcDbEntity
  8
0
100
AcDbLine
 62
7
  6
BYLAYER
 10
56.6999252379
 20
41.7653594771
 11
55.6542546728
 21
41.7653594771
  0
LINE
  5
236
100
AcDbEntity
  8
0
100
AcDbLine
 62
7
  6
BYLAYER
 10
55.0547451106
 20
41.7653594771
 11
53.9326023723
 21
41.7653594771
  0
LINE
  5
237
100
AcDbEntity
  8
0
100
AcDbLine
 62
7
  6
BYLAYER
 10
53.3119444026
 20
41.7653594771
 11
52.1898016643
 21
41.7653594771
  0
LINE
  5
238
100
AcDbEntity
  8
0
100
AcDbLine
 62
7
  6
BYLAYER
 10
51.5902921021
 20
41.7653594771
 11
50.544621537
 21
41.7653594771
  0
LINE
  5
239
100
AcDbEntity
  8
0
100
AcDbLine
 62
7
  6
BYLAYER
 10
47.6709660448
 20
41.7653594771
 11
46.533570384
 21
41.7653594771
  0
LINE
  5
23A
100
AcDbEntity
  8
0
100
AcDbLine
 62
7
  6
BYLAYER
 10
60.9854417841
 20
41.9653594771
 11
60.9253997357
 21
41.9653594771
  0
LINE
  5
23B
100
AcDbEntity
  8
0
100
AcDbLine
 62
7
  6
BYLAYER
 10
60.5436960745
 20
41.9653594771
 11
60.3676616956
 21
41.9653594771
  0
LINE
  5
23C
100
AcDbEntity
  8
0
100
AcDbLine
 62
7
  6
BYLAYER
 10
56.6652549142
 20
41.9653594771
 11
56.2402703293
 21
41.9653594771
  0
LINE
  5
23D
100
AcDbEntity
  8
0
100
AcDbLine
 62
7
  6
BYLAYER
 10
54.8157328723
 20
41.9653594771
 11
54.3596682361
 21
41.9653594771
  0
LINE
  5
23E
100
AcDbEntity
  8
0
100
AcDbLine
 62
7
  6
BYLAYER
 10
52.8848785388
 20
41.9653594771
 11
52.4288139026
 21
41.9653594771
  0
LINE
  5
23F
100
AcDbEntity
  8
0
100
AcDbLine
 62
7
  6
BYLAYER
 10
51.0042764456
 20
41.9653594771
 11
50.5792918607
 21
41.9653594771
  0
LINE
  5
240
100
AcDbEntity
  8
0
100
AcDbLine
 62
7
  6
BYLAYER
 10
46.8768850793
 20
41.9653594771
 11
46.7008507004
 21
41.9653594771
  0
LINE
  5
241
100
AcDbEntity
  8
0
100
AcDbLine
 62
7
  6
BYLAYER
 10
46.3191470393
 20
41.9653594771
 11
46.2591049908
 21
41.9653594771
  0
LINE
  5
242
100
AcDbEntity
  8
0
100
AcDbLine
 62
7
  6
BYLAYER
 10
29.1722733875
 20
48.2653594771
 11
29.1722733875
 21
58.2653594771
  0
LINE
  5
243
100
AcDbEntity
  8
0
100
AcDbLine
 62
7
  6
BYLAYER
 10
29.5722733875
 20
45.7419660249
 11
29.5722733875
 21
46.8220824177
  0
LINE
  5
244
100
AcDbEntity
  8
0
100
AcDbLine
 62
7
  6
BYLAYER
 10
29.5722733875
 20
46.8785028908
 11
29.5722733875
 21
53.0153594771
  0
LINE
  5
245
100
AcDbEntity
  8
0
100
AcDbLine
 62
7
  6
BYLAYER
 10
29.5722733875
 20
53.5153594771
 11
29.5722733875
 21
59.6522160635
  0
LINE
  5
246
100
AcDbEntity
  8
0
100
AcDbLine
 62
7
  6
BYLAYER
 10
29.5722733875
 20
59.7086365366
 11
29.5722733875
 21
60.7887529294
  0
LINE
  5
247
100
AcDbEntity
  8
0
100
AcDbLine
 62
7
  6
BYLAYER
 10
29.6315997232
 20
45.6506057704
 11
29.6315997232
 21
46.5593611919
  0
LINE
  5
248
100
AcDbEntity
  8
0
100
AcDbLine
 62
7
  6
BYLAYER
 10
29.6315997232
 20
46.7881733657
 11
29.6315997232
 21
53.0365475502
  0
LINE
  5
249
100
AcDbEntity
  8
0
100
AcDbLine
 62
7
  6
BYLAYER
 10
29.6315997232
 20
53.4941718736
 11
29.6315997232
 21
59.7425458355
  0
LINE
  5
24A
100
AcDbEntity
  8
0
100
AcDbLine
 62
7
  6
BYLAYER
 10
29.6315997232
 20
59.971357985
 11
29.6315997232
 21
60.8801131839
  0
LINE
  5
24B
100
AcDbEntity
  8
0
100
AcDbLine
 62
7
  6
BYLAYER
 10
29.6722733875
 20
53.0510737628
 11
29.6722733875
 21
53.4796451914
  0
LINE
  5
24C
100
AcDbEntity
  8
0
100
AcDbLine
 62
7
  6
BYLAYER
 10
30.2722733875
 20
45.3653594771
 11
30.2722733875
 21
61.1653594771
  0
LINE
  5
24D
100
AcDbEntity
  8
0
100
AcDbLine
 62
7
  6
BYLAYER
 10
30.7222733875
 20
61.1653594771
 11
30.7222733875
 21
45.3653594771
  0
LINE
  5
24E
100
AcDbEntity
  8
0
100
AcDbLine
 62
7
  6
BYLAYER
 10
61.6222733875
 20
43.7653594771
 11
45.6222733875
 21
43.7653594771
  0
LINE
  5
24F
100
AcDbEntity
  8
0
100
AcDbLine
 62
7
  6
BYLAYER
 10
30.7222733875
 20
45.3653594771
 11
30.9722733875
 21
45.2653594771
  0
LINE
  5
250
100
AcDbEntity
  8
0
100
AcDbLine
 62
7
  6
BYLAYER
 10
29.6315997232
 20
45.6506057704
 11
30.2722733875
 21
45.3653594771
  0
LINE
  5
251
100
AcDbEntity
  8
0
100
AcDbLine
 62
7
  6
BYLAYER
 10
30.9722733875
 20
44.4153594771
 11
30.9722733875
 21
62.2653563753
  0
LINE
  5
252
100
AcDbEntity
  8
0
100
AcDbLine
 62
7
  6
BYLAYER
 10
35.4722733875
 20
44.2653594771
 11
45.3722733874
 21
44.2653594771
  0
LINE
  5
253
100
AcDbEntity
  8
0
100
AcDbLine
 62
7
  6
BYLAYER
 10
30.9722733875
 20
44.4153594771
 11
35.4722733875
 21
44.4153594771
  0
LINE
  5
254
100
AcDbEntity
  8
0
100
AcDbLine
 62
7
  6
BYLAYER
 10
30.7222733875
 20
45.3653594771
 11
30.2722733875
 21
45.3653594771
  0
LINE
  5
255
100
AcDbEntity
  8
0
100
AcDbLine
 62
7
  6
BYLAYER
 10
29.5722733875
 20
47.8653594771
 11
29.1722733875
 21
48.2653594771
  0
LINE
  5
256
100
AcDbEntity
  8
0
100
AcDbLine
 62
7
  6
BYLAYER
 10
35.4722733875
 20
44.2654084531
 11
35.4722733875
 21
44.4153594771
  0
LINE
  5
257
100
AcDbEntity
  8
0
100
AcDbLine
 62
7
  6
BYLAYER
 10
51.3418666037
 20
48.6296506944
 11
30.9722733875
 21
48.6296506944
  0
LINE
  5
258
100
AcDbEntity
  8
0
100
AcDbLine
 62
7
  6
BYLAYER
 10
29.1722733875
 20
49.2653594771
 11
24.4722733875
 21
49.2653594771
  0
LINE
  5
259
100
AcDbEntity
  8
0
100
AcDbLine
 62
7
  6
BYLAYER
 10
7.4722733875
 20
49.2653594771
 11
10.9722733875
 21
49.2653594771
  0
LINE
  5
25A
100
AcDbEntity
  8
0
100
AcDbLine
 62
7
  6
BYLAYER
 10
15.9722733875
 20
49.2653594771
 11
19.9722733875
 21
49.2653594771
  0
LINE
  5
25B
100
AcDbEntity
  8
0
100
AcDbLine
 62
7
  6
BYLAYER
 10
53.6222733875
 20
49.6598082017
 11
30.9722733875
 21
49.6598082017
  0
LINE
  5
25C
100
AcDbEntity
  8
0
100
AcDbLine
 62
7
  6
BYLAYER
 10
20.2722733875
 20
49.7653594771
 11
24.4722733875
 21
49.7653594771
  0
LINE
  5
25D
100
AcDbEntity
  8
0
100
AcDbLine
 62
7
  6
BYLAYER
 10
15.9722733875
 20
50.7653594771
 11
10.9722733875
 21
50.7653594771
  0
LINE
  5
25E
100
AcDbEntity
  8
0
100
AcDbLine
 62
7
  6
BYLAYER
 10
30.2722733875
 20
53.2653594771
 11
29.5722733875
 21
53.5153594771
  0
LWPOLYLINE
  5
25F
100
AcDbEntity
  8
0
100
AcDbPolyline
 62
7
  6
BYLAYER
 90
5
 70
0
 10
58.4079216314
 20
35.6617745847
 10
58.4061411168
 20
35.6629062413
 10
58.359412157
 20
35.7186041972
 10
58.3156548109
 20
35.8418723181
 10
58.309327462
 20
35.9152819857
  0
LINE
  5
260
100
AcDbEntity
  8
0
100
AcDbLine
 62
7
  6
BYLAYER
 10
19.7442200311
 20
53.2653594771
 11
16.2003267438
 21
53.2653594771
  0
LINE
  5
261
100
AcDbEntity
  8
0
100
AcDbLine
 62
7
  6
BYLAYER
 10
8.091075541
 20
53.2653594771
 11
10.353471234
 21
53.2653594771
  0
LWPOLYLINE
  5
262
100
AcDbEntity
  8
0
100
AcDbPolyline
 62
7
  6
BYLAYER
 90
4
 70
0
 10
48.8417857718
 20
37.3653594771
 10
48.885135009
 20
37.3121140522
 10
48.928889259
 20
37.1888619079
 10
48.9352197588
 20
37.1154124756
  0
LINE
  5
263
100
AcDbEntity
  8
0
100
AcDbLine
 62
7
  6
BYLAYER
 10
10.9722733875
 20
55.7653594771
 11
15.9722733875
 21
55.7653594771
  0
LINE
  5
264
100
AcDbEntity
  8
0
100
AcDbLine
 62
7
  6
BYLAYER
 10
24.4722733875
 20
56.7653594771
 11
20.2722733875
 21
56.7653594771
  0
LINE
  5
265
100
AcDbEntity
  8
0
100
AcDbLine
 62
7
  6
BYLAYER
 10
19.9722733875
 20
57.2653594771
 11
15.9722733875
 21
57.2653594771
  0
LINE
  5
266
100
AcDbEntity
  8
0
100
AcDbLine
 62
7
  6
BYLAYER
 10
7.4722733875
 20
57.2653594771
 11
10.9722733875
 21
57.2653594771
  0
LINE
  5
267
100
AcDbEntity
  8
0
100
AcDbLine
 62
7
  6
BYLAYER
 10
24.4722733875
 20
57.2653594771
 11
29.1722733875
 21
57.2653594771
  0
LWPOLYLINE
  5
268
100
AcDbEntity
  8
0
100
AcDbPolyline
 62
7
  6
BYLAYER
 90
3
 70
0
 10
48.8995711033
 20
37.2714487551
 10
48.9281060161
 20
37.1932231109
 10
48.9283711218
 20
37.1903214581
  0
LINE
  5
269
100
AcDbEntity
  8
0
100
AcDbLine
 62
7
  6
BYLAYER
 10
45.6222733875
 20
44.0153594771
 11
45.6222733875
 21
43.7653594771
  0
LINE
  5
26A
100
AcDbEntity
  8
0
100
AcDbLine
 62
7
  6
BYLAYER
 10
46.2591049908
 20
43.7653594771
 11
46.2591049908
 21
41.9653594771
  0
LINE
  5
26B
100
AcDbEntity
  8
0
100
AcDbLine
 62
7
  6
BYLAYER
 10
46.3191470393
 20
41.9653594771
 11
46.3191470393
 21
43.7653594771
  0
LINE
  5
26C
100
AcDbEntity
  8
0
100
AcDbLine
 62
7
  6
BYLAYER
 10
46.7008507004
 20
43.7653594771
 11
46.7008507004
 21
41.9653594771
  0
LINE
  5
26D
100
AcDbEntity
  8
0
100
AcDbLine
 62
7
  6
BYLAYER
 10
46.8768850793
 20
41.9653594771
 11
46.8768850793
 21
43.7653594771
  0
LINE
  5
26E
100
AcDbEntity
  8
0
100
AcDbLine
 62
7
  6
BYLAYER
 10
46.9222733875
 20
41.7653594771
 11
46.9222733875
 21
41.6153594771
  0
LINE
  5
26F
100
AcDbEntity
  8
0
100
AcDbLine
 62
7
  6
BYLAYER
 10
30.9722733875
 20
59.6529857123
 11
53.6222733875
 21
59.6529857123
  0
LINE
  5
270
100
AcDbEntity
  8
0
100
AcDbLine
 62
7
  6
BYLAYER
 10
47.2722733875
 20
40.3153594771
 11
47.2722733875
 21
39.1653594771
  0
LINE
  5
271
100
AcDbEntity
  8
0
100
AcDbLine
 62
7
  6
BYLAYER
 10
47.2722733875
 20
37.9653594771
 11
47.2722733875
 21
37.3653594771
  0
LINE
  5
272
100
AcDbEntity
  8
0
100
AcDbLine
 62
7
  6
BYLAYER
 10
47.6709660448
 20
43.7653594771
 11
47.6709660448
 21
41.7653594771
  0
LINE
  5
273
100
AcDbEntity
  8
0
100
AcDbLine
 62
7
  6
BYLAYER
 10
47.8722733875
 20
35.4153594771
 11
47.8722733875
 21
34.0153594771
  0
LINE
  5
274
100
AcDbEntity
  8
0
100
AcDbLine
 62
7
  6
BYLAYER
 10
48.1222733875
 20
41.6153594771
 11
48.1222733875
 21
40.3153594771
  0
LINE
  5
275
100
AcDbEntity
  8
0
100
AcDbLine
 62
7
  6
BYLAYER
 10
48.9352135501
 20
37.1153684905
 11
48.9352135501
 21
35.9153594853
  0
LINE
  5
276
100
AcDbEntity
  8
0
100
AcDbLine
 62
7
  6
BYLAYER
 10
48.9835290126
 20
37.1153594536
 11
48.9835290126
 21
35.9153594883
  0
LINE
  5
277
100
AcDbEntity
  8
0
100
AcDbLine
 62
7
  6
BYLAYER
 10
30.7222733875
 20
61.1653594771
 11
30.2722733875
 21
61.1653594771
  0
LINE
  5
278
100
AcDbEntity
  8
0
100
AcDbLine
 62
7
  6
BYLAYER
 10
30.9722733875
 20
61.6117484218
 11
53.6222733875
 21
61.6117484218
  0
LINE
  5
279
100
AcDbEntity
  8
0
100
AcDbLine
 62
7
  6
BYLAYER
 10
59.6222710059
 20
62.2653594771
 11
30.9722733875
 21
62.2653594771
  0
LINE
  5
27A
100
AcDbEntity
  8
0
100
AcDbLine
 62
7
  6
BYLAYER
 10
50.544621537
 20
41.7653594771
 11
50.544621537
 21
43.7653594771
  0
LINE
  5
27B
100
AcDbEntity
  8
0
100
AcDbLine
 62
7
  6
BYLAYER
 10
50.5792918607
 20
43.7653594771
 11
50.5792918607
 21
41.9653594771
  0
LINE
  5
27C
100
AcDbEntity
  8
0
100
AcDbLine
 62
7
  6
BYLAYER
 10
51.0042764456
 20
41.9653594771
 11
51.0042764456
 21
43.7653594771
  0
LWPOLYLINE
  5
27D
100
AcDbEntity
  8
0
100
AcDbPolyline
 62
7
  6
BYLAYER
 90
4
 70
0
 10
48.9352194657
 20
35.9153595047
 10
48.9258306943
 20
35.8260907538
 10
48.8798244523
 20
35.7099233434
 10
48.8473380037
 20
35.670028725
  0
LINE
  5
27E
100
AcDbEntity
  8
0
100
AcDbLine
 62
7
  6
BYLAYER
 10
51.5902921021
 20
43.7653594771
 11
51.5902921021
 21
41.7653594771
  0
LINE
  5
27F
100
AcDbEntity
  8
0
100
AcDbLine
 62
7
  6
BYLAYER
 10
52.1898016643
 20
41.7653594771
 11
52.1898016643
 21
43.7653594771
  0
LINE
  5
280
100
AcDbEntity
  8
0
100
AcDbLine
 62
7
  6
BYLAYER
 10
52.4288139026
 20
43.7653594771
 11
52.4288139026
 21
41.9653594771
  0
LINE
  5
281
100
AcDbEntity
  8
0
100
AcDbLine
 62
7
  6
BYLAYER
 10
52.5545655623
 20
34.0153594771
 11
52.5545655623
 21
37.3653594771
  0
LINE
  5
282
100
AcDbEntity
  8
0
100
AcDbLine
 62
7
  6
BYLAYER
 10
52.8848785388
 20
41.9653594771
 11
52.8848785388
 21
43.7653594771
  0
LINE
  5
283
100
AcDbEntity
  8
0
100
AcDbLine
 62
7
  6
BYLAYER
 10
53.3119444026
 20
43.7653594771
 11
53.3119444026
 21
41.7653594771
  0
LINE
  5
284
100
AcDbEntity
  8
0
100
AcDbLine
 62
7
  6
BYLAYER
 10
53.6222733875
 20
61.6117484218
 11
53.6222733875
 21
49.6598082017
  0
LINE
  5
285
100
AcDbEntity
  8
0
100
AcDbLine
 62
7
  6
BYLAYER
 10
53.9326023723
 20
41.7653594771
 11
53.9326023723
 21
43.7653594771
  0
LINE
  5
286
100
AcDbEntity
  8
0
100
AcDbLine
 62
7
  6
BYLAYER
 10
54.3596682361
 20
43.7653594771
 11
54.3596682361
 21
41.9653594771
  0
LINE
  5
287
100
AcDbEntity
  8
0
100
AcDbLine
 62
7
  6
BYLAYER
 10
54.6899812127
 20
37.3653594771
 11
54.6899812127
 21
34.0153594771
  0
LINE
  5
288
100
AcDbEntity
  8
0
100
AcDbLine
 62
7
  6
BYLAYER
 10
54.8157328723
 20
41.9653594771
 11
54.8157328723
 21
43.7653594771
  0
LINE
  5
289
100
AcDbEntity
  8
0
100
AcDbLine
 62
7
  6
BYLAYER
 10
55.0547451106
 20
43.7653594771
 11
55.0547451106
 21
41.7653594771
  0
LINE
  5
28A
100
AcDbEntity
  8
0
100
AcDbLine
 62
7
  6
BYLAYER
 10
58.3453157645
 20
35.7455979514
 11
58.3368529694
 21
35.7821553243
  0
LINE
  5
28B
100
AcDbEntity
  8
0
100
AcDbLine
 62
7
  6
BYLAYER
 10
55.6542546728
 20
41.7653594771
 11
55.6542546728
 21
43.7653594771
  0
LINE
  5
28C
100
AcDbEntity
  8
0
100
AcDbLine
 62
7
  6
BYLAYER
 10
56.2402703293
 20
43.7653594771
 11
56.2402703293
 21
41.9653594771
  0
LINE
  5
28D
100
AcDbEntity
  8
0
100
AcDbLine
 62
7
  6
BYLAYER
 10
56.6652549142
 20
41.9653594771
 11
56.6652549142
 21
43.7653594771
  0
LINE
  5
28E
100
AcDbEntity
  8
0
100
AcDbLine
 62
7
  6
BYLAYER
 10
56.6999252379
 20
43.7653594771
 11
56.6999252379
 21
41.7653594771
  0
LINE
  5
28F
100
AcDbEntity
  8
0
100
AcDbLine
 62
7
  6
BYLAYER
 10
58.2610177624
 20
35.9153594877
 11
58.2610177624
 21
37.115359468
  0
LINE
  5
290
100
AcDbEntity
  8
0
100
AcDbLine
 62
7
  6
BYLAYER
 10
58.3093332248
 20
35.9153554522
 11
58.3093332248
 21
37.1153594688
  0
LINE
  5
291
100
AcDbEntity
  8
0
100
AcDbLine
 62
7
  6
BYLAYER
 10
59.1222733875
 20
40.3153594771
 11
59.1222733875
 21
41.6153594771
  0
LINE
  5
292
100
AcDbEntity
  8
0
100
AcDbLine
 62
7
  6
BYLAYER
 10
59.3722733875
 20
34.0153594771
 11
59.3722733875
 21
35.4153594771
  0
LINE
  5
293
100
AcDbEntity
  8
0
100
AcDbLine
 62
7
  6
BYLAYER
 10
59.5735807302
 20
41.7653594771
 11
59.5735807302
 21
43.7653594771
  0
LINE
  5
294
100
AcDbEntity
  8
0
100
AcDbLine
 62
7
  6
BYLAYER
 10
59.9722733875
 20
37.3653594771
 11
59.9722733875
 21
37.9653594771
  0
LINE
  5
295
100
AcDbEntity
  8
0
100
AcDbLine
 62
7
  6
BYLAYER
 10
59.9722733875
 20
39.1653594771
 11
59.9722733875
 21
40.3153594771
  0
LINE
  5
296
100
AcDbEntity
  8
0
100
AcDbLine
 62
7
  6
BYLAYER
 10
60.3222733875
 20
41.6153594771
 11
60.3222733875
 21
41.7653594771
  0
LINE
  5
297
100
AcDbEntity
  8
0
100
AcDbLine
 62
7
  6
BYLAYER
 10
60.3676616956
 20
43.7653594771
 11
60.3676616956
 21
41.9653594771
  0
LINE
  5
298
100
AcDbEntity
  8
0
100
AcDbLine
 62
7
  6
BYLAYER
 10
60.5436960745
 20
41.9653594771
 11
60.5436960745
 21
43.7653594771
  0
LINE
  5
299
100
AcDbEntity
  8
0
100
AcDbLine
 62
7
  6
BYLAYER
 10
60.9253997357
 20
43.7653594771
 11
60.9253997357
 21
41.9653594771
  0
LINE
  5
29A
100
AcDbEntity
  8
0
100
AcDbLine
 62
7
  6
BYLAYER
 10
60.9854417841
 20
41.9653594771
 11
60.9854417841
 21
43.7653594771
  0
LWPOLYLINE
  5
29B
100
AcDbEntity
  8
0
100
AcDbPolyline
 62
7
  6
BYLAYER
 90
4
 70
0
 10
58.3093268501
 20
37.1153594508
 10
58.3187312962
 20
37.2046992987
 10
58.3647540229
 20
37.3208452831
 10
58.3972227785
 20
37.3607028967
  0
LINE
  5
29C
100
AcDbEntity
  8
0
100
AcDbLine
 62
7
  6
BYLAYER
 10
61.6222733875
 20
43.7653594771
 11
61.6222733875
 21
60.2653594771
  0
ARC
  5
29D
100
AcDbEntity
  8
0
100
AcDbCircle
 62
7
  6
BYLAYER
 10
80.8743348955
 20
-29.6020141333
 40
102.9964473056
100
AcDbArc
 50
119.4260032362
 51
119.8360251272
  0
ARC
  5
29E
100
AcDbEntity
  8
0
100
AcDbCircle
 62
7
  6
BYLAYER
 10
80.8730323967
 20
136.1304410028
 40
102.9938142699
100
AcDbArc
 50
240.1639806754
 51
240.5740024424
  0
ARC
  5
29F
100
AcDbEntity
  8
0
100
AcDbCircle
 62
7
  6
BYLAYER
 10
45.0236777438
 20
-11.1707232361
 40
72.7881321797
100
AcDbArc
 50
101.692681671
 51
102.2081563768
  0
ARC
  5
2A0
100
AcDbEntity
  8
0
100
AcDbCircle
 62
7
  6
BYLAYER
 10
44.801406731
 20
116.6512720753
 40
71.7147050094
100
AcDbArc
 50
257.7879717289
 51
258.3111756423
  0
ARC
  5
2A1
100
AcDbEntity
  8
0
100
AcDbCircle
 62
7
  6
BYLAYER
 10
59.6222708745
 20
60.2653583873
 40
2.000000393
100
AcDbArc
 50
0.0000312281
 51
89.9998643948
  0
ARC
  5
2A2
100
AcDbEntity
  8
0
100
AcDbCircle
 62
7
  6
BYLAYER
 10
58.915496493
 20
37.1152030117
 40
0.6544787493
100
AcDbArc
 50
172.6189104596
 51
179.9863031682
  0
ARC
  5
2A3
100
AcDbEntity
  8
0
100
AcDbCircle
 62
7
  6
BYLAYER
 10
48.3291969354
 20
37.1152152979
 40
0.6543320931
100
AcDbArc
 50
0.0126228141
 51
7.3280047099
  0
ARC
  5
2A4
100
AcDbEntity
  8
0
100
AcDbCircle
 62
7
  6
BYLAYER
 10
58.9122735967
 20
35.9154086824
 40
0.6512558362
100
AcDbArc
 50
180.0043280249
 51
180.4321782658
  0
ARC
  5
2A5
100
AcDbEntity
  8
0
100
AcDbCircle
 62
7
  6
BYLAYER
 10
48.3322768453
 20
35.9154091438
 40
0.6512521692
100
AcDbArc
 50
359.5678132188
 51
359.9956314176
  0
ARC
  5
2A6
100
AcDbEntity
  8
0
100
AcDbCircle
 62
7
  6
BYLAYER
 10
48.4001445278
 20
35.8933137298
 40
0.5795902218
100
AcDbArc
 50
332.5652072336
 51
335.472070276
  0
ARC
  5
2A7
100
AcDbEntity
  8
0
100
AcDbCircle
 62
7
  6
BYLAYER
 10
58.840744557
 20
35.8915889893
 40
0.5755466054
100
AcDbArc
 50
204.5236861239
 51
208.7754395729
  0
ARC
  5
2A8
100
AcDbEntity
  8
0
100
AcDbCircle
 62
7
  6
BYLAYER
 10
59.6222733875
 20
38.5653594771
 40
0.5
100
AcDbArc
 50
270.0
 51
90.0
  0
ARC
  5
2A9
100
AcDbEntity
  8
0
100
AcDbCircle
 62
7
  6
BYLAYER
 10
47.6222733875
 20
38.5653594771
 40
0.5
100
AcDbArc
 50
90.0
 51
270.0
  0
ARC
  5
2AA
100
AcDbEntity
  8
0
100
AcDbCircle
 62
7
  6
BYLAYER
 10
20.2722733875
 20
56.4653594771
 40
0.3
100
AcDbArc
 50
90.0
 51
180.0
  0
ARC
  5
2AB
100
AcDbEntity
  8
0
100
AcDbCircle
 62
7
  6
BYLAYER
 10
20.2722733875
 20
50.0653594771
 40
0.3
100
AcDbArc
 50
180.0
 51
270.0
  0
ARC
  5
2AC
100
AcDbEntity
  8
0
100
AcDbCircle
 62
7
  6
BYLAYER
 10
45.3721777452
 20
44.0152635228
 40
0.2501044793
100
AcDbArc
 50
0.0219822914
 51
89.9780891243
  0
ARC
  5
2AD
100
AcDbEntity
  8
0
100
AcDbCircle
 62
7
  6
BYLAYER
 10
48.1222733875
 20
35.4153594771
 40
0.25
100
AcDbArc
 50
90.0
 51
180.0
  0
ARC
  5
2AE
100
AcDbEntity
  8
0
100
AcDbCircle
 62
7
  6
BYLAYER
 10
59.1222733875
 20
35.4153594771
 40
0.25
100
AcDbArc
 50
0.0
 51
90.0
  0
ARC
  5
2AF
100
AcDbEntity
  8
0
100
AcDbCircle
 62
7
  6
BYLAYER
 10
59.1222733875
 20
34.0153594771
 40
0.25
100
AcDbArc
 50
270.0
 51
360.0
  0
ARC
  5
2B0
100
AcDbEntity
  8
0
100
AcDbCircle
 62
7
  6
BYLAYER
 10
48.1222733875
 20
34.0153594771
 40
0.25
100
AcDbArc
 50
180.0
 51
270.0
  0
ARC
  5
2B1
100
AcDbEntity
  8
0
100
AcDbCircle
 62
7
  6
BYLAYER
 10
59.4722733875
 20
38.9153594771
 40
0.25
100
AcDbArc
 50
90.0000126816
 51
148.3436210357
  0
ARC
  5
2B2
100
AcDbEntity
  8
0
100
AcDbCircle
 62
7
  6
BYLAYER
 10
47.7722733875
 20
38.9153594771
 40
0.25
100
AcDbArc
 50
31.6563789643
 51
89.9999873184
  0
ARC
  5
2B3
100
AcDbEntity
  8
0
100
AcDbCircle
 62
7
  6
BYLAYER
 10
47.7722733875
 20
38.2153594771
 40
0.25
100
AcDbArc
 50
270.000036775
 51
328.3436109657
  0
ARC
  5
2B4
100
AcDbEntity
  8
0
100
AcDbCircle
 62
7
  6
BYLAYER
 10
59.4722733875
 20
38.2153594771
 40
0.25
100
AcDbArc
 50
211.6563890343
 51
269.999963225
  0
ARC
  5
2B5
100
AcDbEntity
  8
0
100
AcDbCircle
 62
7
  6
BYLAYER
 10
29.6722733875
 20
45.7419603162
 40
0.1
100
AcDbArc
 50
180.0
 51
245.9999999989
  0
ARC
  5
2B6
100
AcDbEntity
  8
0
100
AcDbCircle
 62
7
  6
BYLAYER
 10
29.6722733875
 20
60.7887586381
 40
0.1
100
AcDbArc
 50
114.0000000011
 51
180.0
  0
SPLINE
  5
2B7
100
AcDbEntity
  8
0
100
AcDbSpline
 62
7
  6
BYLAYER
 70
0
 71
3
 72
9
 73
5
 74
0
 42
0.0000001
 43
0.0000001
 44
0.0000000001
 40
0.0
 40
0.0
 40
0.0
 40
0.0
 40
0.5008839129
 40
1.0
 40
1.0
 40
1.0
 40
1.0
 10
19.7442200311
 20
53.2653594771
 30
0.0
 10
19.7927948528
 20
53.4234107543
 30
0.0
 10
19.8808433453
 20
53.7418029204
 30
0.0
 10
19.9463558548
 20
54.0657382964
 30
0.0
 10
19.9722733875
 20
54.2284507892
 30
0.0
  0
SPLINE
  5
2B8
100
AcDbEntity
  8
0
100
AcDbSpline
 62
7
  6
BYLAYER
 70
0
 71
3
 72
9
 73
5
 74
0
 42
0.0000001
 43
0.0000001
 44
0.0000000001
 40
0.0
 40
0.0
 40
0.0
 40
0.0
 40
0.49874819
 40
1.0
 40
1.0
 40
1.0
 40
1.0
 10
15.9722733875
 20
55.9482306428
 30
0.0
 10
16.0079140671
 20
56.171985886
 30
0.0
 10
16.1051451107
 20
56.6167157058
 30
0.0
 10
16.2416228604
 20
57.0504898103
 30
0.0
 10
16.3170177354
 20
57.2653594771
 30
0.0
  0
SPLINE
  5
2B9
100
AcDbEntity
  8
0
100
AcDbSpline
 62
7
  6
BYLAYER
 70
0
 71
3
 72
9
 73
5
 74
0
 42
0.0000001
 43
0.0000001
 44
0.0000000001
 40
0.0
 40
0.0
 40
0.0
 40
0.0
 40
0.4991125907
 40
1.0
 40
1.0
 40
1.0
 40
1.0
 10
15.9722733875
 20
52.3022681651
 30
0.0
 10
15.9981907388
 20
52.4649795195
 30
0.0
 10
16.0637029097
 20
52.788914965
 30
0.0
 10
16.1517515826
 20
53.1073070952
 30
0.0
 10
16.2003267438
 20
53.2653594771
 30
0.0
  0
SPLINE
  5
2BA
100
AcDbEntity
  8
0
100
AcDbSpline
 62
7
  6
BYLAYER
 70
0
 71
3
 72
9
 73
5
 74
0
 42
0.0000001
 43
0.0000001
 44
0.0000000001
 40
0.0
 40
0.0
 40
0.0
 40
0.0
 40
0.5012518926
 40
1.0
 40
1.0
 40
1.0
 40
1.0
 10
16.3170177354
 20
49.2653594771
 30
0.0
 10
16.241622848
 20
49.4802291793
 30
0.0
 10
16.1051451041
 20
49.9140032859
 30
0.0
 10
16.0079140612
 20
50.3587331053
 30
0.0
 10
15.9722733875
 20
50.5824883114
 30
0.0
  0
SPLINE
  5
2BB
100
AcDbEntity
  8
0
100
AcDbSpline
 62
7
  6
BYLAYER
 70
0
 71
3
 72
9
 73
5
 74
0
 42
0.0000001
 43
0.0000001
 44
0.0000000001
 40
0.0
 40
0.0
 40
0.0
 40
0.0
 40
0.500887351
 40
1.0
 40
1.0
 40
1.0
 40
1.0
 10
16.2003267438
 20
53.2653594771
 30
0.0
 10
16.1517515884
 20
53.42341184
 30
0.0
 10
16.0637030257
 20
53.7418039968
 30
0.0
 10
15.9981907417
 20
54.0657394163
 30
0.0
 10
15.9722733875
 20
54.2284507892
 30
0.0
  0
SPLINE
  5
2BC
100
AcDbEntity
  8
0
100
AcDbSpline
 62
7
  6
BYLAYER
 70
0
 71
3
 72
10
 73
6
 74
0
 42
0.0000001
 43
0.0000001
 44
0.0000000001
 40
0.0
 40
0.0
 40
0.0
 40
0.0
 40
0.5011794357
 40
0.7508817176
 40
1.0
 40
1.0
 40
1.0
 40
1.0
 10
19.6275290395
 20
49.2653594771
 30
0.0
 10
19.7029252693
 20
49.480233005
 30
0.0
 10
19.8054298043
 20
49.8061303316
 30
0.0
 10
19.9124199835
 20
50.2478564989
 30
0.0
 10
19.9544684374
 20
50.4707073079
 30
0.0
 10
19.9722733875
 20
50.5824883114
 30
0.0
  0
SPLINE
  5
2BD
100
AcDbEntity
  8
0
100
AcDbSpline
 62
7
  6
BYLAYER
 70
0
 71
3
 72
9
 73
5
 74
0
 42
0.0000001
 43
0.0000001
 44
0.0000000001
 40
0.0
 40
0.0
 40
0.0
 40
0.0
 40
0.4991173144
 40
1.0
 40
1.0
 40
1.0
 40
1.0
 10
19.9722733875
 20
52.3022681651
 30
0.0
 10
19.9463557907
 20
52.4649810604
 30
0.0
 10
19.8808436759
 20
52.7889165305
 30
0.0
 10
19.7927947346
 20
53.1073085848
 30
0.0
 10
19.7442200311
 20
53.2653594771
 30
0.0
  0
SPLINE
  5
2BE
100
AcDbEntity
  8
0
100
AcDbSpline
 62
7
  6
BYLAYER
 70
0
 71
3
 72
10
 73
6
 74
0
 42
0.0000001
 43
0.0000001
 44
0.0000000001
 40
0.0
 40
0.0
 40
0.0
 40
0.0
 40
0.2491184056
 40
0.4988207066
 40
1.0
 40
1.0
 40
1.0
 40
1.0
 10
19.9722733875
 20
55.9482306428
 30
0.0
 10
19.9544684286
 20
56.0600117016
 30
0.0
 10
19.9124199608
 20
56.282862574
 30
0.0
 10
19.8054297651
 20
56.7245887372
 30
0.0
 10
19.7029252479
 20
57.0504860103
 30
0.0
 10
19.6275290395
 20
57.2653594771
 30
0.0
  0
SPLINE
  5
2BF
100
AcDbEntity
  8
0
100
AcDbSpline
 62
7
  6
BYLAYER
 70
0
 71
3
 72
13
 73
9
 74
0
 42
0.0000001
 43
0.0000001
 44
0.0000000001
 40
0.0
 40
0.0
 40
0.0
 40
0.0
 40
0.1233650039
 40
0.2469780339
 40
0.3709954483
 40
0.4955593914
 40
0.746486336
 40
1.0
 40
1.0
 40
1.0
 40
1.0
 10
7.4722733875
 20
55.2653594749
 30
0.0
 10
7.4722733874
 20
55.3524367439
 30
0.0
 10
7.4799141193
 20
55.5268592032
 30
0.0
 10
7.5137499907
 20
55.7868232654
 30
0.0
 10
7.5687062525
 20
56.0440050114
 30
0.0
 10
7.6678877496
 20
56.382629516
 30
0.0
 10
7.8349832368
 20
56.7951915065
 30
0.0
 10
8.0016041479
 20
57.1103904785
 30
0.0
 10
8.091075541
 20
57.2653594771
 30
0.0
  0
SPLINE
  5
2C0
100
AcDbEntity
  8
0
100
AcDbSpline
 62
7
  6
BYLAYER
 70
0
 71
3
 72
13
 73
9
 74
0
 42
0.0000001
 43
0.0000001
 44
0.0000000001
 40
0.0
 40
0.0
 40
0.0
 40
0.0
 40
0.2535144163
 40
0.5044418623
 40
0.6290060373
 40
0.7530231952
 40
0.8766353984
 40
1.0
 40
1.0
 40
1.0
 40
1.0
 10
10.353471234
 20
57.2653594771
 30
0.0
 10
10.4429428919
 20
57.1103900197
 30
0.0
 10
10.60956503
 20
56.7951906027
 30
0.0
 10
10.7766587755
 20
56.382626855
 30
0.0
 10
10.8758416285
 20
56.0440023814
 30
0.0
 10
10.9307964162
 20
55.7868209466
 30
0.0
 10
10.9646334251
 20
55.5268581055
 30
0.0
 10
10.9722733878
 20
55.3524364559
 30
0.0
 10
10.9722733877
 20
55.2653594715
 30
0.0
  0
SPLINE
  5
2C1
100
AcDbEntity
  8
0
100
AcDbSpline
 62
7
  6
BYLAYER
 70
0
 71
3
 72
13
 73
9
 74
0
 42
0.0000001
 43
0.0000001
 44
0.0000000001
 40
0.0
 40
0.0
 40
0.0
 40
0.0
 40
0.2535143653
 40
0.5044418525
 40
0.6290060584
 40
0.7530232257
 40
0.8766354113
 40
1.0
 40
1.0
 40
1.0
 40
1.0
 10
8.091075541
 20
49.2653594771
 30
0.0
 10
8.0016039032
 20
49.4203288997
 30
0.0
 10
7.8349819869
 20
49.7355284194
 30
0.0
 10
7.6678882185
 20
50.148092143
 30
0.0
 10
7.5687051912
 20
50.4867166193
 30
0.0
 10
7.5137503974
 20
50.7438980633
 30
0.0
 10
7.4799133326
 20
51.0038608758
 30
0.0
 10
7.4722733875
 20
51.1782825014
 30
0.0
 10
7.4722733875
 20
51.2653594747
 30
0.0
  0
SPLINE
  5
2C2
100
AcDbEntity
  8
0
100
AcDbSpline
 62
7
  6
BYLAYER
 70
0
 71
3
 72
13
 73
9
 74
0
 42
0.0000001
 43
0.0000001
 44
0.0000000001
 40
0.0
 40
0.0
 40
0.0
 40
0.0
 40
0.1233649911
 40
0.2469780031
 40
0.3709954276
 40
0.495559401
 40
0.7464863863
 40
1.0
 40
1.0
 40
1.0
 40
1.0
 10
10.9722733877
 20
55.2653594715
 30
0.0
 10
10.9722733875
 20
55.1782822136
 30
0.0
 10
10.9646326831
 20
55.003859778
 30
0.0
 10
10.9307967524
 20
54.7438957436
 30
0.0
 10
10.8758404714
 20
54.4867139915
 30
0.0
 10
10.7766588121
 20
54.1480894812
 30
0.0
 10
10.6095633048
 20
53.7355275122
 30
0.0
 10
10.4429426072
 20
53.4203284414
 30
0.0
 10
10.353471234
 20
53.2653594771
 30
0.0
  0
SPLINE
  5
2C3
100
AcDbEntity
  8
0
100
AcDbSpline
 62
7
  6
BYLAYER
 70
0
 71
3
 72
13
 73
9
 74
0
 42
0.0000001
 43
0.0000001
 44
0.0000000001
 40
0.0
 40
0.0
 40
0.0
 40
0.0
 40
0.2535144163
 40
0.5044418623
 40
0.6290060373
 40
0.7530231952
 40
0.8766353984
 40
1.0
 40
1.0
 40
1.0
 40
1.0
 10
10.353471234
 20
53.2653594771
 30
0.0
 10
10.442942892
 20
53.1103900196
 30
0.0
 10
10.6095650301
 20
52.7951906026
 30
0.0
 10
10.7766587756
 20
52.3826268548
 30
0.0
 10
10.8758416286
 20
52.044002381
 30
0.0
 10
10.9307964163
 20
51.7868209462
 30
0.0
 10
10.9646334252
 20
51.526858105
 30
0.0
 10
10.9722733878
 20
51.3524364554
 30
0.0
 10
10.9722733877
 20
51.265359471
 30
0.0
  0
SPLINE
  5
2C4
100
AcDbEntity
  8
0
100
AcDbSpline
 62
7
  6
BYLAYER
 70
0
 71
3
 72
13
 73
9
 74
0
 42
0.0000001
 43
0.0000001
 44
0.0000000001
 40
0.0
 40
0.0
 40
0.0
 40
0.0
 40
0.1233649911
 40
0.2469780031
 40
0.3709954276
 40
0.495559401
 40
0.7464863863
 40
1.0
 40
1.0
 40
1.0
 40
1.0
 10
10.9722733877
 20
51.265359471
 30
0.0
 10
10.9722733875
 20
51.1782822131
 30
0.0
 10
10.964632683
 20
51.0038597775
 30
0.0
 10
10.9307967523
 20
50.7438957432
 30
0.0
 10
10.8758404713
 20
50.4867139912
 30
0.0
 10
10.776658812
 20
50.1480894809
 30
0.0
 10
10.6095633047
 20
49.7355275121
 30
0.0
 10
10.4429426072
 20
49.4203284414
 30
0.0
 10
10.353471234
 20
49.2653594771
 30
0.0
  0
SPLINE
  5
2C5
100
AcDbEntity
  8
0
100
AcDbSpline
 62
7
  6
BYLAYER
 70
0
 71
3
 72
13
 73
9
 74
0
 42
0.0000001
 43
0.0000001
 44
0.0000000001
 40
0.0
 40
0.0
 40
0.0
 40
0.0
 40
0.2535143653
 40
0.5044418525
 40
0.6290060584
 40
0.7530232257
 40
0.8766354113
 40
1.0
 40
1.0
 40
1.0
 40
1.0
 10
8.091075541
 20
53.2653594771
 30
0.0
 10
8.0016039032
 20
53.4203288997
 30
0.0
 10
7.8349819869
 20
53.7355284195
 30
0.0
 10
7.6678882184
 20
54.1480921431
 30
0.0
 10
7.5687051912
 20
54.4867166194
 30
0.0
 10
7.5137503974
 20
54.7438980635
 30
0.0
 10
7.4799133326
 20
55.003860876
 30
0.0
 10
7.4722733875
 20
55.1782825016
 30
0.0
 10
7.4722733875
 20
55.2653594749
 30
0.0
  0
SPLINE
  5
2C6
100
AcDbEntity
  8
0
100
AcDbSpline
 62
7
  6
BYLAYER
 70
0
 71
3
 72
13
 73
9
 74
0
 42
0.0000001
 43
0.0000001
 44
0.0000000001
 40
0.0
 40
0.0
 40
0.0
 40
0.0
 40
0.1233650039
 40
0.2469780339
 40
0.3709954483
 40
0.4955593914
 40
0.746486336
 40
1.0
 40
1.0
 40
1.0
 40
1.0
 10
7.4722733875
 20
51.2653594747
 30
0.0
 10
7.4722733873
 20
51.3524367437
 30
0.0
 10
7.4799141193
 20
51.526859203
 30
0.0
 10
7.5137499907
 20
51.7868232653
 30
0.0
 10
7.5687062525
 20
52.0440050113
 30
0.0
 10
7.6678877495
 20
52.3826295159
 30
0.0
 10
7.8349832368
 20
52.7951915064
 30
0.0
 10
8.0016041479
 20
53.1103904784
 30
0.0
 10
8.091075541
 20
53.2653594771
 30
0.0
  0
SPLINE
  5
2C7
100
AcDbEntity
  8
0
100
AcDbSpline
 62
7
  6
BYLAYER
 70
0
 71
3
 72
10
 73
6
 74
0
 42
0.0000001
 43
0.0000001
 44
0.0000000001
 40
0.0
 40
0.0
 40
0.0
 40
0.0
 40
0.4783496346
 40
0.7374998303
 40
1.0
 40
1.0
 40
1.0
 40
1.0
 10
29.5722733875
 20
59.6522160635
 30
0.0
 10
29.5722733875
 20
59.6700849784
 30
0.0
 10
29.5824824657
 20
59.6978854946
 30
0.0
 10
29.6071882736
 20
59.7260246964
 30
0.0
 10
29.6230906051
 20
59.7376639906
 30
0.0
 10
29.6315963577
 20
59.742543086
 30
0.0
  0
SPLINE
  5
2C8
100
AcDbEntity
  8
0
100
AcDbSpline
 62
7
  6
BYLAYER
 70
0
 71
3
 72
10
 73
6
 74
0
 42
0.0000001
 43
0.0000001
 44
0.0000000001
 40
0.0
 40
0.0
 40
0.0
 40
0.0
 40
0.2624811499
 40
0.5216552985
 40
1.0
 40
1.0
 40
1.0
 40
1.0
 10
29.6316128935
 20
46.7881626282
 30
0.0
 10
29.6231061114
 20
46.7930423143
 30
0.0
 10
29.6071983918
 20
46.8046807862
 30
0.0
 10
29.5824863321
 20
46.8328245566
 30
0.0
 10
29.5722733875
 20
46.8606307025
 30
0.0
 10
29.5722733875
 20
46.8785028908
 30
0.0
  0
SPLINE
  5
2C9
100
AcDbEntity
  8
0
100
AcDbSpline
 62
7
  6
BYLAYER
 70
0
 71
3
 72
11
 73
7
 74
0
 42
0.0000001
 43
0.0000001
 44
0.0000000001
 40
0.0
 40
0.0
 40
0.0
 40
0.0
 40
0.2314914985
 40
0.4727175824
 40
0.7297742334
 40
1.0
 40
1.0
 40
1.0
 40
1.0
 10
60.7958229621
 20
41.7653594771
 30
0.0
 10
60.8192946738
 20
41.7653594771
 30
0.0
 10
60.8677301951
 20
41.774960063
 30
0.0
 10
60.9306831786
 20
41.8173141109
 30
0.0
 10
60.9748419637
 20
41.8838871436
 30
0.0
 10
60.9854417841
 20
41.937960366
 30
0.0
 10
60.9854417841
 20
41.9653594771
 30
0.0
  0
SPLINE
  5
2CA
100
AcDbEntity
  8
0
100
AcDbSpline
 62
7
  6
BYLAYER
 70
0
 71
3
 72
13
 73
9
 74
0
 42
0.0000001
 43
0.0000001
 44
0.0000000001
 40
0.0
 40
0.0
 40
0.0
 40
0.0
 40
0.1019540816
 40
0.207456634
 40
0.4374095596
 40
0.5665604731
 40
0.7049583223
 40
1.0
 40
1.0
 40
1.0
 40
1.0
 10
60.3918038304
 20
41.7653594771
 30
0.0
 10
60.4012070156
 20
41.7653594771
 30
0.0
 10
60.420417663
 20
41.76774727
 30
0.0
 10
60.4584440157
 20
41.7821565736
 30
0.0
 10
60.491968322
 20
41.8112173256
 30
0.0
 10
60.517061725
 20
41.8498077823
 30
0.0
 10
60.5375245457
 20
41.8977273994
 30
0.0
 10
60.5436960745
 20
41.9381478983
 30
0.0
 10
60.5436960745
 20
41.9653594771
 30
0.0
  0
SPLINE
  5
2CB
100
AcDbEntity
  8
0
100
AcDbSpline
 62
7
  6
BYLAYER
 70
0
 71
3
 72
11
 73
7
 74
0
 42
0.0000001
 43
0.0000001
 44
0.0000000001
 40
0.0
 40
0.0
 40
0.0
 40
0.0
 40
0.2703185467
 40
0.5272762569
 40
0.7684602118
 40
1.0
 40
1.0
 40
1.0
 40
1.0
 10
46.2591049908
 20
41.9653594771
 30
0.0
 10
46.2591049908
 20
41.9379510042
 30
0.0
 10
46.2697068288
 20
41.8838771091
 30
0.0
 10
46.3138700423
 20
41.8173152128
 30
0.0
 10
46.3768111383
 20
41.7749635507
 30
0.0
 10
46.4252474694
 20
41.7653594771
 30
0.0
 10
46.4487240383
 20
41.7653594771
 30
0.0
  0
SPLINE
  5
2CC
100
AcDbEntity
  8
0
100
AcDbSpline
 62
7
  6
BYLAYER
 70
0
 71
3
 72
12
 73
8
 74
0
 42
0.0000001
 43
0.0000001
 44
0.0000000001
 40
0.0
 40
0.0
 40
0.0
 40
0.0
 40
0.2954504155
 40
0.562126581
 40
0.7922823651
 40
0.8979207998
 40
1.0
 40
1.0
 40
1.0
 40
1.0
 10
46.7008507004
 20
41.9653594771
 30
0.0
 10
46.7008507004
 20
41.9381387131
 30
0.0
 10
46.7088617835
 20
41.885936094
 30
0.0
 10
46.7427766661
 20
41.8197651599
 30
0.0
 10
46.7860862749
 20
41.7821650241
 30
0.0
 10
46.8241259381
 20
41.7677501236
 30
0.0
 10
46.8433382515
 20
41.7653594771
 30
0.0
 10
46.8527431251
 20
41.7653594771
 30
0.0
  0
SPLINE
  5
2CD
100
AcDbEntity
  8
0
100
AcDbSpline
 62
7
  6
BYLAYER
 70
0
 71
3
 72
9
 73
5
 74
0
 42
0.0000001
 43
0.0000001
 44
0.0000000001
 40
0.0
 40
0.0
 40
0.0
 40
0.0
 40
0.4966969326
 40
1.0
 40
1.0
 40
1.0
 40
1.0
 10
51.3418666036
 20
48.6296506944
 30
0.0
 10
51.7231066495
 20
48.791842699
 30
0.0
 10
52.4849227022
 20
49.1318169714
 30
0.0
 10
53.2414869348
 20
49.4830365937
 30
0.0
 10
53.6222733875
 20
49.6598082017
 30
0.0
  0
SPLINE
  5
2CE
100
AcDbEntity
  8
0
100
AcDbSpline
 62
7
  6
BYLAYER
 70
0
 71
3
 72
9
 73
5
 74
0
 42
0.0000001
 43
0.0000001
 44
0.0000000001
 40
0.0
 40
0.0
 40
0.0
 40
0.0
 40
0.4948684162
 40
1.0
 40
1.0
 40
1.0
 40
1.0
 10
51.4109692699
 20
48.5008812977
 30
0.0
 10
51.4012154127
 20
48.5229467199
 30
0.0
 10
51.3797785844
 20
48.5667763672
 30
0.0
 10
51.3553078487
 20
48.6090211748
 30
0.0
 10
51.3418664792
 20
48.6296546857
 30
0.0
  0
SPLINE
  5
2CF
100
AcDbEntity
  8
0
100
AcDbSpline
 62
7
  6
BYLAYER
 70
0
 71
3
 72
40
 73
36
 74
0
 42
0.0000001
 43
0.0000001
 44
0.0000000001
 40
0.0
 40
0.0
 40
0.0
 40
0.0
 40
0.0000434734
 40
0.0000851524
 40
0.0001644527
 40
0.0002886646
 40
0.0004590851
 40
0.0006759243
 40
0.0012482581
 40
0.0020036332
 40
0.0029393319
 40
0.004052445
 40
0.0053399904
 40
0.0084263296
 40
0.0121742343
 40
0.0165608169
 40
0.0215749916
 40
0.0334696127
 40
0.0478251279
 40
0.0646074829
 40
0.0837478667
 40
0.1051332231
 40
0.1286476048
 40
0.1541767212
 40
0.1816203914
 40
0.2418781124
 40
0.308638911
 40
0.3811011003
 40
0.4585972974
 40
0.5405384801
 40
0.6264043502
 40
0.7157026034
 40
0.8079666657
 40
0.9028156135
 40
1.0
 40
1.0
 40
1.0
 40
1.0
 10
45.3722733874
 20
44.2653594771
 30
0.0
 10
45.3721931856
 20
44.2653594771
 30
0.0
 10
45.3719900298
 20
44.265395528
 30
0.0
 10
45.3720396953
 20
44.2657622396
 30
0.0
 10
45.3722941708
 20
44.266114626
 30
0.0
 10
45.3727278244
 20
44.2666634865
 30
0.0
 10
45.373378488
 20
44.2673429094
 30
0.0
 10
45.3746415789
 20
44.268585859
 30
0.0
 10
45.3767522225
 20
44.2704997999
 30
0.0
 10
45.3798997668
 20
44.2732443043
 30
0.0
 10
45.3838400825
 20
44.2765964307
 30
0.0
 10
45.3885518837
 20
44.2805567924
 30
0.0
 10
45.3963204485
 20
44.2870466375
 30
0.0
 10
45.4078290874
 20
44.2966412299
 30
0.0
 10
45.4236811005
 20
44.3099543411
 30
0.0
 10
45.4421522927
 20
44.3256782233
 30
0.0
 10
45.4719387064
 20
44.3512951666
 30
0.0
 10
45.5155098847
 20
44.3890882233
 30
0.0
 10
45.5754418697
 20
44.4411524657
 30
0.0
 10
45.6455823338
 20
44.5018482985
 30
0.0
 10
45.7257057226
 20
44.5708265886
 30
0.0
 10
45.8153678378
 20
44.6477604682
 30
0.0
 10
45.9140881639
 20
44.7322370253
 30
0.0
 10
46.0213886282
 20
44.8238771371
 30
0.0
 10
46.1804285937
 20
44.9593125296
 30
0.0
 10
46.3979975546
 20
45.1433408773
 30
0.0
 10
46.6801891602
 20
45.3795649027
 30
0.0
 10
46.98796835
 20
45.6347610344
 30
0.0
 10
47.3190405205
 20
45.9057301638
 30
0.0
 10
47.6715802231
 20
46.1894929485
 30
0.0
 10
48.0443376818
 20
46.4828248624
 30
0.0
 10
48.4359959341
 20
46.7828687148
 30
0.0
 10
48.8448186926
 20
47.0876921531
 30
0.0
 10
49.2702865028
 20
47.3944359758
 30
0.0
 10
49.5623283323
 20
47.595074315
 30
0.0
 10
49.7115679748
 20
47.6944355924
 30
0.0
  0
SPLINE
  5
2D0
100
AcDbEntity
  8
0
100
AcDbSpline
 62
7
  6
BYLAYER
 70
0
 71
3
 72
9
 73
5
 74
0
 42
0.0000001
 43
0.0000001
 44
0.0000000001
 40
0.0
 40
0.0
 40
0.0
 40
0.0
 40
0.4931243019
 40
1.0
 40
1.0
 40
1.0
 40
1.0
 10
49.7115679748
 20
47.6944355924
 30
0.0
 10
49.9688967521
 20
47.8657608219
 30
0.0
 10
50.5000194639
 20
48.1996712744
 30
0.0
 10
51.0550691591
 20
48.4928216595
 30
0.0
 10
51.3418666037
 20
48.6296506944
 30
0.0
  0
SPLINE
  5
2D1
100
AcDbEntity
  8
0
100
AcDbSpline
 62
7
  6
BYLAYER
 70
0
 71
3
 72
12
 73
8
 74
0
 42
0.0000001
 43
0.0000001
 44
0.0000000001
 40
0.0
 40
0.0
 40
0.0
 40
0.0
 40
0.2800694865
 40
0.4199530585
 40
0.5545462585
 40
0.7963148219
 40
1.0
 40
1.0
 40
1.0
 40
1.0
 10
48.642631285
 20
35.4153594772
 30
0.0
 10
48.6426305025
 20
35.4486154761
 30
0.0
 10
48.6513185448
 20
35.4991369164
 30
0.0
 10
48.6800856608
 20
35.5587085971
 30
0.0
 10
48.7166150858
 20
35.6083322968
 30
0.0
 10
48.7732885929
 20
35.6509086205
 30
0.0
 10
48.8260596453
 20
35.6640019133
 30
0.0
 10
48.8502183248
 20
35.665150682
 30
0.0
  0
SPLINE
  5
2D2
100
AcDbEntity
  8
0
100
AcDbSpline
 62
7
  6
BYLAYER
 70
0
 71
3
 72
9
 73
5
 74
0
 42
0.0000001
 43
0.0000001
 44
0.0000000001
 40
0.0
 40
0.0
 40
0.0
 40
0.0
 40
0.5190891053
 40
1.0
 40
1.0
 40
1.0
 40
1.0
 10
58.2610362873
 20
35.9104963494
 30
0.0
 10
58.2613824337
 20
35.8645966831
 30
0.0
 10
58.2713913468
 20
35.7759808241
 30
0.0
 10
58.2994610653
 20
35.6913831943
 30
0.0
 10
58.3171181498
 20
35.6526972132
 30
0.0
  0
SPLINE
  5
2D3
100
AcDbEntity
  8
0
100
AcDbSpline
 62
7
  6
BYLAYER
 70
0
 71
3
 72
11
 73
7
 74
0
 42
0.0000001
 43
0.0000001
 44
0.0000000001
 40
0.0
 40
0.0
 40
0.0
 40
0.0
 40
0.3038757773
 40
0.5673953081
 40
0.7960829776
 40
1.0
 40
1.0
 40
1.0
 40
1.0
 10
58.336270413
 20
35.6145335202
 30
0.0
 10
58.3531721114
 20
35.5837953772
 30
0.0
 10
58.3902467476
 20
35.5291439354
 30
0.0
 10
58.4573702281
 20
35.4652569337
 30
0.0
 10
58.5282143187
 20
35.4253274124
 30
0.0
 10
58.5783799002
 20
35.4153508995
 30
0.0
 10
58.6019194595
 20
35.4153594771
 30
0.0
  0
SPLINE
  5
2D4
100
AcDbEntity
  8
0
100
AcDbSpline
 62
7
  6
BYLAYER
 70
0
 71
3
 72
12
 73
8
 74
0
 42
0.0000001
 43
0.0000001
 44
0.0000000001
 40
0.0
 40
0.0
 40
0.0
 40
0.0
 40
0.2767421432
 40
0.4153445894
 40
0.5494494263
 40
0.7926817576
 40
1.0
 40
1.0
 40
1.0
 40
1.0
 10
58.6019168796
 20
35.4153594772
 30
0.0
 10
58.6019175596
 20
35.4470748479
 30
0.0
 10
58.5940148984
 20
35.4952347854
 30
0.0
 10
58.5677882754
 20
35.5527710719
 30
0.0
 10
58.5340444802
 20
35.60166437
 30
0.0
 10
58.4810210873
 20
35.6454315328
 30
0.0
 10
58.4304932111
 20
35.6614228753
 30
0.0
 10
58.4068889722
 20
35.6641321188
 30
0.0
  0
SPLINE
  5
2D5
100
AcDbEntity
  8
0
100
AcDbSpline
 62
7
  6
BYLAYER
 70
0
 71
3
 72
9
 73
5
 74
0
 42
0.0000001
 43
0.0000001
 44
0.0000000001
 40
0.0
 40
0.0
 40
0.0
 40
0.0
 40
0.2609424042
 40
1.0
 40
1.0
 40
1.0
 40
1.0
 10
58.266441005
 20
37.1992827766
 30
0.0
 10
58.2683704157
 20
37.2141535209
 30
0.0
 10
58.277742729
 20
37.2708665047
 30
0.0
 10
58.2948046429
 20
37.3263198131
 30
0.0
 10
58.3115283056
 20
37.3653594771
 30
0.0
  0
SPLINE
  5
2D6
100
AcDbEntity
  8
0
100
AcDbSpline
 62
7
  6
BYLAYER
 70
0
 71
3
 72
37
 73
33
 74
0
 42
0.0000001
 43
0.0000001
 44
0.0000000001
 40
0.0
 40
0.0
 40
0.0
 40
0.0
 40
0.0078005871
 40
0.0156128214
 40
0.0234280341
 40
0.0312431346
 40
0.046861222
 40
0.0624854071
 40
0.0781111479
 40
0.0937373705
 40
0.1249859384
 40
0.1562369388
 40
0.1874888362
 40
0.2499890509
 40
0.3124921105
 40
0.3749962622
 40
0.4999996811
 40
0.6250033247
 40
0.6875075791
 40
0.7500107002
 40
0.8125109528
 40
0.8437628554
 40
0.8750138639
 40
0.9062624399
 40
0.9218886696
 40
0.9375144215
 40
0.9531386135
 40
0.9687567346
 40
0.9765718414
 40
0.9843871082
 40
0.9921992841
 40
1.0
 40
1.0
 40
1.0
 40
1.0
 10
52.5545655623
 20
34.0153594771
 30
0.0
 10
52.5545655623
 20
34.009529234
 30
0.0
 10
52.5568841928
 20
33.9977812233
 30
0.0
 10
52.5656225027
 20
33.9823914603
 30
0.0
 10
52.5773240315
 20
33.969237733
 30
0.0
 10
52.5952036266
 20
33.9541322195
 30
0.0
 10
52.6201228764
 20
33.9386835223
 30
0.0
 10
52.6517825162
 20
33.9236165842
 30
0.0
 10
52.6844711083
 20
33.9109377934
 30
0.0
 10
52.7288814087
 20
33.8964028645
 30
0.0
 10
52.7854291788
 20
33.881644648
 30
0.0
 10
52.8540929887
 20
33.8675754691
 30
0.0
 10
52.9463003202
 20
33.8524061408
 30
0.0
 10
53.0623178182
 20
33.8385791359
 30
0.0
 10
53.2020382647
 20
33.8274065959
 30
0.0
 10
53.3886740845
 20
33.8178558985
 30
0.0
 10
53.6222728455
 20
33.8136948277
 30
0.0
 10
53.8558716767
 20
33.8178559244
 30
0.0
 10
54.0425078006
 20
33.8274064117
 30
0.0
 10
54.1822283859
 20
33.8385791032
 30
0.0
 10
54.2982459729
 20
33.8524060259
 30
0.0
 10
54.3904533321
 20
33.8675754193
 30
0.0
 10
54.459117174
 20
33.8816445188
 30
0.0
 10
54.5156649627
 20
33.8964027376
 30
0.0
 10
54.5600752901
 20
33.9109376426
 30
0.0
 10
54.5927639178
 20
33.9236163984
 30
0.0
 10
54.624423579
 20
33.9386833757
 30
0.0
 10
54.6493429061
 20
33.9541320142
 30
0.0
 10
54.6672225623
 20
33.9692375695
 30
0.0
 10
54.6789240956
 20
33.9823912867
 30
0.0
 10
54.6876625744
 20
33.9977810593
 30
0.0
 10
54.6899812127
 20
34.0095291377
 30
0.0
 10
54.6899812127
 20
34.0153594771
 30
0.0
  0
SPLINE
  5
2D7
100
AcDbEntity
  8
0
100
AcDbSpline
 62
7
  6
BYLAYER
 70
0
 71
3
 72
11
 73
7
 74
0
 42
0.0000001
 43
0.0000001
 44
0.0000000001
 40
0.0
 40
0.0
 40
0.0
 40
0.0
 40
0.257453835
 40
0.5044264579
 40
0.7484980978
 40
1.0
 40
1.0
 40
1.0
 40
1.0
 10
29.631612894
 20
59.9713636455
 30
0.0
 10
29.6233518531
 20
59.969575294
 30
0.0
 10
29.6075216669
 20
59.9638278382
 30
0.0
 10
29.5878400347
 20
59.9483250237
 30
0.0
 10
29.5750593222
 20
59.9269195991
 30
0.0
 10
29.5722733875
 20
59.9104730532
 30
0.0
 10
29.5722733875
 20
59.9022160635
 30
0.0
  0
SPLINE
  5
2D8
100
AcDbEntity
  8
0
100
AcDbSpline
 62
7
  6
BYLAYER
 70
0
 71
3
 72
9
 73
5
 74
0
 42
0.0000001
 43
0.0000001
 44
0.0000000001
 40
0.0
 40
0.0
 40
0.0
 40
0.0
 40
0.2383026063
 40
1.0
 40
1.0
 40
1.0
 40
1.0
 10
48.9330184573
 20
37.3653594771
 30
0.0
 10
48.9384296121
 20
37.3527276924
 30
0.0
 10
48.959304518
 20
37.2989523596
 30
0.0
 10
48.9725740659
 20
37.2422393507
 30
0.0
 10
48.9781845867
 20
37.1986749677
 30
0.0
  0
SPLINE
  5
2D9
100
AcDbEntity
  8
0
100
AcDbSpline
 62
7
  6
BYLAYER
 70
0
 71
3
 72
9
 73
5
 74
0
 42
0.0000001
 43
0.0000001
 44
0.0000000001
 40
0.0
 40
0.0
 40
0.0
 40
0.0
 40
0.5190888634
 40
1.0
 40
1.0
 40
1.0
 40
1.0
 10
48.9835104871
 20
35.9104967417
 30
0.0
 10
48.9831643441
 20
35.8645984106
 30
0.0
 10
48.9731560938
 20
35.7759850959
 30
0.0
 10
48.9450880215
 20
35.6913896502
 30
0.0
 10
48.9274319566
 20
35.6527045182
 30
0.0
  0
SPLINE
  5
2DA
100
AcDbEntity
  8
0
100
AcDbSpline
 62
7
  6
BYLAYER
 70
0
 71
3
 72
11
 73
7
 74
0
 42
0.0000001
 43
0.0000001
 44
0.0000000001
 40
0.0
 40
0.0
 40
0.0
 40
0.0
 40
0.3055099782
 40
0.569536559
 40
0.7975917414
 40
1.0
 40
1.0
 40
1.0
 40
1.0
 10
48.9145515793
 20
35.6262740124
 30
0.0
 10
48.8976744884
 20
35.5937813733
 30
0.0
 10
48.8602496371
 20
35.5359931429
 30
0.0
 10
48.7915651586
 20
35.4683296415
 30
0.0
 10
48.7187102442
 20
35.4259871863
 30
0.0
 10
48.6668852418
 20
35.4153506461
 30
0.0
 10
48.6426273156
 20
35.4153594771
 30
0.0
  0
SPLINE
  5
2DB
100
AcDbEntity
  8
0
100
AcDbSpline
 62
7
  6
BYLAYER
 70
0
 71
3
 72
11
 73
7
 74
0
 42
0.0000001
 43
0.0000001
 44
0.0000000001
 40
0.0
 40
0.0
 40
0.0
 40
0.0
 40
0.2515201901
 40
0.4955792554
 40
0.7425312788
 40
1.0
 40
1.0
 40
1.0
 40
1.0
 10
29.5722733875
 20
46.6285028908
 30
0.0
 10
29.5722733875
 20
46.6202469813
 30
0.0
 10
29.5750623573
 20
46.6038046393
 30
0.0
 10
29.5878344118
 20
46.58240104
 30
0.0
 10
29.6075113281
 20
46.5669013004
 30
0.0
 10
29.6233365206
 20
46.5611507341
 30
0.0
 10
29.6315963577
 20
46.5593626433
 30
0.0
  0
SPLINE
  5
2DC
100
AcDbEntity
  8
0
100
AcDbSpline
 62
7
  6
BYLAYER
 70
0
 71
3
 72
31
 73
27
 74
0
 42
0.0000001
 43
0.0000001
 44
0.0000000001
 40
0.0
 40
0.0
 40
0.0
 40
0.0
 40
0.1957044259
 40
0.3835972057
 40
0.4723043986
 40
0.5563871768
 40
0.6350515592
 40
0.7075841758
 40
0.7733065743
 40
0.8316206694
 40
0.8819665612
 40
0.9040027791
 40
0.9238725899
 40
0.9415226476
 40
0.9569129482
 40
0.970006745
 40
0.9807671786
 40
0.9852613548
 40
0.989161425
 40
0.9924658613
 40
0.9951731351
 40
0.9972817168
 40
0.9987900759
 40
0.9993186935
 40
0.999696681
 40
1.0
 40
1.0
 40
1.0
 40
1.0
 10
53.6222733875
 20
61.6117475689
 30
0.0
 10
54.016731437
 20
61.6117478663
 30
0.0
 10
54.7900026035
 20
61.62856402
 30
0.0
 10
55.7402927369
 20
61.6895517253
 30
0.0
 10
56.464089584
 20
61.757960467
 30
0.0
 10
56.9677274253
 20
61.8149787006
 30
0.0
 10
57.4379650692
 20
61.8765158568
 30
0.0
 10
57.8705503573
 20
61.9401127922
 30
0.0
 10
58.2616834163
 20
62.003356681
 30
0.0
 10
58.607922694
 20
62.0638831353
 30
0.0
 10
58.86691169
 20
62.1120697003
 30
0.0
 10
59.0494612648
 20
62.1474245394
 30
0.0
 10
59.1672148699
 20
62.1707438088
 30
0.0
 10
59.2717537906
 20
62.1918329432
 30
0.0
 10
59.3628436781
 20
62.2105215254
 30
0.0
 10
59.4402831044
 20
62.2266474083
 30
0.0
 10
59.4961929048
 20
62.2384331756
 30
0.0
 10
59.5339611287
 20
62.2464410699
 30
0.0
 10
59.5570242481
 20
62.2513490498
 30
0.0
 10
59.5765626069
 20
62.2555182115
 30
0.0
 10
59.5925644617
 20
62.2589536499
 30
0.0
 10
59.6050319138
 20
62.261616146
 30
0.0
 10
59.6131887846
 20
62.2634132405
 30
0.0
 10
59.617960922
 20
62.2643956553
 30
0.0
 10
59.6203184145
 20
62.2649951485
 30
0.0
 10
59.6217103595
 20
62.2651265031
 30
0.0
 10
59.6222758441
 20
62.2653588668
 30
0.0
  0
SPLINE
  5
2DD
100
AcDbEntity
  8
0
100
AcDbSpline
 62
7
  6
BYLAYER
 70
0
 71
3
 72
39
 73
35
 74
0
 42
0.0000001
 43
0.0000001
 44
0.0000000001
 40
0.0
 40
0.0
 40
0.0
 40
0.0
 40
0.1946194436
 40
0.2895774799
 40
0.3817535658
 40
0.4702775803
 40
0.5543031203
 40
0.6330408567
 40
0.7057486075
 40
0.7717286315
 40
0.8303441235
 40
0.8567055598
 40
0.8810144642
 40
0.9032059075
 40
0.92322338
 40
0.9410167158
 40
0.9565359903
 40
0.9697387619
 40
0.9754612968
 40
0.9805926461
 40
0.9851288433
 40
0.9890659428
 40
0.9924010581
 40
0.9951327869
 40
0.9962719777
 40
0.9972598376
 40
0.9980962049
 40
0.9987809181
 40
0.9993138158
 40
0.9996947363
 40
0.9998281547
 40
0.9999235182
 40
0.9999808066
 40
1.0
 40
1.0
 40
1.0
 40
1.0
 10
53.6222733875
 20
59.6529857123
 30
0.0
 10
54.1432644822
 20
59.6529872954
 30
0.0
 10
54.9185230205
 20
59.6647192385
 30
0.0
 10
55.9397714112
 20
59.7030648507
 30
0.0
 10
56.6767317554
 20
59.7413977139
 30
0.0
 10
57.3838845532
 20
59.7879652149
 30
0.0
 10
58.0544997694
 20
59.8409837446
 30
0.0
 10
58.6822477972
 20
59.8983554832
 30
0.0
 10
59.2612499723
 20
59.9578787614
 30
0.0
 10
59.7860829539
 20
60.0172794981
 30
0.0
 10
60.1872010115
 20
60.066388141
 30
0.0
 10
60.4773639849
 20
60.1037294722
 30
0.0
 10
60.6707249225
 20
60.1293390762
 30
0.0
 10
60.8471715985
 20
60.1533042831
 30
0.0
 10
61.0062689731
 20
60.1754019843
 30
0.0
 10
61.147620086
 20
60.1954330812
 30
0.0
 10
61.2708672457
 20
60.2131954576
 30
0.0
 10
61.3621054795
 20
60.2265284596
 30
0.0
 10
61.4258145238
 20
60.235930247
 30
0.0
 10
61.4665670822
 20
60.2419778754
 30
0.0
 10
61.5025880657
 20
60.2473493285
 30
0.0
 10
61.5338506901
 20
60.252028195
 30
0.0
 10
61.5603344773
 20
60.2560021374
 30
0.0
 10
61.5794101742
 20
60.2588722414
 30
0.0
 10
61.5922714871
 20
60.2608119411
 30
0.0
 10
61.6001157409
 20
60.2619961747
 30
0.0
 10
61.6067559541
 20
60.2630017977
 30
0.0
 10
61.6121940816
 20
60.2638221598
 30
0.0
 10
61.6164204526
 20
60.264472614
 30
0.0
 10
61.6192011388
 20
60.2648768705
 30
0.0
 10
61.620802354
 20
60.2651461812
 30
0.0
 10
61.6215795758
 20
60.2652236824
 30
0.0
 10
61.6219985134
 20
60.2653611327
 30
0.0
 10
61.6222379812
 20
60.2653222438
 30
0.0
 10
61.6222733875
 20
60.2653594771
 30
0.0
  0
SPLINE
  5
2DE
100
AcDbEntity
  8
0
100
AcDbSpline
 62
7
  6
BYLAYER
 70
0
 71
3
 72
12
 73
8
 74
0
 42
0.0000001
 43
0.0000001
 44
0.0000000001
 40
0.0
 40
0.0
 40
0.0
 40
0.0
 40
0.2551372527
 40
0.3821267726
 40
0.5078690133
 40
0.755194542
 40
1.0
 40
1.0
 40
1.0
 40
1.0
 10
60.9253997357
 20
41.9653594771
 30
0.0
 10
60.9253997357
 20
41.937805687
 30
0.0
 10
60.9158432159
 20
41.8958557961
 30
0.0
 10
60.887081901
 20
41.8488288625
 30
0.0
 10
60.8500317902
 20
41.8090627972
 30
0.0
 10
60.7910002525
 20
41.7745775825
 30
0.0
 10
60.7374145549
 20
41.7653594771
 30
0.0
 10
60.7109765567
 20
41.7653594771
 30
0.0
  0
SPLINE
  5
2DF
100
AcDbEntity
  8
0
100
AcDbSpline
 62
7
  6
BYLAYER
 70
0
 71
3
 72
12
 73
8
 74
0
 42
0.0000001
 43
0.0000001
 44
0.0000000001
 40
0.0
 40
0.0
 40
0.0
 40
0.0
 40
0.2447562181
 40
0.4921242496
 40
0.6179288584
 40
0.7449531596
 40
1.0
 40
1.0
 40
1.0
 40
1.0
 10
46.5335703469
 20
41.7653594771
 30
0.0
 10
46.5071376522
 20
41.7653594771
 30
0.0
 10
46.4535538848
 20
41.7745744077
 30
0.0
 10
46.3945101718
 20
41.809057357
 30
0.0
 10
46.3574617915
 20
41.848845472
 30
0.0
 10
46.3286946602
 20
41.895869439
 30
0.0
 10
46.3191470393
 20
41.9378154363
 30
0.0
 10
46.3191470393
 20
41.9653594771
 30
0.0
  0
SPLINE
  5
2E0
100
AcDbEntity
  8
0
100
AcDbSpline
 62
7
  6
BYLAYER
 70
0
 71
3
 72
11
 73
7
 74
0
 42
0.0000001
 43
0.0000001
 44
0.0000000001
 40
0.0
 40
0.0
 40
0.0
 40
0.0
 40
0.2497984991
 40
0.4996860173
 40
0.7498425247
 40
1.0
 40
1.0
 40
1.0
 40
1.0
 10
60.3676616956
 20
41.9653594771
 30
0.0
 10
60.3676616956
 20
41.9377411342
 30
0.0
 10
60.3542244359
 20
41.8817384309
 30
0.0
 10
60.3005784158
 20
41.8155121204
 30
0.0
 10
60.22646934
 20
41.7744885694
 30
0.0
 10
60.1707047669
 20
41.7653594771
 30
0.0
 10
60.1430467347
 20
41.7653594771
 30
0.0
  0
SPLINE
  5
2E1
100
AcDbEntity
  8
0
100
AcDbSpline
 62
7
  6
BYLAYER
 70
0
 71
3
 72
11
 73
7
 74
0
 42
0.0000001
 43
0.0000001
 44
0.0000000001
 40
0.0
 40
0.0
 40
0.0
 40
0.0
 40
0.2860570519
 40
0.5490697178
 40
0.7835890621
 40
1.0
 40
1.0
 40
1.0
 40
1.0
 10
56.2402703293
 20
41.9653594771
 30
0.0
 10
56.2402703293
 20
41.9380743824
 30
0.0
 10
56.2313746908
 20
41.8852188907
 30
0.0
 10
56.1936508512
 20
41.8188041047
 30
0.0
 10
56.1386808928
 20
41.7754813775
 30
0.0
 10
56.0951508466
 20
41.7653594771
 30
0.0
 10
56.0745088351
 20
41.7653594771
 30
0.0
  0
SPLINE
  5
2E2
100
AcDbEntity
  8
0
100
AcDbSpline
 62
7
  6
BYLAYER
 70
0
 71
3
 72
18
 73
14
 74
0
 42
0.0000001
 43
0.0000001
 44
0.0000000001
 40
0.0
 40
0.0
 40
0.0
 40
0.0
 40
0.0062012691
 40
0.0197395841
 40
0.0414792068
 40
0.0715836878
 40
0.1100997164
 40
0.1569332179
 40
0.2748148218
 40
0.4234549837
 40
0.5986418779
 40
0.7943027245
 40
1.0
 40
1.0
 40
1.0
 40
1.0
 10
56.6750618211
 20
41.7653594771
 30
0.0
 10
56.6746465948
 20
41.7653594771
 30
0.0
 10
56.6737800889
 20
41.7667549585
 30
0.0
 10
56.6731094763
 20
41.7692296948
 30
0.0
 10
56.6722014362
 20
41.7736321223
 30
0.0
 10
56.6713913884
 20
41.7795810868
 30
0.0
 10
56.6705540023
 20
41.7872853624
 30
0.0
 10
56.6694050937
 20
41.8008370393
 30
0.0
 10
56.6681407488
 20
41.8217886935
 30
0.0
 10
56.6669240064
 20
41.8513383106
 30
0.0
 10
56.6659816377
 20
41.8861114217
 30
0.0
 10
56.6653927744
 20
41.9247118339
 30
0.0
 10
56.6652549142
 20
41.95158634
 30
0.0
 10
56.6652549142
 20
41.9653594771
 30
0.0
  0
SPLINE
  5
2E3
100
AcDbEntity
  8
0
100
AcDbSpline
 62
7
  6
BYLAYER
 70
0
 71
3
 72
9
 73
5
 74
0
 42
0.0000001
 43
0.0000001
 44
0.0000000001
 40
0.0
 40
0.0
 40
0.0
 40
0.0
 40
0.2535648504
 40
1.0
 40
1.0
 40
1.0
 40
1.0
 10
51.4109614001
 20
48.5008969861
 30
0.0
 10
51.2959332241
 20
48.4441624205
 30
0.0
 10
50.8474676986
 20
48.2098604493
 30
0.0
 10
50.4183083994
 20
47.9401896904
 30
0.0
 10
50.1054291384
 20
47.7288590084
 30
0.0
  0
SPLINE
  5
2E4
100
AcDbEntity
  8
0
100
AcDbSpline
 62
7
  6
BYLAYER
 70
0
 71
3
 72
25
 73
21
 74
0
 42
0.0000001
 43
0.0000001
 44
0.0000000001
 40
0.0
 40
0.0
 40
0.0
 40
0.0
 40
0.1906283595
 40
0.3713370188
 40
0.538902667
 40
0.6164908096
 40
0.6891526219
 40
0.7561682038
 40
0.8167842288
 40
0.870154868
 40
0.9154125521
 40
0.9347386866
 40
0.9517293949
 40
0.9662845623
 40
0.9783067701
 40
0.9877316184
 40
0.9945167469
 40
0.9969063037
 40
0.9986201951
 40
1.0
 40
1.0
 40
1.0
 40
1.0
 10
50.1054291384
 20
47.7288590084
 30
0.0
 10
49.7986452202
 20
47.5216453554
 30
0.0
 10
49.2147963505
 20
47.0975704685
 30
0.0
 10
48.39446659
 20
46.4474566032
 30
0.0
 10
47.7604116954
 20
45.9163206243
 30
0.0
 10
47.2928739599
 20
45.5133805299
 30
0.0
 10
46.975296921
 20
45.2355673941
 30
0.0
 10
46.684141622
 20
44.9776260081
 30
0.0
 10
46.4221827118
 20
44.7432327746
 30
0.0
 10
46.1925750977
 20
44.5360569465
 30
0.0
 10
46.0229951662
 20
44.3820540515
 30
0.0
 10
45.9059286196
 20
44.2753177232
 30
0.0
 10
45.8329997822
 20
44.2086699159
 30
0.0
 10
45.7705949799
 20
44.1515326665
 30
0.0
 10
45.7190644684
 20
44.1042772103
 30
0.0
 10
45.6786587392
 20
44.0672160169
 30
0.0
 10
45.652085112
 20
44.0427514134
 30
0.0
 10
45.6364858605
 20
44.0284732888
 30
0.0
 10
45.6287095486
 20
44.0212005391
 30
0.0
 10
45.6241725417
 20
44.0172530604
 30
0.0
 10
45.6222761591
 20
44.0153598665
 30
0.0
  0
SPLINE
  5
2E5
100
AcDbEntity
  8
0
100
AcDbSpline
 62
7
  6
BYLAYER
 70
0
 71
3
 72
9
 73
5
 74
0
 42
0.0000001
 43
0.0000001
 44
0.0000000001
 40
0.0
 40
0.0
 40
0.0
 40
0.0
 40
0.5039293207
 40
1.0
 40
1.0
 40
1.0
 40
1.0
 10
53.6222722094
 20
49.659810389
 30
0.0
 10
53.253034975
 20
49.4609458243
 30
0.0
 10
52.5203263253
 20
49.0663326636
 30
0.0
 10
51.7811769297
 20
48.683602368
 30
0.0
 10
51.4109694289
 20
48.5008820153
 30
0.0
  0
SPLINE
  5
2E6
100
AcDbEntity
  8
0
100
AcDbSpline
 62
7
  6
BYLAYER
 70
0
 71
3
 72
13
 73
9
 74
0
 42
0.0000001
 43
0.0000001
 44
0.0000000001
 40
0.0
 40
0.0
 40
0.0
 40
0.0
 40
0.3186603597
 40
0.5955200357
 40
0.712985572
 40
0.8174209778
 40
0.9116614279
 40
1.0
 40
1.0
 40
1.0
 40
1.0
 10
54.3596682361
 20
41.9653594771
 30
0.0
 10
54.3596682361
 20
41.938262946
 30
0.0
 10
54.353599542
 20
41.8874296747
 30
0.0
 10
54.3307401866
 20
41.8301396805
 30
0.0
 10
54.3048471598
 20
41.796232903
 30
0.0
 10
54.2842140131
 20
41.778616355
 30
0.0
 10
54.261990833
 20
41.7678388563
 30
0.0
 10
54.246379242
 20
41.7653594771
 30
0.0
 10
54.2388675802
 20
41.7653594771
 30
0.0
  0
SPLINE
  5
2E7
100
AcDbEntity
  8
0
100
AcDbSpline
 62
7
  6
BYLAYER
 70
0
 71
3
 72
15
 73
11
 74
0
 42
0.0000001
 43
0.0000001
 44
0.0000000001
 40
0.0
 40
0.0
 40
0.0
 40
0.0
 40
0.0579695135
 40
0.1293425285
 40
0.2215119821
 40
0.3371711634
 40
0.4766180935
 40
0.6372629688
 40
0.8145563996
 40
1.0
 40
1.0
 40
1.0
 40
1.0
 10
54.8833402816
 20
41.7653594771
 30
0.0
 10
54.8790321555
 20
41.7653594771
 30
0.0
 10
54.8693806714
 20
41.7683574026
 30
0.0
 10
54.8570802419
 20
41.7797454727
 30
0.0
 10
54.8458562267
 20
41.7973513511
 30
0.0
 10
54.8358085576
 20
41.8212187255
 30
0.0
 10
54.8273184634
 20
41.8509826037
 30
0.0
 10
54.8207710616
 20
41.8858956235
 30
0.0
 10
54.8166884268
 20
41.924611576
 30
0.0
 10
54.8157328723
 20
41.9515778468
 30
0.0
 10
54.8157328723
 20
41.9653594771
 30
0.0
  0
SPLINE
  5
2E8
100
AcDbEntity
  8
0
100
AcDbSpline
 62
7
  6
BYLAYER
 70
0
 71
3
 72
15
 73
11
 74
0
 42
0.0000001
 43
0.0000001
 44
0.0000000001
 40
0.0
 40
0.0
 40
0.0
 40
0.0
 40
0.1854817856
 40
0.3628589373
 40
0.5234599941
 40
0.6628203835
 40
0.7784541257
 40
0.8706239647
 40
0.9420176292
 40
1.0
 40
1.0
 40
1.0
 40
1.0
 10
52.4288139026
 20
41.9653594771
 30
0.0
 10
52.4288139026
 20
41.9515750731
 30
0.0
 10
52.4278538948
 20
41.9246000202
 30
0.0
 10
52.4237736345
 20
41.8858783453
 30
0.0
 10
52.4172279573
 20
41.850968427
 30
0.0
 10
52.4087357108
 20
41.8212174568
 30
0.0
 10
52.3986934463
 20
41.7973572687
 30
0.0
 10
52.3874703204
 20
41.7797508759
 30
0.0
 10
52.3751686251
 20
41.7683615285
 30
0.0
 10
52.3655155115
 20
41.7653594771
 30
0.0
 10
52.36120645
 20
41.7653594771
 30
0.0
  0
SPLINE
  5
2E9
100
AcDbEntity
  8
0
100
AcDbSpline
 62
7
  6
BYLAYER
 70
0
 71
3
 72
13
 73
9
 74
0
 42
0.0000001
 43
0.0000001
 44
0.0000000001
 40
0.0
 40
0.0
 40
0.0
 40
0.0
 40
0.0883220567
 40
0.1825386011
 40
0.2869773038
 40
0.4044719638
 40
0.6814478963
 40
1.0
 40
1.0
 40
1.0
 40
1.0
 10
53.0056791173
 20
41.7653594771
 30
0.0
 10
52.9981688349
 20
41.7653594771
 30
0.0
 10
52.9825602226
 20
41.7678350574
 30
0.0
 10
52.9603394091
 20
41.7786110469
 30
0.0
 10
52.9397048485
 20
41.7962268645
 30
0.0
 10
52.9138013541
 20
41.8301421276
 30
0.0
 10
52.8909466553
 20
41.8874388938
 30
0.0
 10
52.8848785388
 20
41.9382720618
 30
0.0
 10
52.8848785388
 20
41.9653594771
 30
0.0
  0
SPLINE
  5
2EA
100
AcDbEntity
  8
0
100
AcDbSpline
 62
7
  6
BYLAYER
 70
0
 71
3
 72
18
 73
14
 74
0
 42
0.0000001
 43
0.0000001
 44
0.0000000001
 40
0.0
 40
0.0
 40
0.0
 40
0.0
 40
0.2057385363
 40
0.4014917238
 40
0.5766300492
 40
0.7251732949
 40
0.8430308369
 40
0.8898658902
 40
0.9283836258
 40
0.9584957043
 40
0.9802467551
 40
0.993795259
 40
1.0
 40
1.0
 40
1.0
 40
1.0
 10
50.5792918607
 20
41.9653594771
 30
0.0
 10
50.5792918607
 20
41.9515835976
 30
0.0
 10
50.5791533553
 20
41.9247001885
 30
0.0
 10
50.5785648305
 20
41.8860941383
 30
0.0
 10
50.5776227344
 20
41.851324624
 30
0.0
 10
50.5764056535
 20
41.8217864309
 30
0.0
 10
50.575141966
 20
41.8008427774
 30
0.0
 10
50.5739934914
 20
41.7872924985
 30
0.0
 10
50.5731560466
 20
41.7795874677
 30
0.0
 10
50.5723457654
 20
41.7736372598
 30
0.0
 10
50.5714375998
 20
41.7692325742
 30
0.0
 10
50.5707667298
 20
41.7667567808
 30
0.0
 10
50.5699004057
 20
41.7653594771
 30
0.0
 10
50.5694849475
 20
41.7653594771
 30
0.0
  0
SPLINE
  5
2EB
100
AcDbEntity
  8
0
100
AcDbSpline
 62
7
  6
BYLAYER
 70
0
 71
3
 72
11
 73
7
 74
0
 42
0.0000001
 43
0.0000001
 44
0.0000000001
 40
0.0
 40
0.0
 40
0.0
 40
0.0
 40
0.2163650653
 40
0.4509224646
 40
0.7140410422
 40
1.0
 40
1.0
 40
1.0
 40
1.0
 10
51.1700378335
 20
41.7653594771
 30
0.0
 10
51.1494001541
 20
41.7653594771
 30
0.0
 10
51.105870668
 20
41.7754771673
 30
0.0
 10
51.050890144
 20
41.8188045484
 30
0.0
 10
51.0131702358
 20
41.8852283552
 30
0.0
 10
51.0042764456
 20
41.9380836816
 30
0.0
 10
51.0042764456
 20
41.9653594771
 30
0.0
  0
SPLINE
  5
2EC
100
AcDbEntity
  8
0
100
AcDbSpline
 62
7
  6
BYLAYER
 70
0
 71
3
 72
11
 73
7
 74
0
 42
0.0000001
 43
0.0000001
 44
0.0000000001
 40
0.0
 40
0.0
 40
0.0
 40
0.0
 40
0.2501069283
 40
0.500306341
 40
0.7502908388
 40
1.0
 40
1.0
 40
1.0
 40
1.0
 10
47.101500175
 20
41.7653594771
 30
0.0
 10
47.0738476686
 20
41.7653594771
 30
0.0
 10
47.0180837456
 20
41.7744843718
 30
0.0
 10
46.9439635754
 20
41.8155111543
 30
0.0
 10
46.8903179302
 20
41.8817481128
 30
0.0
 10
46.8768850793
 20
41.937750949
 30
0.0
 10
46.8768850793
 20
41.9653594771
 30
0.0
  0
ELLIPSE
  5
2ED
100
AcDbEntity
  8
0
100
AcDbEllipse
 62
7
  6
BYLAYER
 10
30.2722733875
 20
53.2653594771
 30
0.0
 11
20.4047686873
 21
-4.0147354537
 31
0.0
 40
0.2987966333
 41
7.9459875797
 42
7.9469569783
  0
ELLIPSE
  5
2EE
100
AcDbEntity
  8
0
100
AcDbEllipse
 62
7
  6
BYLAYER
 10
30.2722733875
 20
53.2653594771
 30
0.0
 11
20.4047686873
 21
4.0147354537
 31
0.0
 40
0.2987966333
 41
4.6194136361
 42
4.6203850136
  0
ENDSEC
  0
SECTION
  2
OBJECTS
  0
DICTIONARY
  5
C
100
AcDbDictionary
280
0
281
1
  3
ACAD_GROUP
350
D
  3
ACAD_MLINESTYLE
350
17
  3
ACAD_LAYOUT
350
1A
  3
ACAD_PLOTSETTINGS
350
19
  3
ACAD_PLOTSTYLENAME
350
E
  0
DICTIONARY
  5
D
102
{ACAD_REACTORS
330
C
102
}
100
AcDbDictionary
280
0
281
1
  0
ACDBDICTIONARYWDFLT
  5
E
102
{ACAD_REACTORS
330
C
102
}
100
AcDbDictionary
281
1
  3
Normal
350
F
100
AcDbDictionaryWithDefault
340
F
  0
DICTIONARY
  5
17
102
{ACAD_REACTORS
330
C
102
}
100
AcDbDictionary
280
0
281
1
  3
Standard
350
18
  0
DICTIONARY
  5
19
102
{ACAD_REACTORS
330
C
102
}
100
AcDbDictionary
281
1
  0
DICTIONARY
  5
1A
102
{ACAD_REACTORS
330
C
102
}
100
AcDbDictionary
281
1
  3
Model
350
2EF
  3
Layout1
350
2F0
  0
ACDBPLACEHOLDER
  5
F
102
{ACAD_REACTORS
330
E
102
}
  0
MLINESTYLE
  5
18
102
{ACAD_REACTORS
330
17
102
}
100
AcDbMlineStyle
  2
STANDARD
 70
0
  3

 62
256
 51
90.0
 52
90.0
 71
2
 49
0.5
 62
256
  6
BYLAYER
 49
-0.5
 62
256
  6
BYLAYER
  0
LAYOUT
  5
2EF
102
{ACAD_REACTORS
330
1A
102
}
100
AcDbPlotSettings
  1

  2
none_device
  4

  6

 40
0.0
 41
0.0
 42
0.0
 43
0.0
 44
210.0
 45
297.0
 46
0.0
 47
0.0
 48
0.0
 49
0.0
140
0.0
141
0.0
142
1.0
143
1.0
 70
1024
 72
1
 73
0
 74
0
  7

 75
0
147
1.0
148
0.0
149
0.0
100
AcDbLayout
  1
Model
 70
0
 71
0
 10
0.0
 20
0.0
 11
210.0
 21
297.0
 12
0.0
 22
0.0
 32
0.0
 14
0.0
 24
0.0
 34
0.0
 15
0.0
 25
0.0
 35
0.0
146
0.0
 13
0.0
 23
0.0
 33
0.0
 16
1.0
 26
0.0
 36
0.0
 17
0.0
 27
1.0
 37
0.0
 76
0
330
210
345
0
346
0
  0
LAYOUT
  5
2F0
102
{ACAD_REACTORS
330
1A
102
}
100
AcDbPlotSettings
  1

  2
none_device
  4

  6

 40
0.0
 41
0.0
 42
0.0
 43
0.0
 44
210.0
 45
297.0
 46
0.0
 47
0.0
 48
0.0
 49
0.0
140
0.0
141
0.0
142
1.0
143
1.0
 70
0
 72
1
 73
0
 74
0
  7

 75
0
147
1.0
148
0.0
149
0.0
100
AcDbLayout
  1
Layout1
 70
0
 71
1
 10
0.0
 20
0.0
 11
210.0
 21
297.0
 12
0.0
 22
0.0
 32
0.0
 14
0.0
 24
0.0
 34
0.0
 15
0.0
 25
0.0
 35
0.0
146
0.0
 13
0.0
 23
0.0
 33
0.0
 16
1.0
 26
0.0
 36
0.0
 17
0.0
 27
1.0
 37
0.0
 76
0
330
211
345
0
346
0
  0
ENDSEC
  0
EOF
