999
DXF file: C:\Users\sesa63760\Dev\_Creo\CAD\MCADID0003622_3D-CAD\drw0001_1.dxf
999
Pro/ENGINEER 2019471 by Parametric Technology Corporation
  0
SECTION
  2
HEADER
  9
$ACADVER
  1
AC1024
  9
$DWGCODEPAGE
  3
ANSI_1252
  9
$EXTMAX
 10
222.2367911859
 20
314.3063189629
 30
0.0
  9
$EXTMIN
 10
0.0
 20
0.0
 30
0.0
  9
$LIMMIN
 10
0.0
 20
0.0
  9
$LIMMAX
 10
222.2367911859
 20
314.3063189629
  9
$VIEWCTR
 10
111.1183955929
 20
157.1531594814
  9
$VIEWSIZE
 40
314.3063189629
  9
$CLAYER
  8
0
  9
$LTSCALE
 40
20.4881156065
  9
$CELTYPE
  6
BYLAYER
  9
$DIMSCALE
 40
1.0
  9
$DIMASZ
 40
2.6456760855
  9
$DIMEXO
 40
1.0
  9
$DIMDLI
 40
14.1554253281
  9
$DIMEXE
 40
1.0
  9
$DIMCEN
 40
3.3526007356
  9
$DIMLFAC
 40
1.0
  9
$DIMBLK
  1
_FILLED
  9
$DIMALT
 70
0
  9
$DIMALTF
 40
0.0393700787
  9
$DIMTXT
 40
3.7039465198
  9
$DIMTOL
 70
1
  9
$DIMLIM
 70
0
  9
$DIMTFAC
 40
1.0
  9
$DIMTP
 40
0.01
  9
$DIMTM
 40
0.01
  9
$DIMGAP
 40
0.625
  9
$DIMDSEP
 70
46
  9
$AUNITS
 70
0
  9
$PDMODE
 70
3
  9
$PDSIZE
 40
0.3125
  9
$HANDSEED
  5
2BA
  9
$TILEMODE
 70
1
  9
$MEASUREMENT
 70
1
  9
$INSUNITS
 70
4
  0
ENDSEC
  0
SECTION
  2
CLASSES
  0
CLASS
  1
ACDBDICTIONARYWDFLT
  2
AcDbDictionaryWithDefault
  3
AutoCAD 2000
 90
0
 91
1
280
0
281
0
  0
CLASS
  1
ACDBPLACEHOLDER
  2
AcDbPlaceHolder
  3
AutoCAD 2000
 90
0
 91
1
280
0
281
0
  0
CLASS
  1
LAYOUT
  2
AcDbLayout
  3
AutoCAD 2000
 90
0
 91
0
280
0
281
0
  0
ENDSEC
  0
SECTION
  2
TABLES
  0
TABLE
  2
VPORT
  5
8
100
AcDbSymbolTable
 70
2
  0
VPORT
  5
1F4
100
AcDbSymbolTableRecord
100
AcDbViewportTableRecord
  2
*ACTIVE
 70
0
 10
0.0
 20
0.0
 11
1.0
 21
1.0
 12
111.1183955929
 22
157.1531594814
 13
0.0
 23
0.0
 14
1.0
 24
1.0
 15
0.0
 25
0.0
 16
0.0
 26
0.0
 36
1.0
 17
0.0
 27
0.0
 37
0.0
 40
314.3063189629
 41
0.7070707071
 42
50.0
 43
0.0
 44
0.0
 50
0.0
 51
0.0
 71
0
 72
100
 73
1
 74
1
 75
0
 76
0
 77
0
 78
0
  0
ENDTAB
  0
TABLE
  2
LTYPE
  5
5
100
AcDbSymbolTable
 70
6
  0
LTYPE
  5
14
100
AcDbSymbolTableRecord
100
AcDbLinetypeTableRecord
  2
BYBLOCK
 70
0
  3

 72
65
 73
0
 40
0.0
  0
LTYPE
  5
15
100
AcDbSymbolTableRecord
100
AcDbLinetypeTableRecord
  2
BYLAYER
 70
0
  3

 72
65
 73
0
 40
0.0
  0
LTYPE
  5
16
100
AcDbSymbolTableRecord
100
AcDbLinetypeTableRecord
  2
CONTINUOUS
 70
64
  3
Solid line
 72
65
 73
0
 40
0.0
  0
LTYPE
  5
1F5
100
AcDbSymbolTableRecord
100
AcDbLinetypeTableRecord
  2
CENTER
 70
64
  3
____ _ ____ _ ____ _ ____ _ ____ _ ____ _ ____
 72
65
 73
4
 40
0.6
 49
0.375
 74
0
 49
-0.075
 74
0
 49
0.075
 74
0
 49
-0.075
 74
0
  0
LTYPE
  5
1F6
100
AcDbSymbolTableRecord
100
AcDbLinetypeTableRecord
  2
HIDDEN
 70
64
  3
- - - - - - - - - - - - - - - - - - - -
 72
65
 73
2
 40
0.2
 49
0.1
 74
0
 49
-0.1
 74
0
  0
LTYPE
  5
1F7
100
AcDbSymbolTableRecord
100
AcDbLinetypeTableRecord
  2
PHANTOM
 70
64
  3
_____ _ _ _____ _ _ _____ _ _ _____
 72
65
 73
6
 40
0.8
 49
0.45
 74
0
 49
-0.05
 74
0
 49
0.1
 74
0
 49
-0.05
 74
0
 49
0.1
 74
0
 49
-0.05
 74
0
  0
LTYPE
  5
1F8
100
AcDbSymbolTableRecord
100
AcDbLinetypeTableRecord
  2
DOT
 70
64
  3
. . . . . . . . . . . . . . . . . . . .
 72
65
 73
2
 40
0.2
 49
0.1
 74
0
 49
-0.1
 74
0
  0
LTYPE
  5
1F9
100
AcDbSymbolTableRecord
100
AcDbLinetypeTableRecord
  2
DASHED
 70
64
  3
- - - - - - - - - - - - - - - - - - - -
 72
65
 73
2
 40
0.2
 49
0.1
 74
0
 49
-0.1
 74
0
  0
ENDTAB
  0
TABLE
  2
LAYER
  5
2
100
AcDbSymbolTable
 70
36
  0
LAYER
  5
10
100
AcDbSymbolTableRecord
100
AcDbLayerTableRecord
  2
0
 70
0
 62
7
  6
CONTINUOUS
370
-3
390
F
  0
LAYER
  5
1FA
100
AcDbSymbolTableRecord
100
AcDbLayerTableRecord
  2
DEFAULT_1
 70
0
 62
7
  6
CENTER
370
-3
390
F
  0
LAYER
  5
1FB
100
AcDbSymbolTableRecord
100
AcDbLayerTableRecord
  2
DEFAULT_2
 70
0
 62
7
  6
HIDDEN
370
-3
390
F
  0
LAYER
  5
1FC
100
AcDbSymbolTableRecord
100
AcDbLayerTableRecord
  2
DEFAULT_3
 70
0
 62
7
  6
PHANTOM
370
-3
390
F
  0
LAYER
  5
1FD
100
AcDbSymbolTableRecord
100
AcDbLayerTableRecord
  2
00_COMPONENTS
 70
0
 62
7
  6
CONTINUOUS
370
-3
390
F
  0
LAYER
  5
1FE
100
AcDbSymbolTableRecord
100
AcDbLayerTableRecord
  2
01_1_DEFAULT_DATUMS
 70
0
 62
7
  6
CONTINUOUS
370
-3
390
F
  0
LAYER
  5
1FF
100
AcDbSymbolTableRecord
100
AcDbLayerTableRecord
  2
01_PLANES
 70
0
 62
7
  6
CONTINUOUS
370
-3
390
F
  0
LAYER
  5
200
100
AcDbSymbolTableRecord
100
AcDbLayerTableRecord
  2
02_COORD_SYS
 70
0
 62
7
  6
CONTINUOUS
370
-3
390
F
  0
LAYER
  5
201
100
AcDbSymbolTableRecord
100
AcDbLayerTableRecord
  2
03_AXES
 70
0
 62
7
  6
CONTINUOUS
370
-3
390
F
  0
LAYER
  5
202
100
AcDbSymbolTableRecord
100
AcDbLayerTableRecord
  2
04_POINTS
 70
0
 62
7
  6
CONTINUOUS
370
-3
390
F
  0
LAYER
  5
203
100
AcDbSymbolTableRecord
100
AcDbLayerTableRecord
  2
05_CURVES
 70
0
 62
7
  6
CONTINUOUS
370
-3
390
F
  0
LAYER
  5
204
100
AcDbSymbolTableRecord
100
AcDbLayerTableRecord
  2
06_SURFS
 70
0
 62
7
  6
CONTINUOUS
370
-3
390
F
  0
LAYER
  5
205
100
AcDbSymbolTableRecord
100
AcDbLayerTableRecord
  2
07_COSMETICS
 70
0
 62
7
  6
CONTINUOUS
370
-3
390
F
  0
LAYER
  5
206
100
AcDbSymbolTableRecord
100
AcDbLayerTableRecord
  2
1
 70
0
 62
7
  6
CONTINUOUS
370
-3
390
F
  0
LAYER
  5
207
100
AcDbSymbolTableRecord
100
AcDbLayerTableRecord
  2
10_NOTES
 70
0
 62
7
  6
CONTINUOUS
370
-3
390
F
  0
LAYER
  5
208
100
AcDbSymbolTableRecord
100
AcDbLayerTableRecord
  2
11_NOTES_PUB
 70
0
 62
7
  6
CONTINUOUS
370
-3
390
F
  0
LAYER
  5
209
100
AcDbSymbolTableRecord
100
AcDbLayerTableRecord
  2
13_REF_GTOL
 70
0
 62
7
  6
CONTINUOUS
370
-3
390
F
  0
LAYER
  5
20A
100
AcDbSymbolTableRecord
100
AcDbLayerTableRecord
  2
16_MISC
 70
0
 62
7
  6
CONTINUOUS
370
-3
390
F
  0
LAYER
  5
20B
100
AcDbSymbolTableRecord
100
AcDbLayerTableRecord
  2
17_NO_PRINT
 70
0
 62
7
  6
CONTINUOUS
370
-3
390
F
  0
LAYER
  5
20C
100
AcDbSymbolTableRecord
100
AcDbLayerTableRecord
  2
18_DATUM_CAMS_JOINTS
 70
0
 62
7
  6
CONTINUOUS
370
-3
390
F
  0
LAYER
  5
20D
100
AcDbSymbolTableRecord
100
AcDbLayerTableRecord
  2
19_DATUM_FUNCTIONAL
 70
0
 62
7
  6
CONTINUOUS
370
-3
390
F
  0
LAYER
  5
20E
100
AcDbSymbolTableRecord
100
AcDbLayerTableRecord
  2
2
 70
0
 62
7
  6
CONTINUOUS
370
-3
390
F
  0
LAYER
  5
20F
100
AcDbSymbolTableRecord
100
AcDbLayerTableRecord
  2
20_DATUM_KINEMATIC_SCHEME
 70
0
 62
7
  6
CONTINUOUS
370
-3
390
F
  0
ENDTAB
  0
TABLE
  2
STYLE
  5
3
100
AcDbSymbolTable
 70
1
  0
STYLE
  5
11
100
AcDbSymbolTableRecord
100
AcDbTextStyleTableRecord
  2
STANDARD
 70
0
 40
0.0
 41
1.0
 50
0.0
 71
0
 42
0.2
  3
ARIAL.TTF
  4

  0
STYLE
  5
210
100
AcDbSymbolTableRecord
100
AcDbTextStyleTableRecord
  2
TEXTSTYLE_1
 70
0
 40
0.0
 41
0.8
 50
0.0
 71
0
 42
0.2
  3
gdt
  4

  0
ENDTAB
  0
TABLE
  2
VIEW
  5
6
100
AcDbSymbolTable
 70
0
  0
ENDTAB
  0
TABLE
  2
UCS
  5
7
100
AcDbSymbolTable
 70
0
  0
ENDTAB
  0
TABLE
  2
APPID
  5
9
100
AcDbSymbolTable
 70
1
  0
APPID
  5
211
100
AcDbSymbolTableRecord
100
AcDbRegAppTableRecord
  2
ACAD
 70
0
  0
ENDTAB
  0
TABLE
  2
BLOCK_RECORD
  5
1
100
AcDbSymbolTable
 70
0
  0
BLOCK_RECORD
  5
212
100
AcDbSymbolTableRecord
100
AcDbBlockTableRecord
  2
*Model_Space
  0
BLOCK_RECORD
  5
213
100
AcDbSymbolTableRecord
100
AcDbBlockTableRecord
  2
*Paper_Space
  0
BLOCK_RECORD
  5
214
100
AcDbSymbolTableRecord
100
AcDbBlockTableRecord
  2
_FILLED
  0
ENDTAB
  0
TABLE
  2
DIMSTYLE
  5
A
100
AcDbSymbolTable
 70
1
100
AcDbDimStyleTable
 71
0
  0
DIMSTYLE
105
215
100
AcDbSymbolTableRecord
100
AcDbDimStyleTableRecord
  2
STANDARD
 70
0
  3

  4

 40
1.0
 41
2.6456760855
 42
1.0
 43
0.38
 44
1.0
 45
0.0
 46
0.0
 47
0.01
 48
0.01
140
3.7039465198
141
0.09
142
0.0
143
25.4
144
1.0
145
0.0
146
1.0
147
0.625
 71
1
 72
0
 73
0
 74
0
 75
0
 76
0
 77
1
 78
8
 79
2
170
0
171
1
172
0
173
0
174
0
175
0
176
0
177
0
178
0
270
2
179
2
271
2
272
2
273
2
274
2
275
0
280
0
281
0
282
0
283
1
284
8
285
0
286
0
287
3
288
0
340
11
278
46
341
214
342
214
343
214
344
214
  0
ENDTAB
  0
ENDSEC
  0
SECTION
  2
BLOCKS
  0
BLOCK
  5
20
100
AcDbEntity
  8
0
100
AcDbBlockBegin
  2
*Model_Space
 70
0
 10
0.0
 20
0.0
 30
0.0
  3
*Model_Space
  1

  0
ENDBLK
  5
21
100
AcDbEntity
  8
0
100
AcDbBlockEnd
  0
BLOCK
  5
1C
100
AcDbEntity
  8
0
100
AcDbBlockBegin
  2
*Paper_Space
 70
0
 10
0.0
 20
0.0
 30
0.0
  3
*Paper_Space
  1

  0
ENDBLK
  5
1D
100
AcDbEntity
  8
0
100
AcDbBlockEnd
  0
BLOCK
  5
216
100
AcDbEntity
  8
0
100
AcDbBlockBegin
  2
_FILLED
 70
64
 10
0.0
 20
0.0
  3
_FILLED
  1

  0
SOLID
  5
217
100
AcDbEntity
  8
0
  6
BYBLOCK
 62
0
100
AcDbTrace
 10
0.0
 20
0.0
 11
-1.0
 21
0.25
 12
-1.0
 22
-0.25
 13
-1.0
 23
-0.25
  0
ENDBLK
  5
218
100
AcDbEntity
  8
0
  6
BYBLOCK
 62
0
100
AcDbBlockEnd
  0
ENDSEC
  0
SECTION
  2
ENTITIES
  0
LINE
  5
219
100
AcDbEntity
  8
1
100
AcDbLine
 62
7
  6
BYLAYER
 10
25.7820246726
 20
108.9341452194
 11
25.7820246726
 21
141.2676409378
  0
LINE
  5
21A
100
AcDbEntity
  8
1
100
AcDbLine
 62
7
  6
BYLAYER
 10
32.6454330769
 20
145.2302079742
 11
32.6454330769
 21
153.571943723
  0
LINE
  5
21B
100
AcDbEntity
  8
1
100
AcDbLine
 62
7
  6
BYLAYER
 10
33.4940218975
 20
145.15695374
 11
33.4940218975
 21
136.8152179912
  0
LINE
  5
21C
100
AcDbEntity
  8
1
100
AcDbLine
 62
7
  6
BYLAYER
 10
56.5412977165
 20
91.1756723978
 11
25.7820246726
 21
108.9341452194
  0
LINE
  5
21D
100
AcDbEntity
  8
1
100
AcDbLine
 62
7
  6
BYLAYER
 10
37.5289914012
 20
150.7524837945
 11
37.5289914012
 21
147.4865441609
  0
LINE
  5
21E
100
AcDbEntity
  8
2
100
AcDbLine
 62
7
  6
BYLAYER
 10
66.626310104
 20
107.7164748667
 11
64.6819908155
 21
108.8390027363
  0
LINE
  5
21F
100
AcDbEntity
  8
1
100
AcDbLine
 62
7
  6
BYLAYER
 10
48.8293004915
 20
136.3033268114
 11
48.8293004915
 21
127.9615910627
  0
LINE
  5
220
100
AcDbEntity
  8
1
100
AcDbLine
 62
7
  6
BYLAYER
 10
52.864293547
 20
138.6329172324
 11
52.864293547
 21
130.2911814836
  0
LINE
  5
221
100
AcDbEntity
  8
1
100
AcDbLine
 62
7
  6
BYLAYER
 10
55.2200828882
 20
130.2544557228
 11
55.2200828882
 21
126.2759234034
  0
LINE
  5
222
100
AcDbEntity
  8
1
100
AcDbLine
 62
7
  6
BYLAYER
 10
33.4940218975
 20
136.8152179912
 11
25.7820246726
 21
141.2676409378
  0
LINE
  5
223
100
AcDbEntity
  8
1
100
AcDbLine
 62
7
  6
BYLAYER
 10
48.8293004915
 20
127.9615910627
 11
56.5412977165
 21
123.5091681161
  0
LINE
  5
224
100
AcDbEntity
  8
1
100
AcDbLine
 62
7
  6
BYLAYER
 10
56.5412977165
 20
123.5091681161
 11
56.5412977165
 21
91.1756723978
  0
LINE
  5
225
100
AcDbEntity
  8
1
100
AcDbLine
 62
7
  6
BYLAYER
 10
58.5211477964
 20
130.291195081
 11
58.5211477964
 21
138.6329308298
  0
LINE
  5
226
100
AcDbEntity
  8
1
100
AcDbLine
 62
7
  6
BYLAYER
 10
33.4940218975
 20
144.7402860737
 11
32.6454330769
 21
145.2302079742
  0
LINE
  5
227
100
AcDbEntity
  8
1
100
AcDbLine
 62
7
  6
BYLAYER
 10
58.5211477964
 20
130.291195081
 11
63.4047061208
 21
127.4717351526
  0
LINE
  5
228
100
AcDbEntity
  8
1
100
AcDbLine
 62
7
  6
BYLAYER
 10
33.4940218975
 20
145.15695374
 11
48.8293004915
 21
136.3033268114
  0
LINE
  5
229
100
AcDbEntity
  8
1
100
AcDbLine
 62
7
  6
BYLAYER
 10
63.4047061208
 20
127.4717351526
 11
63.4047061208
 21
135.8134709013
  0
LINE
  5
22A
100
AcDbEntity
  8
1
100
AcDbLine
 62
7
  6
BYLAYER
 10
63.4047061208
 20
135.8134709013
 11
58.5211477964
 21
138.6329308298
  0
LINE
  5
22B
100
AcDbEntity
  8
1
100
AcDbLine
 62
7
  6
BYLAYER
 10
32.6454330769
 20
153.571943723
 11
37.5289914012
 21
150.7524837945
  0
LINE
  5
22C
100
AcDbEntity
  8
1
100
AcDbLine
 62
7
  6
BYLAYER
 10
32.6454330769
 20
153.571943723
 11
134.4992396442
 21
212.3769153442
  0
LINE
  5
22D
100
AcDbEntity
  8
2
100
AcDbLine
 62
7
  6
BYLAYER
 10
78.6290773945
 20
128.5063479644
 11
76.684758106
 21
129.6288758341
  0
LINE
  5
22E
100
AcDbEntity
  8
1
100
AcDbLine
 62
7
  6
BYLAYER
 10
25.7820246726
 20
141.2676409378
 11
32.6454330769
 21
145.2302079742
  0
LINE
  5
22F
100
AcDbEntity
  8
1
100
AcDbLine
 62
7
  6
BYLAYER
 10
37.529014953
 20
147.4865441609
 11
33.4940218975
 21
145.15695374
  0
LINE
  5
230
100
AcDbEntity
  8
1
100
AcDbLine
 62
7
  6
BYLAYER
 10
131.3029289439
 20
200.8836350539
 11
126.0931621002
 21
197.8757927187
  0
LINE
  5
231
100
AcDbEntity
  8
1
100
AcDbLine
 62
7
  6
BYLAYER
 10
172.4328620047
 20
223.8977150677
 11
150.4571650589
 21
211.2101162552
  0
LINE
  5
232
100
AcDbEntity
  8
1
100
AcDbLine
 62
7
  6
BYLAYER
 10
162.558593286
 20
216.4473429502
 11
171.6744251699
 21
221.7103395264
  0
LINE
  5
233
100
AcDbEntity
  8
1
100
AcDbLine
 62
7
  6
BYLAYER
 10
166.7441918726
 20
214.1153351818
 11
172.3627633177
 21
217.3591995548
  0
LINE
  5
234
100
AcDbEntity
  8
1
100
AcDbLine
 62
7
  6
BYLAYER
 10
132.9085634319
 20
193.9410079419
 11
138.1305922418
 21
196.9559296843
  0
LINE
  5
235
100
AcDbEntity
  8
1
100
AcDbLine
 62
7
  6
BYLAYER
 10
171.7464480454
 20
213.7612845463
 11
169.6251370393
 21
212.5365523765
  0
LINE
  5
236
100
AcDbEntity
  8
1
100
AcDbLine
 62
7
  6
BYLAYER
 10
132.9085634319
 20
190.3488978915
 11
138.1299470271
 21
193.3634471213
  0
LINE
  5
237
100
AcDbEntity
  8
2
100
AcDbLine
 62
7
  6
BYLAYER
 10
35.0202672883
 20
130.2065890678
 11
34.1010323
 21
129.6758716678
  0
LINE
  5
238
100
AcDbEntity
  8
1
100
AcDbLine
 62
7
  6
BYLAYER
 10
52.864293547
 20
138.6329172324
 11
48.8293004915
 21
136.3033268114
  0
LINE
  5
239
100
AcDbEntity
  8
1
100
AcDbLine
 62
7
  6
BYLAYER
 10
48.8293004915
 20
127.9615910627
 11
52.864293547
 21
130.2911814836
  0
LINE
  5
23A
100
AcDbEntity
  8
1
100
AcDbLine
 62
7
  6
BYLAYER
 10
192.2255775272
 20
205.8916578546
 11
196.0143402219
 21
207.6580009255
  0
LINE
  5
23B
100
AcDbEntity
  8
1
100
AcDbLine
 62
7
  6
BYLAYER
 10
63.4047061208
 20
135.8134709013
 11
165.2585126881
 21
194.6184425226
  0
LINE
  5
23C
100
AcDbEntity
  8
1
100
AcDbLine
 62
7
  6
BYLAYER
 10
55.2200828882
 20
130.2544557228
 11
51.78755645
 21
128.2726974892
  0
LINE
  5
23D
100
AcDbEntity
  8
1
100
AcDbLine
 62
7
  6
BYLAYER
 10
186.6070060822
 20
202.6477934816
 11
192.2255775272
 21
205.8916578546
  0
LINE
  5
23E
100
AcDbEntity
  8
1
100
AcDbLine
 62
7
  6
BYLAYER
 10
186.898508338
 20
202.3950043492
 11
196.0143402219
 21
207.6580009255
  0
LINE
  5
23F
100
AcDbEntity
  8
1
100
AcDbLine
 62
7
  6
BYLAYER
 10
55.2461488599
 20
126.2759234034
 11
58.6786752981
 21
128.257681637
  0
LINE
  5
240
100
AcDbEntity
  8
1
100
AcDbLine
 62
7
  6
BYLAYER
 10
199.9065747752
 20
208.0361184413
 11
174.9458111323
 21
193.625100855
  0
LINE
  5
241
100
AcDbEntity
  8
1
100
AcDbLine
 62
7
  6
BYLAYER
 10
176.4661085079
 20
192.7473766127
 11
165.2585126881
 21
186.2767067739
  0
LINE
  5
242
100
AcDbEntity
  8
1
100
AcDbLine
 62
7
  6
BYLAYER
 10
56.5412977165
 20
123.5091681161
 11
63.4047061208
 21
127.4717351526
  0
LINE
  5
243
100
AcDbEntity
  8
1
100
AcDbLine
 62
7
  6
BYLAYER
 10
126.0931621002
 20
194.2836826683
 11
126.0931621002
 21
197.8757927187
  0
LINE
  5
244
100
AcDbEntity
  8
2
100
AcDbLine
 62
7
  6
BYLAYER
 10
47.0202135658
 20
109.4219483604
 11
46.1009785774
 21
108.8912309603
  0
LINE
  5
245
100
AcDbEntity
  8
1
100
AcDbLine
 62
7
  6
BYLAYER
 10
130.4164170266
 20
200.371810215
 11
130.4164170266
 21
203.5251649181
  0
LINE
  5
246
100
AcDbEntity
  8
2
100
AcDbLine
 62
7
  6
BYLAYER
 10
130.4164170266
 20
203.5251649181
 11
130.4164170266
 21
205.7705465652
  0
LINE
  5
247
100
AcDbEntity
  8
1
100
AcDbLine
 62
7
  6
BYLAYER
 10
132.9085634319
 20
190.3488978915
 11
132.9085634319
 21
193.9410079419
  0
LINE
  5
248
100
AcDbEntity
  8
1
100
AcDbLine
 62
7
  6
BYLAYER
 10
138.1299470271
 20
196.9555571717
 11
138.1299470271
 21
193.3634471213
  0
LINE
  5
249
100
AcDbEntity
  8
1
100
AcDbLine
 62
7
  6
BYLAYER
 10
158.6661547091
 20
199.243943568
 11
162.3658292065
 21
207.1484477936
  0
LINE
  5
24A
100
AcDbEntity
  8
1
100
AcDbLine
 62
7
  6
BYLAYER
 10
162.3658292065
 20
198.8067120449
 11
161.4379260245
 21
196.8242093602
  0
LINE
  5
24B
100
AcDbEntity
  8
1
100
AcDbLine
 62
7
  6
BYLAYER
 10
199.9065747752
 20
176.3120981838
 11
176.4661085079
 21
162.7788194572
  0
LINE
  5
24C
100
AcDbEntity
  8
1
100
AcDbLine
 62
7
  6
BYLAYER
 10
56.5412977165
 20
91.1756723978
 11
176.4661085079
 21
160.4138808944
  0
LINE
  5
24D
100
AcDbEntity
  8
1
100
AcDbLine
 62
7
  6
BYLAYER
 10
158.5969084775
 20
198.9427253595
 11
158.6661547091
 21
199.243943568
  0
LINE
  5
24E
100
AcDbEntity
  8
1
100
AcDbLine
 62
7
  6
BYLAYER
 10
162.3658292065
 20
207.1484477936
 11
162.5389510347
 21
207.9014933103
  0
LINE
  5
24F
100
AcDbEntity
  8
1
100
AcDbLine
 62
7
  6
BYLAYER
 10
154.9164170266
 20
199.3335885639
 11
154.9164170266
 21
203.5251649181
  0
LINE
  5
250
100
AcDbEntity
  8
2
100
AcDbLine
 62
7
  6
BYLAYER
 10
154.9164170266
 20
203.5251649181
 11
154.9164170266
 21
205.7705465652
  0
LINE
  5
251
100
AcDbEntity
  8
1
100
AcDbLine
 62
7
  6
BYLAYER
 10
162.5389510196
 20
199.5597575615
 11
162.3658292065
 21
198.8067120449
  0
LINE
  5
252
100
AcDbEntity
  8
1
100
AcDbLine
 62
7
  6
BYLAYER
 10
126.0931621002
 20
194.2836826683
 11
132.9085634319
 21
190.3488978915
  0
LINE
  5
253
100
AcDbEntity
  8
1
100
AcDbLine
 62
7
  6
BYLAYER
 10
126.0931621002
 20
197.8757927187
 11
132.9085634319
 21
193.9410079419
  0
LINE
  5
254
100
AcDbEntity
  8
1
100
AcDbLine
 62
7
  6
BYLAYER
 10
158.6661547091
 20
198.6434105915
 11
158.6661547091
 21
199.243943568
  0
LINE
  5
255
100
AcDbEntity
  8
1
100
AcDbLine
 62
7
  6
BYLAYER
 10
162.3658292065
 20
207.1484477936
 11
162.3658292065
 21
198.8067120449
  0
LINE
  5
256
100
AcDbEntity
  8
1
100
AcDbLine
 62
7
  6
BYLAYER
 10
162.5389545749
 20
199.559757561
 11
162.5389545749
 21
207.9014933097
  0
LINE
  5
257
100
AcDbEntity
  8
1
100
AcDbLine
 62
7
  6
BYLAYER
 10
171.7464480454
 20
213.7612845463
 11
172.3627633177
 21
217.3591995548
  0
LINE
  5
258
100
AcDbEntity
  8
1
100
AcDbLine
 62
7
  6
BYLAYER
 10
156.2126460631
 20
210.6847911881
 11
152.3787921534
 21
210.0758340071
  0
LINE
  5
259
100
AcDbEntity
  8
1
100
AcDbLine
 62
7
  6
BYLAYER
 10
165.2585126881
 20
194.6184425226
 11
165.2585126881
 21
186.2767067739
  0
LINE
  5
25A
100
AcDbEntity
  8
1
100
AcDbLine
 62
7
  6
BYLAYER
 10
171.7464480454
 20
213.7612845463
 11
171.7464480454
 21
211.3118406028
  0
LINE
  5
25B
100
AcDbEntity
  8
1
100
AcDbLine
 62
7
  6
BYLAYER
 10
134.4992396442
 20
212.3769153442
 11
135.8800783252
 21
211.5797057953
  0
LINE
  5
25C
100
AcDbEntity
  8
1
100
AcDbLine
 62
7
  6
BYLAYER
 10
159.1826968873
 20
198.1262370538
 11
165.2585126881
 21
194.6184425226
  0
LINE
  5
25D
100
AcDbEntity
  8
1
100
AcDbLine
 62
7
  6
BYLAYER
 10
176.4661085079
 20
192.7473766127
 11
176.4661085079
 21
160.4138808944
  0
LINE
  5
25E
100
AcDbEntity
  8
1
100
AcDbLine
 62
7
  6
BYLAYER
 10
176.4661085079
 20
192.7473766127
 11
162.5389545749
 21
200.7880407809
  0
LINE
  5
25F
100
AcDbEntity
  8
1
100
AcDbLine
 62
7
  6
BYLAYER
 10
172.3627633177
 20
217.3591995548
 11
171.6744251699
 21
221.7103395264
  0
LINE
  5
260
100
AcDbEntity
  8
1
100
AcDbLine
 62
7
  6
BYLAYER
 10
166.7441918726
 20
214.1153351818
 11
169.6251370393
 21
212.5365523765
  0
LINE
  5
261
100
AcDbEntity
  8
1
100
AcDbLine
 62
7
  6
BYLAYER
 10
162.558593286
 20
216.4473429502
 11
166.7441918726
 21
214.1153351818
  0
LINE
  5
262
100
AcDbEntity
  8
1
100
AcDbLine
 62
7
  6
BYLAYER
 10
162.558593286
 20
216.4473429502
 11
186.898508338
 21
202.3950043492
  0
LINE
  5
263
100
AcDbEntity
  8
1
100
AcDbLine
 62
7
  6
BYLAYER
 10
169.6251370393
 20
212.5365523765
 11
186.680181108
 21
202.6900408503
  0
LINE
  5
264
100
AcDbEntity
  8
1
100
AcDbLine
 62
7
  6
BYLAYER
 10
188.8014921141
 20
203.91477302
 11
171.7464480454
 21
213.7612845463
  0
LINE
  5
265
100
AcDbEntity
  8
1
100
AcDbLine
 62
7
  6
BYLAYER
 10
199.9065747752
 20
176.3120981838
 11
199.9065747752
 21
208.0361184413
  0
LINE
  5
266
100
AcDbEntity
  8
1
100
AcDbLine
 62
7
  6
BYLAYER
 10
196.0143402219
 20
207.6580009255
 11
171.6744251699
 21
221.7103395264
  0
LINE
  5
267
100
AcDbEntity
  8
1
100
AcDbLine
 62
7
  6
BYLAYER
 10
199.9065747752
 20
208.0361184413
 11
172.4328620047
 21
223.8977150677
  0
LINE
  5
268
100
AcDbEntity
  8
1
100
AcDbLine
 62
7
  6
BYLAYER
 10
186.898508338
 20
202.3950043492
 11
186.6070060822
 21
202.6477934816
  0
ARC
  5
269
100
AcDbEntity
  8
1
100
AcDbCircle
 62
7
  6
BYLAYER
 10
142.6650946951
 20
217.6523645799
 40
21.1996439705
100
AcDbArc
 50
269.0208276654
 51
272.1140373445
  0
ARC
  5
26A
100
AcDbEntity
  8
1
100
AcDbCircle
 62
7
  6
BYLAYER
 10
143.0849276222
 20
214.8398243217
 40
18.3522147359
100
AcDbArc
 50
281.9574919297
 51
284.3492858264
  0
ARC
  5
26B
100
AcDbEntity
  8
2
100
AcDbCircle
 62
7
  6
BYLAYER
 10
35.8843734348
 20
114.7875245102
 40
13.6258152704
100
AcDbArc
 50
5.6250527926
 51
6.7365302786
  0
ARC
  5
26C
100
AcDbEntity
  8
1
100
AcDbCircle
 62
7
  6
BYLAYER
 10
145.6121292835
 20
208.4252488777
 40
11.4327230844
100
AcDbArc
 50
299.660787038
 51
300.8341659931
  0
ARC
  5
26D
100
AcDbEntity
  8
2
100
AcDbCircle
 62
7
  6
BYLAYER
 10
35.9413551896
 20
120.8875178142
 40
10.0947090523
100
AcDbArc
 50
61.6041286312
 51
65.2937275592
  0
ARC
  5
26E
100
AcDbEntity
  8
2
100
AcDbCircle
 62
7
  6
BYLAYER
 10
47.8401168191
 20
126.4314179695
 40
8.0927171021
100
AcDbArc
 50
177.3092633827
 51
180.0256615685
  0
ARC
  5
26F
100
AcDbEntity
  8
2
100
AcDbCircle
 62
7
  6
BYLAYER
 10
136.1091704741
 20
204.2357324383
 40
5.8597346745
100
AcDbArc
 50
214.3213118168
 51
214.8403531897
  0
ARC
  5
270
100
AcDbEntity
  8
1
100
AcDbCircle
 62
7
  6
BYLAYER
 10
136.1056677865
 20
204.2330419484
 40
5.8553246652
100
AcDbArc
 50
214.6547576698
 51
214.8917328144
  0
ARC
  5
271
100
AcDbEntity
  8
1
100
AcDbCircle
 62
7
  6
BYLAYER
 10
55.9178326309
 20
156.2758162521
 40
0.9762388678
100
AcDbArc
 50
38.6098824264
 51
43.7517352632
  0
ARC
  5
272
100
AcDbEntity
  8
1
100
AcDbCircle
 62
7
  6
BYLAYER
 10
52.0325265348
 20
154.0335962307
 40
0.9713533585
100
AcDbArc
 50
38.6796244767
 51
43.3181839109
  0
SPLINE
  5
273
100
AcDbEntity
  8
2
100
AcDbSpline
 62
7
  6
BYLAYER
 70
0
 71
3
 72
25
 73
21
 74
0
 42
0.0000001
 43
0.0000001
 44
0.0000000001
 40
0.0
 40
0.0
 40
0.0
 40
0.0
 40
0.0623844369
 40
0.1287220483
 40
0.1983152935
 40
0.2702917372
 40
0.3436692738
 40
0.4174011342
 40
0.4904256613
 40
0.5617124144
 40
0.6303100737
 40
0.6953980456
 40
0.7563459252
 40
0.8127833931
 40
0.8646840025
 40
0.9124586405
 40
0.9351030102
 40
0.9571080972
 40
0.9786682685
 40
1.0
 40
1.0
 40
1.0
 40
1.0
 10
151.3284390324
 20
210.7715374502
 30
0.0
 10
150.88831056
 20
211.0256399936
 30
0.0
 10
149.9451355071
 20
211.4906770509
 30
0.0
 10
148.4236565831
 20
212.0419337796
 30
0.0
 10
146.7794982287
 20
212.45933212
 30
0.0
 10
145.0477878277
 20
212.7339080914
 30
0.0
 10
143.2652821136
 20
212.8599166187
 30
0.0
 10
141.4700037501
 20
212.8346492649
 30
0.0
 10
139.7002469282
 20
212.6586543096
 30
0.0
 10
137.9937207065
 20
212.3356697249
 30
0.0
 10
136.3866802244
 20
211.872523544
 30
0.0
 10
134.9130959647
 20
211.2788621002
 30
0.0
 10
133.603943643
 20
210.5668444356
 30
0.0
 10
132.4865914487
 20
209.7503214444
 30
0.0
 10
131.5849929164
 20
208.8451016146
 30
0.0
 10
131.020587194
 20
208.0145881682
 30
0.0
 10
130.7060976339
 20
207.3288734266
 30
0.0
 10
130.5393495294
 20
206.8145174207
 30
0.0
 10
130.4388632483
 20
206.2941457737
 30
0.0
 10
130.416420954
 20
205.9443251441
 30
0.0
 10
130.416426682
 20
205.7705465712
 30
0.0
  0
SPLINE
  5
274
100
AcDbEntity
  8
2
100
AcDbSpline
 62
7
  6
BYLAYER
 70
0
 71
3
 72
10
 73
6
 74
0
 42
0.0000001
 43
0.0000001
 44
0.0000000001
 40
0.0
 40
0.0
 40
0.0
 40
0.0
 40
0.2716683483
 40
0.5289075389
 40
1.0
 40
1.0
 40
1.0
 40
1.0
 10
134.0043950207
 20
198.5241740332
 30
0.0
 10
133.7208382232
 20
198.687881923
 30
0.0
 10
133.1817289534
 20
199.0304577732
 30
0.0
 10
132.2309157579
 20
199.772070111
 30
0.0
 10
131.6241701035
 20
200.4221142447
 30
0.0
 10
131.2998105015
 20
200.8881143134
 30
0.0
  0
SPLINE
  5
275
100
AcDbEntity
  8
2
100
AcDbSpline
 62
7
  6
BYLAYER
 70
0
 71
3
 72
11
 73
7
 74
0
 42
0.0000001
 43
0.0000001
 44
0.0000000001
 40
0.0
 40
0.0
 40
0.0
 40
0.0
 40
0.2633669832
 40
0.5155902938
 40
0.7598685746
 40
1.0
 40
1.0
 40
1.0
 40
1.0
 10
131.2696822466
 20
200.9318189781
 30
0.0
 10
131.1325994762
 20
201.1326179999
 30
0.0
 10
130.888433153
 20
201.5431378551
 30
0.0
 10
130.617308186
 20
202.1927860369
 30
0.0
 10
130.4531502119
 20
202.8554768982
 30
0.0
 10
130.4164337653
 20
203.3034855701
 30
0.0
 10
130.4164263748
 20
203.5251649258
 30
0.0
  0
SPLINE
  5
276
100
AcDbEntity
  8
2
100
AcDbSpline
 62
7
  6
BYLAYER
 70
0
 71
3
 72
15
 73
11
 74
0
 42
0.0000001
 43
0.0000001
 44
0.0000000001
 40
0.0
 40
0.0
 40
0.0
 40
0.0
 40
0.1080117127
 40
0.2180603223
 40
0.3319968005
 40
0.4513547266
 40
0.5772757902
 40
0.71049141
 40
0.8514096237
 40
1.0
 40
1.0
 40
1.0
 40
1.0
 10
154.9164073711
 20
205.7705465593
 30
0.0
 10
154.9163997269
 20
206.0024554968
 30
0.0
 10
154.8761458951
 20
206.4715893815
 30
0.0
 10
154.6963659024
 20
207.1645089423
 30
0.0
 10
154.3996503443
 20
207.8425060379
 30
0.0
 10
153.9897283691
 20
208.4987126385
 30
0.0
 10
153.4712154711
 20
209.1271642679
 30
0.0
 10
152.8494352933
 20
209.7223299653
 30
0.0
 10
152.1305648196
 20
210.2787421324
 30
0.0
 10
151.6047323648
 20
210.6120230291
 30
0.0
 10
151.3284390324
 20
210.7715374502
 30
0.0
  0
SPLINE
  5
277
100
AcDbEntity
  8
2
100
AcDbSpline
 62
7
  6
BYLAYER
 70
0
 71
3
 72
25
 73
21
 74
0
 42
0.0000001
 43
0.0000001
 44
0.0000000001
 40
0.0
 40
0.0
 40
0.0
 40
0.0
 40
0.0213317766
 40
0.0428919921
 40
0.0648971296
 40
0.0875415542
 40
0.1353163489
 40
0.1872171517
 40
0.2436547637
 40
0.3046026337
 40
0.3696904276
 40
0.4382878287
 40
0.5095743344
 40
0.5825986371
 40
0.6563302751
 40
0.7297076671
 40
0.8016841423
 40
0.8712775534
 40
0.9376154021
 40
1.0
 40
1.0
 40
1.0
 40
1.0
 10
154.9164076783
 20
203.5251649105
 30
0.0
 10
154.9164134718
 20
203.3513859696
 30
0.0
 10
154.893970364
 20
203.001564667
 30
0.0
 10
154.7934844358
 20
202.4811918003
 30
0.0
 10
154.6267350165
 20
201.9668349016
 30
0.0
 10
154.3122444186
 20
201.2811183092
 30
0.0
 10
153.7478354883
 20
200.4506029121
 30
0.0
 10
152.8462328614
 20
199.5453814918
 30
0.0
 10
151.7288772392
 20
198.7288586168
 30
0.0
 10
150.4197242949
 20
198.0168428805
 30
0.0
 10
148.9461428405
 20
197.4231842607
 30
0.0
 10
147.3391074784
 20
196.9600405238
 30
0.0
 10
145.632587062
 20
196.6370573554
 30
0.0
 10
143.8628359079
 20
196.4610627117
 30
0.0
 10
142.0675623857
 20
196.4357947122
 30
0.0
 10
140.2850593245
 20
196.5618019344
 30
0.0
 10
138.5533483132
 20
196.8363768019
 30
0.0
 10
136.9091861924
 20
197.2537747868
 30
0.0
 10
135.3877027334
 20
197.8050325742
 30
0.0
 10
134.4445246309
 20
198.2700708329
 30
0.0
 10
134.0043950207
 20
198.5241740332
 30
0.0
  0
SPLINE
  5
278
100
AcDbEntity
  8
2
100
AcDbSpline
 62
7
  6
BYLAYER
 70
0
 71
3
 72
25
 73
21
 74
0
 42
0.0000001
 43
0.0000001
 44
0.0000000001
 40
0.0
 40
0.0
 40
0.0
 40
0.0
 40
0.0623844369
 40
0.1287220483
 40
0.1983152935
 40
0.2702917372
 40
0.3436692738
 40
0.4174011342
 40
0.4904256613
 40
0.5617124144
 40
0.6303100737
 40
0.6953980456
 40
0.7563459252
 40
0.8127833931
 40
0.8646840025
 40
0.9124586405
 40
0.9351030102
 40
0.9571080972
 40
0.9786682685
 40
1.0
 40
1.0
 40
1.0
 40
1.0
 10
134.0043950207
 20
200.7695556803
 30
0.0
 10
134.4445234931
 20
200.5154531368
 30
0.0
 10
135.387698546
 20
200.0504160796
 30
0.0
 10
136.90917747
 20
199.4991593509
 30
0.0
 10
138.5533358244
 20
199.0817610104
 30
0.0
 10
140.2850462254
 20
198.807185039
 30
0.0
 10
142.0675519395
 20
198.6811765118
 30
0.0
 10
143.862830303
 20
198.7064438656
 30
0.0
 10
145.6325871249
 20
198.8824388208
 30
0.0
 10
147.3391133466
 20
199.2054234056
 30
0.0
 10
148.9461538288
 20
199.6685695864
 30
0.0
 10
150.4197380884
 20
200.2622310303
 30
0.0
 10
151.7288904101
 20
200.9742486949
 30
0.0
 10
152.8462426045
 20
201.7907716861
 30
0.0
 10
153.7478411367
 20
202.6959915159
 30
0.0
 10
154.3122468591
 20
203.5265049623
 30
0.0
 10
154.6267364192
 20
204.2122197039
 30
0.0
 10
154.7934845238
 20
204.7265757098
 30
0.0
 10
154.8939708048
 20
205.2469473568
 30
0.0
 10
154.9164130992
 20
205.5967679864
 30
0.0
 10
154.9164073711
 20
205.7705465593
 30
0.0
  0
SPLINE
  5
279
100
AcDbEntity
  8
2
100
AcDbSpline
 62
7
  6
BYLAYER
 70
0
 71
3
 72
15
 73
11
 74
0
 42
0.0000001
 43
0.0000001
 44
0.0000000001
 40
0.0
 40
0.0
 40
0.0
 40
0.0
 40
0.1080117127
 40
0.2180603223
 40
0.3319968005
 40
0.4513547266
 40
0.5772757902
 40
0.71049141
 40
0.8514096237
 40
1.0
 40
1.0
 40
1.0
 40
1.0
 10
130.416426682
 20
205.7705465712
 30
0.0
 10
130.4164343262
 20
205.5386376337
 30
0.0
 10
130.456688158
 20
205.069503749
 30
0.0
 10
130.6364681507
 20
204.3765841881
 30
0.0
 10
130.9331837089
 20
203.6985870926
 30
0.0
 10
131.343105684
 20
203.042380492
 30
0.0
 10
131.8616185821
 20
202.4139288626
 30
0.0
 10
132.4833987598
 20
201.8187631652
 30
0.0
 10
133.2022692335
 20
201.2623509981
 30
0.0
 10
133.7281016884
 20
200.9290701014
 30
0.0
 10
134.0043950207
 20
200.7695556803
 30
0.0
  0
SPLINE
  5
27A
100
AcDbEntity
  8
2
100
AcDbSpline
 62
7
  6
BYLAYER
 70
0
 71
3
 72
25
 73
21
 74
0
 42
0.0000001
 43
0.0000001
 44
0.0000000001
 40
0.0
 40
0.0
 40
0.0
 40
0.0
 40
0.0213320692
 40
0.0428925719
 40
0.0648979862
 40
0.0875426735
 40
0.135317938
 40
0.187219126
 40
0.2436570327
 40
0.3046051057
 40
0.3696930106
 40
0.4382904312
 40
0.5095768655
 40
0.5826010077
 40
0.6563323994
 40
0.7297094659
 40
0.8016855467
 40
0.8712785102
 40
0.9376158803
 40
1.0
 40
1.0
 40
1.0
 40
1.0
 10
64.6819953907
 20
108.839010676
 30
0.0
 10
64.5345260069
 20
108.9241436845
 30
0.0
 10
64.2486674922
 20
109.114573108
 30
0.0
 10
63.8563155905
 20
109.4547847465
 30
0.0
 10
63.5015323115
 20
109.8482787343
 30
0.0
 10
63.0737165904
 20
110.4510949068
 30
0.0
 10
62.6454656284
 20
111.3369257061
 30
0.0
 10
62.3190170618
 20
112.5454916922
 30
0.0
 10
62.1735384754
 20
113.8936847683
 30
0.0
 10
62.2107085784
 20
115.3534312767
 30
0.0
 10
62.4288717837
 20
116.894720833
 30
0.0
 10
62.8231699084
 20
118.4853123543
 30
0.0
 10
63.3851460633
 20
120.0916546645
 30
0.0
 10
64.1028325326
 20
121.6796377115
 30
0.0
 10
64.9609272014
 20
123.2154314077
 30
0.0
 10
65.9411349848
 20
124.6662724115
 30
0.0
 10
67.0225305372
 20
126.0012228999
 30
0.0
 10
68.1822310242
 20
127.1919062503
 30
0.0
 10
69.3954193102
 20
128.212903586
 30
0.0
 10
70.2521208258
 20
128.7854111588
 30
0.0
 10
70.6833744607
 20
129.0343940747
 30
0.0
  0
SPLINE
  5
27B
100
AcDbEntity
  8
2
100
AcDbSpline
 62
7
  6
BYLAYER
 70
0
 71
3
 72
15
 73
11
 74
0
 42
0.0000001
 43
0.0000001
 44
0.0000000001
 40
0.0
 40
0.0
 40
0.0
 40
0.0
 40
0.1485889103
 40
0.2895055926
 40
0.4227203903
 40
0.5486412296
 40
0.6679994238
 40
0.7819367617
 40
0.8919867003
 40
1.0
 40
1.0
 40
1.0
 40
1.0
 10
70.6833744607
 20
129.0343940747
 30
0.0
 10
70.9540881874
 20
129.1906897847
 30
0.0
 10
71.4945013547
 20
129.4735970732
 30
0.0
 10
72.3188224123
 20
129.8109882045
 30
0.0
 10
73.1284629412
 20
130.0470100622
 30
0.0
 10
73.91575854
 20
130.1791012333
 30
0.0
 10
74.6734083542
 20
130.2054519425
 30
0.0
 10
75.3940900681
 20
130.1250681705
 30
0.0
 10
76.0701495267
 20
129.9381511247
 30
0.0
 10
76.4879597912
 20
129.7424754967
 30
0.0
 10
76.6847535308
 20
129.6288678944
 30
0.0
  0
SPLINE
  5
27C
100
AcDbEntity
  8
2
100
AcDbSpline
 62
7
  6
BYLAYER
 70
0
 71
3
 72
15
 73
11
 74
0
 42
0.0000001
 43
0.0000001
 44
0.0000000001
 40
0.0
 40
0.0
 40
0.0
 40
0.0
 40
0.1485934314
 40
0.2895060695
 40
0.4227218309
 40
0.5486436222
 40
0.6680016432
 40
0.7819387041
 40
0.8919875811
 40
1.0
 40
1.0
 40
1.0
 40
1.0
 10
81.1150405626
 20
123.011554133
 30
0.0
 10
81.1150405626
 20
123.3241688434
 30
0.0
 10
81.0898445992
 20
123.9336595917
 30
0.0
 10
80.9698615308
 20
124.8162755225
 30
0.0
 10
80.7694325082
 20
125.6354825823
 30
0.0
 10
80.4901738397
 20
126.3833820812
 30
0.0
 10
80.1341511899
 20
127.052727098
 30
0.0
 10
79.704173506
 20
127.6366808527
 30
0.0
 10
79.2042369921
 20
128.1287040746
 30
0.0
 10
78.8258713485
 20
128.3927264413
 30
0.0
 10
78.6290752031
 20
128.5063441685
 30
0.0
  0
SPLINE
  5
27D
100
AcDbEntity
  8
2
100
AcDbSpline
 62
7
  6
BYLAYER
 70
0
 71
3
 72
15
 73
11
 74
0
 42
0.0000001
 43
0.0000001
 44
0.0000000001
 40
0.0
 40
0.0
 40
0.0
 40
0.0
 40
0.1141562023
 40
0.2373248158
 40
0.3669742753
 40
0.4999983942
 40
0.6330227365
 40
0.7626728485
 40
0.8858424896
 40
1.0
 40
1.0
 40
1.0
 40
1.0
 10
72.6276937493
 20
108.310956626
 30
0.0
 10
73.2087305697
 20
108.6464163882
 30
0.0
 10
74.3563599282
 20
109.450896285
 30
0.0
 10
75.9354420503
 20
110.9282487977
 30
0.0
 10
77.3906362798
 20
112.6745928778
 30
0.0
 10
78.6671789633
 20
114.6244155289
 30
0.0
 10
79.7174950944
 20
116.7048537984
 30
0.0
 10
80.5022713101
 20
118.8382746794
 30
0.0
 10
80.9921536928
 20
120.9444943881
 30
0.0
 10
81.1150405626
 20
122.3406239167
 30
0.0
 10
81.1150405626
 20
123.011554133
 30
0.0
  0
SPLINE
  5
27E
100
AcDbEntity
  8
2
100
AcDbSpline
 62
7
  6
BYLAYER
 70
0
 71
3
 72
15
 73
11
 74
0
 42
0.0000001
 43
0.0000001
 44
0.0000000001
 40
0.0
 40
0.0
 40
0.0
 40
0.0
 40
0.108013171
 40
0.2180626848
 40
0.3320001729
 40
0.451358353
 40
0.5772800145
 40
0.7104953721
 40
0.8514073777
 40
1.0
 40
1.0
 40
1.0
 40
1.0
 10
66.6263122955
 20
107.7164786625
 30
0.0
 10
66.8231019977
 20
107.6028646553
 30
0.0
 10
67.2409240758
 20
107.4072151445
 30
0.0
 10
67.9169757645
 20
107.2202832103
 30
0.0
 10
68.6376577544
 20
107.139896408
 30
0.0
 10
69.3953095558
 20
107.1662459102
 30
0.0
 10
70.1826066047
 20
107.2983460532
 30
0.0
 10
70.9922408105
 20
107.5343624896
 30
0.0
 10
71.8165643381
 20
107.8717459011
 30
0.0
 10
72.3569732877
 20
108.1546570276
 30
0.0
 10
72.6276937493
 20
108.310956626
 30
0.0
  0
SPLINE
  5
27F
100
AcDbEntity
  8
2
100
AcDbSpline
 62
7
  6
BYLAYER
 70
0
 71
3
 72
15
 73
11
 74
0
 42
0.0000001
 43
0.0000001
 44
0.0000000001
 40
0.0
 40
0.0
 40
0.0
 40
0.0
 40
0.1141562023
 40
0.2373248158
 40
0.3669742753
 40
0.4999983942
 40
0.6330227365
 40
0.7626728485
 40
0.8858424896
 40
1.0
 40
1.0
 40
1.0
 40
1.0
 10
72.6276937493
 20
127.9118662051
 30
0.0
 10
72.0466569289
 20
127.5764064428
 30
0.0
 10
70.8990275704
 20
126.7719265461
 30
0.0
 10
69.3199454483
 20
125.2945740334
 30
0.0
 10
67.8647512188
 20
123.5482299533
 30
0.0
 10
66.5882085353
 20
121.5984073022
 30
0.0
 10
65.5378924042
 20
119.5179690327
 30
0.0
 10
64.7531161885
 20
117.3845481517
 30
0.0
 10
64.2632338058
 20
115.278328443
 30
0.0
 10
64.140346936
 20
113.8821989144
 30
0.0
 10
64.140346936
 20
113.2112686981
 30
0.0
  0
SPLINE
  5
280
100
AcDbEntity
  8
2
100
AcDbSpline
 62
7
  6
BYLAYER
 70
0
 71
3
 72
15
 73
11
 74
0
 42
0.0000001
 43
0.0000001
 44
0.0000000001
 40
0.0
 40
0.0
 40
0.0
 40
0.0
 40
0.108013171
 40
0.2180626848
 40
0.3320001729
 40
0.451358353
 40
0.5772800145
 40
0.7104953721
 40
0.8514073777
 40
1.0
 40
1.0
 40
1.0
 40
1.0
 10
78.6290752031
 20
128.5063441685
 30
0.0
 10
78.4322855009
 20
128.6199581758
 30
0.0
 10
78.0144634228
 20
128.8156076865
 30
0.0
 10
77.3384117341
 20
129.0025396207
 30
0.0
 10
76.6177297442
 20
129.0829264231
 30
0.0
 10
75.8600779428
 20
129.0565769208
 30
0.0
 10
75.0727808939
 20
128.9244767778
 30
0.0
 10
74.2631466881
 20
128.6884603415
 30
0.0
 10
73.4388231605
 20
128.3510769299
 30
0.0
 10
72.8984142109
 20
128.0681658034
 30
0.0
 10
72.6276937493
 20
127.9118662051
 30
0.0
  0
SPLINE
  5
281
100
AcDbEntity
  8
2
100
AcDbSpline
 62
7
  6
BYLAYER
 70
0
 71
3
 72
15
 73
11
 74
0
 42
0.0000001
 43
0.0000001
 44
0.0000000001
 40
0.0
 40
0.0
 40
0.0
 40
0.0
 40
0.1485934314
 40
0.2895060695
 40
0.4227218309
 40
0.5486436222
 40
0.6680016432
 40
0.7819387041
 40
0.8919875811
 40
1.0
 40
1.0
 40
1.0
 40
1.0
 10
64.140346936
 20
113.2112686981
 30
0.0
 10
64.140346936
 20
112.8986539877
 30
0.0
 10
64.1655428994
 20
112.2891632394
 30
0.0
 10
64.2855259678
 20
111.4065473085
 30
0.0
 10
64.4859549903
 20
110.5873402488
 30
0.0
 10
64.7652136589
 20
109.8394407499
 30
0.0
 10
65.1212363087
 20
109.1700957331
 30
0.0
 10
65.5512139926
 20
108.5861419784
 30
0.0
 10
66.0511505065
 20
108.0941187565
 30
0.0
 10
66.4295161501
 20
107.8300963898
 30
0.0
 10
66.6263122955
 20
107.7164786625
 30
0.0
  0
SPLINE
  5
282
100
AcDbEntity
  8
2
100
AcDbSpline
 62
7
  6
BYLAYER
 70
0
 71
3
 72
25
 73
21
 74
0
 42
0.0000001
 43
0.0000001
 44
0.0000000001
 40
0.0
 40
0.0
 40
0.0
 40
0.0
 40
0.0623844978
 40
0.1287220429
 40
0.1983151081
 40
0.2702912313
 40
0.3436683492
 40
0.4173997558
 40
0.4904238486
 40
0.5617101991
 40
0.630307551
 40
0.6953953658
 40
0.7563432512
 40
0.8127809052
 40
0.8646818898
 40
0.9124570836
 40
0.935101805
 40
0.9571072779
 40
0.9786678535
 40
1.0
 40
1.0
 40
1.0
 40
1.0
 10
31.6156887369
 20
124.1824403683
 30
0.0
 10
31.6156887369
 20
123.6845960017
 30
0.0
 10
31.6831276981
 20
122.6566743309
 30
0.0
 10
31.9606706934
 20
121.0959154871
 30
0.0
 10
32.411862637
 20
119.4966467913
 30
0.0
 10
33.0271029655
 20
117.8930595953
 30
0.0
 10
33.7932622482
 20
116.3191504917
 30
0.0
 10
34.694015049
 20
114.8085020341
 30
0.0
 10
35.710140249
 20
113.3933323909
 30
0.0
 10
36.8199969794
 20
112.1038007839
 30
0.0
 10
38.0000354509
 20
110.967319852
 30
0.0
 10
39.2254336174
 20
110.0079833577
 30
0.0
 10
40.4707045499
 20
109.2461142427
 30
0.0
 10
41.7106924756
 20
108.6981462946
 30
0.0
 10
42.9202532932
 20
108.3766575703
 30
0.0
 10
43.9012787716
 20
108.3046348437
 30
0.0
 10
44.6370539927
 20
108.3737046827
 30
0.0
 10
45.1550914084
 20
108.4841783121
 30
0.0
 10
45.6457776352
 20
108.6538116751
 30
0.0
 10
45.9535477102
 20
108.8061166513
 30
0.0
 10
46.1009738478
 20
108.8912391415
 30
0.0
  0
SPLINE
  5
283
100
AcDbEntity
  8
2
100
AcDbSpline
 62
7
  6
BYLAYER
 70
0
 71
3
 72
14
 73
10
 74
0
 42
0.0000001
 43
0.0000001
 44
0.0000000001
 40
0.0
 40
0.0
 40
0.0
 40
0.0
 40
0.2892803009
 40
0.4225382398
 40
0.5484954908
 40
0.6678940208
 40
0.7818679731
 40
0.8919520683
 40
1.0
 40
1.0
 40
1.0
 40
1.0
 10
46.464992965
 20
115.6093845234
 30
0.0
 10
46.464992965
 20
115.1531982715
 30
0.0
 10
46.411731948
 20
114.4835930978
 30
0.0
 10
46.2058805634
 20
113.6419633399
 30
0.0
 10
45.9964344379
 20
113.0811456109
 30
0.0
 10
45.729511625
 20
112.5792700699
 30
0.0
 10
45.4071180912
 20
112.1413945303
 30
0.0
 10
45.0322373279
 20
111.7724922609
 30
0.0
 10
44.7485451708
 20
111.5745064801
 30
0.0
 10
44.6009803979
 20
111.4893195489
 30
0.0
  0
SPLINE
  5
284
100
AcDbEntity
  8
2
100
AcDbSpline
 62
7
  6
BYLAYER
 70
0
 71
3
 72
15
 73
11
 74
0
 42
0.0000001
 43
0.0000001
 44
0.0000000001
 40
0.0
 40
0.0
 40
0.0
 40
0.0
 40
0.1468970743
 40
0.2865543523
 40
0.4190038128
 40
0.5446993714
 40
0.6643879772
 40
0.7791770481
 40
0.8904894325
 40
1.0
 40
1.0
 40
1.0
 40
1.0
 10
49.5641351838
 20
114.9970278107
 30
0.0
 10
49.5641351838
 20
114.6829609005
 30
0.0
 10
49.5386850908
 20
114.0698822695
 30
0.0
 10
49.4174538251
 20
113.1808590251
 30
0.0
 10
49.214351957
 20
112.3531502409
 30
0.0
 10
48.9303925592
 20
111.5946708113
 30
0.0
 10
48.5669653501
 20
110.9129879332
 30
0.0
 10
48.1263355935
 20
110.3157324764
 30
0.0
 10
47.612416195
 20
109.8106268464
 30
0.0
 10
47.2229801313
 20
109.5390149928
 30
0.0
 10
47.0202135658
 20
109.4219483604
 30
0.0
  0
SPLINE
  5
285
100
AcDbEntity
  8
2
100
AcDbSpline
 62
7
  6
BYLAYER
 70
0
 71
3
 72
25
 73
21
 74
0
 42
0.0000001
 43
0.0000001
 44
0.0000000001
 40
0.0
 40
0.0
 40
0.0
 40
0.0
 40
0.021906856
 40
0.0440165562
 40
0.0665244526
 40
0.089609354
 40
0.1380434832
 40
0.1903096478
 40
0.2468596699
 40
0.3077239797
 40
0.3725863109
 40
0.4408615574
 40
0.5117655509
 40
0.5843759474
 40
0.65768666
 40
0.7306585149
 40
0.8022679918
 40
0.8715583696
 40
0.9376886219
 40
1.0
 40
1.0
 40
1.0
 40
1.0
 10
35.0202672883
 20
130.2065890678
 30
0.0
 10
35.1717919121
 20
130.2940713279
 30
0.0
 10
35.4878274054
 20
130.450579724
 30
0.0
 10
35.9910173545
 20
130.6251534595
 30
0.0
 10
36.5209751547
 20
130.739025957
 30
0.0
 10
37.2699520666
 20
130.8108796483
 30
0.0
 10
38.2637010871
 20
130.7405976187
 30
0.0
 10
39.4839340031
 20
130.4197279538
 30
0.0
 10
40.7291335893
 20
129.872961711
 30
0.0
 10
41.975628742
 20
129.1137911254
 30
0.0
 10
43.1996726346
 20
128.1588297178
 30
0.0
 10
44.376892567
 20
127.0281962251
 30
0.0
 10
45.4832696897
 20
125.7456182678
 30
0.0
 10
46.4958131781
 20
124.3380892883
 30
0.0
 10
47.3932669065
 20
122.8353299344
 30
0.0
 10
48.1566764521
 20
121.2690876956
 30
0.0
 10
48.7698851048
 20
119.6724127539
 30
0.0
 10
49.2198372093
 20
118.078660827
 30
0.0
 10
49.4968596123
 20
116.5212234238
 30
0.0
 10
49.5641351838
 20
115.4946952614
 30
0.0
 10
49.5641351838
 20
114.9970278107
 30
0.0
  0
SPLINE
  5
286
100
AcDbEntity
  8
2
100
AcDbSpline
 62
7
  6
BYLAYER
 70
0
 71
3
 72
15
 73
11
 74
0
 42
0.0000001
 43
0.0000001
 44
0.0000000001
 40
0.0
 40
0.0
 40
0.0
 40
0.0
 40
0.108012546
 40
0.2180618733
 40
0.3319988891
 40
0.4513571168
 40
0.5772781867
 40
0.710493438
 40
0.8514108175
 40
1.0
 40
1.0
 40
1.0
 40
1.0
 10
34.1010370296
 20
129.6758634866
 30
0.0
 10
33.9042941559
 20
129.5622659686
 30
0.0
 10
33.526007475
 20
129.2983304463
 30
0.0
 10
33.0262053153
 20
128.8064141747
 30
0.0
 10
32.5963379268
 20
128.2226031811
 30
0.0
 10
32.2404054474
 20
127.5534251641
 30
0.0
 10
31.9612076464
 20
126.8057172684
 30
0.0
 10
31.7608295798
 20
125.9867054181
 30
0.0
 10
31.6408841489
 20
125.1043082634
 30
0.0
 10
31.6156887369
 20
124.4949684054
 30
0.0
 10
31.6156887369
 20
124.1824403683
 30
0.0
  0
SPLINE
  5
287
100
AcDbEntity
  8
2
100
AcDbSpline
 62
7
  6
BYLAYER
 70
0
 71
3
 72
24
 73
20
 74
0
 42
0.0000001
 43
0.0000001
 44
0.0000000001
 40
0.0
 40
0.0
 40
0.0
 40
0.0
 40
0.0213338992
 40
0.0428961199
 40
0.0874743593
 40
0.1352531464
 40
0.1871579184
 40
0.2435996788
 40
0.3045519243
 40
0.3696443067
 40
0.4382464876
 40
0.5095380801
 40
0.5825676307
 40
0.6563045718
 40
0.7296871273
 40
0.8016689512
 40
0.8712669463
 40
0.9376114975
 40
1.0
 40
1.0
 40
1.0
 40
1.0
 10
35.6010304795
 20
127.0777830793
 30
0.0
 10
35.7116058695
 20
127.1416165942
 30
0.0
 10
35.9424525225
 20
127.2558510783
 30
0.0
 10
36.4382965204
 20
127.4273609985
 30
0.0
 10
37.119657484
 20
127.5276631244
 30
0.0
 10
37.9863454766
 20
127.4636406065
 30
0.0
 10
38.8938135382
 20
127.2226213044
 30
0.0
 10
39.8237112648
 20
126.8116185852
 30
0.0
 10
40.7576886765
 20
126.2402293856
 30
0.0
 10
41.676725978
 20
125.5207296095
 30
0.0
 10
42.5617549773
 20
124.6683748127
 30
0.0
 10
43.3941460837
 20
123.7012297655
 30
0.0
 10
44.1562412546
 20
122.6398551608
 30
0.0
 10
44.8318052972
 20
121.5068701295
 30
0.0
 10
45.4064288806
 20
120.326439377
 30
0.0
 10
45.8678541544
 20
119.1237485361
 30
0.0
 10
46.2062612794
 20
117.9242886073
 30
0.0
 10
46.414408707
 20
116.7537118192
 30
0.0
 10
46.464992965
 20
115.9827635325
 30
0.0
 10
46.464992965
 20
115.6093845234
 30
0.0
  0
SPLINE
  5
288
100
AcDbEntity
  8
2
100
AcDbSpline
 62
7
  6
BYLAYER
 70
0
 71
3
 72
15
 73
11
 74
0
 42
0.0000001
 43
0.0000001
 44
0.0000000001
 40
0.0
 40
0.0
 40
0.0
 40
0.0
 40
0.1485890847
 40
0.2895057845
 40
0.422720599
 40
0.5486415436
 40
0.668000107
 40
0.7819375604
 40
0.891987106
 40
1.0
 40
1.0
 40
1.0
 40
1.0
 10
49.5055571288
 20
114.9153796598
 30
0.0
 10
49.5055571288
 20
114.6028517487
 30
0.0
 10
49.4803621302
 20
113.9935133644
 30
0.0
 10
49.3604172081
 20
113.1111184711
 30
0.0
 10
49.1600402118
 20
112.2921089223
 30
0.0
 10
48.8808449708
 20
111.5444003369
 30
0.0
 10
48.524911996
 20
110.8752207853
 30
0.0
 10
48.0950446012
 20
110.2914070116
 30
0.0
 10
47.5952414257
 20
109.7994884393
 30
0.0
 10
47.2169539636
 20
109.535551746
 30
0.0
 10
47.0202105468
 20
109.4219535893
 30
0.0
  0
SPLINE
  5
289
100
AcDbEntity
  8
2
100
AcDbSpline
 62
7
  6
BYLAYER
 70
0
 71
3
 72
9
 73
5
 74
0
 42
0.0000001
 43
0.0000001
 44
0.0000000001
 40
0.0
 40
0.0
 40
0.0
 40
0.0
 40
0.243575037
 40
1.0
 40
1.0
 40
1.0
 40
1.0
 10
48.5863221405
 20
114.3846622598
 30
0.0
 10
48.5863221405
 20
114.5049559835
 30
0.0
 10
48.5784180574
 20
114.9988068243
 30
0.0
 10
48.539977231
 20
115.4920433188
 30
0.0
 10
48.4959531028
 20
115.8630137019
 30
0.0
  0
SPLINE
  5
28A
100
AcDbEntity
  8
2
100
AcDbSpline
 62
7
  6
BYLAYER
 70
0
 71
3
 72
25
 73
21
 74
0
 42
0.0000001
 43
0.0000001
 44
0.0000000001
 40
0.0
 40
0.0
 40
0.0
 40
0.0
 40
0.0661891117
 40
0.1354841336
 40
0.2071298978
 40
0.2802749862
 40
0.3540069206
 40
0.4273909916
 40
0.4995059034
 40
0.5694804998
 40
0.6365319816
 40
0.7000086627
 40
0.7594394788
 40
0.8145921237
 40
0.8655415197
 40
0.9127422913
 40
0.9352293766
 40
0.9571487052
 40
0.9786749744
 40
1.0
 40
1.0
 40
1.0
 40
1.0
 10
48.4959531028
 20
115.8630137019
 30
0.0
 10
48.4375536222
 20
116.3551183402
 30
0.0
 10
48.264066395
 20
117.3565504328
 30
0.0
 10
47.8571656649
 20
118.8550029295
 30
0.0
 10
47.3043578066
 20
120.36157012
 30
0.0
 10
46.6160775686
 20
121.8477732739
 30
0.0
 10
45.8052442371
 20
123.2857546723
 30
0.0
 10
44.8871140148
 20
124.6484503957
 30
0.0
 10
43.8789414519
 20
125.9102496051
 30
0.0
 10
42.799628784
 20
127.0474696596
 30
0.0
 10
41.6693160382
 20
128.0388185549
 30
0.0
 10
40.508898786
 20
128.8657661833
 30
0.0
 10
39.339583916
 20
129.5128193133
 30
0.0
 10
38.1821702473
 20
129.9675200124
 30
0.0
 10
37.0574365633
 20
130.2204071675
 30
0.0
 10
36.1485671196
 20
130.2572495781
 30
0.0
 10
35.4663289599
 20
130.176015736
 30
0.0
 10
34.9845103973
 20
130.0637274156
 30
0.0
 10
34.5270876816
 20
129.8995510277
 30
0.0
 10
34.2393045868
 20
129.755697897
 30
0.0
 10
34.1010370296
 20
129.6758634866
 30
0.0
  0
SPLINE
  5
28B
100
AcDbEntity
  8
2
100
AcDbSpline
 62
7
  6
BYLAYER
 70
0
 71
3
 72
14
 73
10
 74
0
 42
0.0000001
 43
0.0000001
 44
0.0000000001
 40
0.0
 40
0.0
 40
0.0
 40
0.0
 40
0.2892803009
 40
0.4225382398
 40
0.5484954908
 40
0.6678940208
 40
0.7818679731
 40
0.8919520683
 40
1.0
 40
1.0
 40
1.0
 40
1.0
 10
33.7370179124
 20
122.9577181047
 30
0.0
 10
33.7370179124
 20
123.4139043566
 30
0.0
 10
33.7902789293
 20
124.0835095304
 30
0.0
 10
33.996130314
 20
124.9251392882
 30
0.0
 10
34.2055764395
 20
125.4859570172
 30
0.0
 10
34.4724992524
 20
125.9878325582
 30
0.0
 10
34.7948927862
 20
126.4257080978
 30
0.0
 10
35.1697735495
 20
126.7946103672
 30
0.0
 10
35.4534657066
 20
126.992596148
 30
0.0
 10
35.6010304795
 20
127.0777830793
 30
0.0
  0
SPLINE
  5
28C
100
AcDbEntity
  8
2
100
AcDbSpline
 62
7
  6
BYLAYER
 70
0
 71
3
 72
9
 73
5
 74
0
 42
0.0000001
 43
0.0000001
 44
0.0000000001
 40
0.0
 40
0.0
 40
0.0
 40
0.0
 40
0.4941567797
 40
1.0
 40
1.0
 40
1.0
 40
1.0
 10
35.0202703074
 20
130.2065838388
 30
0.0
 10
35.2413769699
 20
130.3342491487
 30
0.0
 10
35.7148562762
 20
130.5498134513
 30
0.0
 10
36.2199378807
 20
130.672808296
 30
0.0
 10
36.4782323789
 20
130.7126859394
 30
0.0
  0
SPLINE
  5
28D
100
AcDbEntity
  8
2
100
AcDbSpline
 62
7
  6
BYLAYER
 70
0
 71
3
 72
9
 73
5
 74
0
 42
0.0000001
 43
0.0000001
 44
0.0000000001
 40
0.0
 40
0.0
 40
0.0
 40
0.0
 40
0.4904994266
 40
1.0
 40
1.0
 40
1.0
 40
1.0
 10
36.4782323789
 20
130.7126859394
 30
0.0
 10
36.6707698129
 20
130.7424114628
 30
0.0
 10
37.06748095
 20
130.7780178098
 30
0.0
 10
37.4654303956
 20
130.7669565436
 30
0.0
 10
37.6671416742
 20
130.7506974013
 30
0.0
  0
SPLINE
  5
28E
100
AcDbEntity
  8
2
100
AcDbSpline
 62
7
  6
BYLAYER
 70
0
 71
3
 72
9
 73
5
 74
0
 42
0.0000001
 43
0.0000001
 44
0.0000000001
 40
0.0
 40
0.0
 40
0.0
 40
0.0
 40
0.244686098
 40
1.0
 40
1.0
 40
1.0
 40
1.0
 10
37.6671416742
 20
130.7506974013
 30
0.0
 10
37.7346338441
 20
130.7452571265
 30
0.0
 10
38.0100618345
 20
130.7181613208
 30
0.0
 10
38.2835338562
 20
130.672002301
 30
0.0
 10
38.4878252601
 20
130.6278165606
 30
0.0
  0
SPLINE
  5
28F
100
AcDbEntity
  8
2
100
AcDbSpline
 62
7
  6
BYLAYER
 70
0
 71
3
 72
9
 73
5
 74
0
 42
0.0000001
 43
0.0000001
 44
0.0000000001
 40
0.0
 40
0.0
 40
0.0
 40
0.0
 40
0.2394567372
 40
1.0
 40
1.0
 40
1.0
 40
1.0
 10
38.4878252601
 20
130.6278165606
 30
0.0
 10
38.6258437127
 20
130.5979648517
 30
0.0
 10
39.1983373642
 20
130.4554820802
 30
0.0
 10
39.7531061526
 20
130.2455203611
 30
0.0
 10
40.1606057035
 20
130.0581816916
 30
0.0
  0
SPLINE
  5
290
100
AcDbEntity
  8
2
100
AcDbSpline
 62
7
  6
BYLAYER
 70
0
 71
3
 72
15
 73
11
 74
0
 42
0.0000001
 43
0.0000001
 44
0.0000000001
 40
0.0
 40
0.0
 40
0.0
 40
0.0
 40
0.1113657879
 40
0.2315014812
 40
0.3584125484
 40
0.4895752038
 40
0.6221651222
 40
0.7532614642
 40
0.8800455663
 40
1.0
 40
1.0
 40
1.0
 40
1.0
 10
40.7420033236
 20
129.7676601747
 30
0.0
 10
41.2802463819
 20
129.4772907622
 30
0.0
 10
42.3490983743
 20
128.7785810964
 30
0.0
 10
43.8390822243
 20
127.4852141602
 30
0.0
 10
45.2375370832
 20
125.94338754
 30
0.0
 10
46.4990055213
 20
124.2031089345
 30
0.0
 10
47.5829228439
 20
122.3206008671
 30
0.0
 10
48.4541233411
 20
120.3567068103
 30
0.0
 10
49.0843301123
 20
118.3754817893
 30
0.0
 10
49.3388615099
 20
117.0400771434
 30
0.0
 10
49.4161169145
 20
116.3858862286
 30
0.0
  0
SPLINE
  5
291
100
AcDbEntity
  8
2
100
AcDbSpline
 62
7
  6
BYLAYER
 70
0
 71
3
 72
9
 73
5
 74
0
 42
0.0000001
 43
0.0000001
 44
0.0000000001
 40
0.0
 40
0.0
 40
0.0
 40
0.0
 40
0.2553377013
 40
1.0
 40
1.0
 40
1.0
 40
1.0
 10
49.4445754497
 20
116.1231004521
 30
0.0
 10
49.4546583519
 20
116.0206494198
 30
0.0
 10
49.4895133163
 20
115.6189777125
 30
0.0
 10
49.5055571288
 20
115.2156095309
 30
0.0
 10
49.5055571288
 20
114.9153796598
 30
0.0
  0
SPLINE
  5
292
100
AcDbEntity
  8
2
100
AcDbSpline
 62
7
  6
BYLAYER
 70
0
 71
3
 72
15
 73
11
 74
0
 42
0.0000001
 43
0.0000001
 44
0.0000000001
 40
0.0
 40
0.0
 40
0.0
 40
0.0
 40
0.108012546
 40
0.2180618733
 40
0.3319988891
 40
0.4513571168
 40
0.5772781867
 40
0.710493438
 40
0.8514108175
 40
1.0
 40
1.0
 40
1.0
 40
1.0
 10
46.1009738478
 20
108.8912391415
 30
0.0
 10
46.2977167214
 20
109.0048366596
 30
0.0
 10
46.6760034024
 20
109.2687721819
 30
0.0
 10
47.1758055621
 20
109.7606884534
 30
0.0
 10
47.6056729506
 20
110.3444994471
 30
0.0
 10
47.96160543
 20
111.013677464
 30
0.0
 10
48.240803231
 20
111.7613853597
 30
0.0
 10
48.4411812976
 20
112.58039721
 30
0.0
 10
48.5611267285
 20
113.4627943647
 30
0.0
 10
48.5863221405
 20
114.0721342227
 30
0.0
 10
48.5863221405
 20
114.3846622598
 30
0.0
  0
SPLINE
  5
293
100
AcDbEntity
  8
2
100
AcDbSpline
 62
7
  6
BYLAYER
 70
0
 71
3
 72
24
 73
20
 74
0
 42
0.0000001
 43
0.0000001
 44
0.0000000001
 40
0.0
 40
0.0
 40
0.0
 40
0.0
 40
0.0213338992
 40
0.0428961199
 40
0.0874743593
 40
0.1352531464
 40
0.1871579184
 40
0.2435996788
 40
0.3045519243
 40
0.3696443067
 40
0.4382464876
 40
0.5095380801
 40
0.5825676307
 40
0.6563045718
 40
0.7296871273
 40
0.8016689512
 40
0.8712669463
 40
0.9376114975
 40
1.0
 40
1.0
 40
1.0
 40
1.0
 10
44.6009803979
 20
111.4893195489
 30
0.0
 10
44.4904050079
 20
111.4254860339
 30
0.0
 10
44.2595583548
 20
111.3112515498
 30
0.0
 10
43.763714357
 20
111.1397416297
 30
0.0
 10
43.0823533934
 20
111.0394395037
 30
0.0
 10
42.2156654008
 20
111.1034620216
 30
0.0
 10
41.3081973392
 20
111.3444813237
 30
0.0
 10
40.3782996126
 20
111.7554840429
 30
0.0
 10
39.4443222009
 20
112.3268732425
 30
0.0
 10
38.5252848994
 20
113.0463730186
 30
0.0
 10
37.6402559001
 20
113.8987278154
 30
0.0
 10
36.8078647937
 20
114.8658728626
 30
0.0
 10
36.0457696228
 20
115.9272474673
 30
0.0
 10
35.3702055802
 20
117.0602324986
 30
0.0
 10
34.7955819968
 20
118.2406632511
 30
0.0
 10
34.334156723
 20
119.4433540921
 30
0.0
 10
33.995749598
 20
120.6428140208
 30
0.0
 10
33.7876021704
 20
121.8133908089
 30
0.0
 10
33.7370179124
 20
122.5843390956
 30
0.0
 10
33.7370179124
 20
122.9577181047
 30
0.0
  0
SPLINE
  5
294
100
AcDbEntity
  8
2
100
AcDbSpline
 62
7
  6
BYLAYER
 70
0
 71
3
 72
15
 73
11
 74
0
 42
0.0000001
 43
0.0000001
 44
0.0000000001
 40
0.0
 40
0.0
 40
0.0
 40
0.0
 40
0.1147727372
 40
0.2387958357
 40
0.369341314
 40
0.5030668814
 40
0.6363625961
 40
0.7656549947
 40
0.8877151284
 40
1.0
 40
1.0
 40
1.0
 40
1.0
 10
39.7474005287
 20
126.4277934126
 30
0.0
 10
39.7474005287
 20
125.9088026726
 30
0.0
 10
39.8454834261
 20
124.8279531779
 30
0.0
 10
40.2349978248
 20
123.1991980258
 30
0.0
 10
40.8576777209
 20
121.5527262748
 30
0.0
 10
41.6889507576
 20
119.9541730913
 30
0.0
 10
42.6957362347
 20
118.4667264953
 30
0.0
 10
43.8383904921
 20
117.1492889936
 30
0.0
 10
45.0713635379
 20
116.0541730403
 30
0.0
 10
45.9647110662
 20
115.473361226
 30
0.0
 10
46.4147705641
 20
115.238313929
 30
0.0
  0
SPLINE
  5
295
100
AcDbEntity
  8
1
100
AcDbSpline
 62
7
  6
BYLAYER
 70
0
 71
3
 72
11
 73
7
 74
0
 42
0.0000001
 43
0.0000001
 44
0.0000000001
 40
0.0
 40
0.0
 40
0.0
 40
0.0
 40
0.2280214929
 40
0.4776922089
 40
0.738944184
 40
1.0
 40
1.0
 40
1.0
 40
1.0
 10
161.0744737609
 20
209.9427140791
 30
0.0
 10
160.7453091046
 20
210.1327530828
 30
0.0
 10
160.00760773
 20
210.4493206622
 30
0.0
 10
158.8026622079
 20
210.7280021238
 30
0.0
 10
157.5144239768
 20
210.8208053845
 30
0.0
 10
156.6424072869
 20
210.7530530962
 30
0.0
 10
156.2126460631
 20
210.6847911881
 30
0.0
  0
SPLINE
  5
296
100
AcDbEntity
  8
1
100
AcDbSpline
 62
7
  6
BYLAYER
 70
0
 71
3
 72
11
 73
7
 74
0
 42
0.0000001
 43
0.0000001
 44
0.0000000001
 40
0.0
 40
0.0
 40
0.0
 40
0.0
 40
0.2897056855
 40
0.5490975889
 40
0.7822028946
 40
1.0
 40
1.0
 40
1.0
 40
1.0
 10
159.1826968873
 20
198.1262370538
 30
0.0
 10
159.0949376844
 20
198.176903707
 30
0.0
 10
158.9357136471
 20
198.2865624589
 30
0.0
 10
158.7454515674
 20
198.4865570659
 30
0.0
 10
158.6250528149
 20
198.707761561
 30
0.0
 10
158.5968896011
 20
198.866542959
 30
0.0
 10
158.5969094572
 20
198.9427253594
 30
0.0
  0
SPLINE
  5
297
100
AcDbEntity
  8
1
100
AcDbSpline
 62
7
  6
BYLAYER
 70
0
 71
3
 72
11
 73
7
 74
0
 42
0.0000001
 43
0.0000001
 44
0.0000000001
 40
0.0
 40
0.0
 40
0.0
 40
0.0
 40
0.2896433527
 40
0.5491132405
 40
0.7822372579
 40
1.0
 40
1.0
 40
1.0
 40
1.0
 10
32.2905423141
 20
139.5140168424
 30
0.0
 10
32.1832546219
 20
139.5759580191
 30
0.0
 10
31.9885834042
 20
139.7100919809
 30
0.0
 10
31.7558643766
 20
139.9545819979
 30
0.0
 10
31.6086058457
 20
140.2251182532
 30
0.0
 10
31.5743213146
 20
140.4192721574
 30
0.0
 10
31.5742838962
 20
140.512412277
 30
0.0
  0
SPLINE
  5
298
100
AcDbEntity
  8
1
100
AcDbSpline
 62
7
  6
BYLAYER
 70
0
 71
3
 72
11
 73
7
 74
0
 42
0.0000001
 43
0.0000001
 44
0.0000000001
 40
0.0
 40
0.0
 40
0.0
 40
0.0
 40
0.2072424112
 40
0.4365571807
 40
0.7002942816
 40
1.0
 40
1.0
 40
1.0
 40
1.0
 10
166.6276645053
 20
190.8490182557
 30
0.0
 10
166.6277223191
 20
190.7051107073
 30
0.0
 10
166.5580368929
 20
190.399315877
 30
0.0
 10
166.271915157
 20
189.9951344847
 30
0.0
 10
165.8347668934
 20
189.6515495972
 30
0.0
 10
165.4795124595
 20
189.4809464501
 30
0.0
 10
165.2850905944
 20
189.4067082033
 30
0.0
  0
SPLINE
  5
299
100
AcDbEntity
  8
1
100
AcDbSpline
 62
7
  6
BYLAYER
 70
0
 71
3
 72
9
 73
5
 74
0
 42
0.0000001
 43
0.0000001
 44
0.0000000001
 40
0.0
 40
0.0
 40
0.0
 40
0.0
 40
0.5233728394
 40
1.0
 40
1.0
 40
1.0
 40
1.0
 10
33.4716332414
 20
139.1364060808
 30
0.0
 10
33.256195034
 20
139.1650079316
 30
0.0
 10
32.848111339
 20
139.2526646283
 30
0.0
 10
32.4619449211
 20
139.4150597399
 30
0.0
 10
32.2905423141
 20
139.5140168424
 30
0.0
  0
SPLINE
  5
29A
100
AcDbEntity
  8
1
100
AcDbSpline
 62
7
  6
BYLAYER
 70
0
 71
3
 72
11
 73
7
 74
0
 42
0.0000001
 43
0.0000001
 44
0.0000000001
 40
0.0
 40
0.0
 40
0.0
 40
0.0
 40
0.2177821605
 40
0.4509085882
 40
0.7102951949
 40
1.0
 40
1.0
 40
1.0
 40
1.0
 10
38.7005560929
 20
149.1195071791
 30
0.0
 10
38.7005560502
 20
148.967155165
 30
0.0
 10
38.6442551519
 20
148.6496055838
 30
0.0
 10
38.4035220818
 20
148.2071565979
 30
0.0
 10
38.022956861
 20
147.8071999589
 30
0.0
 10
37.7045294025
 20
147.5878768708
 30
0.0
 10
37.529014953
 20
147.4865441609
 30
0.0
  0
SPLINE
  5
29B
100
AcDbEntity
  8
1
100
AcDbSpline
 62
7
  6
BYLAYER
 70
0
 71
3
 72
11
 73
7
 74
0
 42
0.0000001
 43
0.0000001
 44
0.0000000001
 40
0.0
 40
0.0
 40
0.0
 40
0.0
 40
0.217797839
 40
0.4509070745
 40
0.7102979079
 40
1.0
 40
1.0
 40
1.0
 40
1.0
 10
162.5389501818
 20
207.9014933103
 30
0.0
 10
162.5389991789
 20
208.0919505306
 30
0.0
 10
162.4685959118
 20
208.4889104145
 30
0.0
 10
162.1675891929
 20
209.0419233251
 30
0.0
 10
161.6919320314
 20
209.5419095234
 30
0.0
 10
161.2938697123
 20
209.8160486331
 30
0.0
 10
161.0744737609
 20
209.9427140791
 30
0.0
  0
SPLINE
  5
29C
100
AcDbEntity
  8
1
100
AcDbSpline
 62
7
  6
BYLAYER
 70
0
 71
3
 72
11
 73
7
 74
0
 42
0.0000001
 43
0.0000001
 44
0.0000000001
 40
0.0
 40
0.0
 40
0.0
 40
0.0
 40
0.289828702
 40
0.5491487435
 40
0.7822716308
 40
1.0
 40
1.0
 40
1.0
 40
1.0
 10
52.7967302313
 20
126.8585500529
 30
0.0
 10
52.6448548292
 20
126.9462333735
 30
0.0
 10
52.3694881092
 20
127.1360964349
 30
0.0
 10
52.0406798686
 20
127.48251522
 30
0.0
 10
51.83390731
 20
127.866008879
 30
0.0
 10
51.7866952329
 20
128.1409571732
 30
0.0
 10
51.78755645
 20
128.2726974892
 30
0.0
  0
SPLINE
  5
29D
100
AcDbEntity
  8
1
100
AcDbSpline
 62
7
  6
BYLAYER
 70
0
 71
3
 72
9
 73
5
 74
0
 42
0.0000001
 43
0.0000001
 44
0.0000000001
 40
0.0
 40
0.0
 40
0.0
 40
0.0
 40
0.525566351
 40
1.0
 40
1.0
 40
1.0
 40
1.0
 10
55.2461488599
 20
126.2759234034
 30
0.0
 10
54.8014710396
 20
126.2749523059
 30
0.0
 10
53.9528948588
 20
126.3655230448
 30
0.0
 10
53.1443684558
 20
126.6578455709
 30
0.0
 10
52.7967302313
 20
126.8585500529
 30
0.0
  0
SPLINE
  5
29E
100
AcDbEntity
  8
1
100
AcDbSpline
 62
7
  6
BYLAYER
 70
0
 71
3
 72
9
 73
5
 74
0
 42
0.0000001
 43
0.0000001
 44
0.0000000001
 40
0.0
 40
0.0
 40
0.0
 40
0.0
 40
0.241568106
 40
1.0
 40
1.0
 40
1.0
 40
1.0
 10
56.7933172964
 20
156.6974733952
 30
0.0
 10
56.7865199112
 20
156.7137594226
 30
0.0
 10
56.7557993917
 20
156.7800918864
 30
0.0
 10
56.7152135155
 20
156.8416762801
 30
0.0
 10
56.6806782302
 20
156.8850033486
 30
0.0
  0
SPLINE
  5
29F
100
AcDbEntity
  8
1
100
AcDbSpline
 62
7
  6
BYLAYER
 70
0
 71
3
 72
11
 73
7
 74
0
 42
0.0000001
 43
0.0000001
 44
0.0000000001
 40
0.0
 40
0.0
 40
0.0
 40
0.0
 40
0.2113080355
 40
0.4721220673
 40
0.7487089883
 40
1.0
 40
1.0
 40
1.0
 40
1.0
 10
56.6230119614
 20
156.9509195321
 30
0.0
 10
56.4589644012
 20
157.1225722317
 30
0.0
 10
55.9731846516
 20
157.3848625222
 30
0.0
 10
55.1381973403
 20
157.5333831639
 30
0.0
 10
54.2457564653
 20
157.47276534
 30
0.0
 10
53.6724609718
 20
157.2799145223
 30
0.0
 10
53.4279263708
 20
157.1387332474
 30
0.0
  0
SPLINE
  5
2A0
100
AcDbEntity
  8
1
100
AcDbSpline
 62
7
  6
BYLAYER
 70
0
 71
3
 72
9
 73
5
 74
0
 42
0.0000001
 43
0.0000001
 44
0.0000000001
 40
0.0
 40
0.0
 40
0.0
 40
0.0
 40
0.2588834163
 40
1.0
 40
1.0
 40
1.0
 40
1.0
 10
165.2722957091
 20
192.2961581052
 30
0.0
 10
165.3149403573
 20
192.2800362339
 30
0.0
 10
165.4784917172
 20
192.2147471041
 30
0.0
 10
165.6372944236
 20
192.1372036155
 30
0.0
 10
165.750323035
 20
192.0719479926
 30
0.0
  0
SPLINE
  5
2A1
100
AcDbEntity
  8
1
100
AcDbSpline
 62
7
  6
BYLAYER
 70
0
 71
3
 72
11
 73
7
 74
0
 42
0.0000001
 43
0.0000001
 44
0.0000000001
 40
0.0
 40
0.0
 40
0.0
 40
0.0
 40
0.2896433527
 40
0.5491132405
 40
0.7822372579
 40
1.0
 40
1.0
 40
1.0
 40
1.0
 10
165.750323035
 20
192.0719479926
 30
0.0
 10
165.88173921
 20
191.9960765449
 30
0.0
 10
166.1201910426
 20
191.8317765042
 30
0.0
 10
166.4052474535
 20
191.5323018654
 30
0.0
 10
166.5856237154
 20
191.2009233154
 30
0.0
 10
166.6276186716
 20
190.9631051376
 30
0.0
 10
166.6276645053
 20
190.8490182557
 30
0.0
  0
SPLINE
  5
2A2
100
AcDbEntity
  8
1
100
AcDbSpline
 62
7
  6
BYLAYER
 70
0
 71
3
 72
11
 73
7
 74
0
 42
0.0000001
 43
0.0000001
 44
0.0000000001
 40
0.0
 40
0.0
 40
0.0
 40
0.0
 40
0.2372398078
 40
0.4999994051
 40
0.7627593222
 40
1.0
 40
1.0
 40
1.0
 40
1.0
 10
52.864293547
 20
138.6329172324
 30
0.0
 10
53.265849881
 20
138.864754506
 30
0.0
 10
54.1996639663
 20
139.2030599031
 30
0.0
 10
55.6927158814
 20
139.3651458237
 30
0.0
 10
57.1857702661
 20
139.2030668445
 30
0.0
 10
58.1195883181
 20
138.8647660579
 30
0.0
 10
58.5211477964
 20
138.6329308298
 30
0.0
  0
SPLINE
  5
2A3
100
AcDbEntity
  8
1
100
AcDbSpline
 62
7
  6
BYLAYER
 70
0
 71
3
 72
13
 73
9
 74
0
 42
0.0000001
 43
0.0000001
 44
0.0000000001
 40
0.0
 40
0.0
 40
0.0
 40
0.0
 40
0.0943710059
 40
0.1937593305
 40
0.3020024151
 40
0.4211947933
 40
0.6926660495
 40
1.0
 40
1.0
 40
1.0
 40
1.0
 10
31.5742838962
 20
140.512412277
 30
0.0
 10
31.5742518742
 20
140.5921198558
 30
0.0
 10
31.5990149635
 20
140.7566441637
 30
0.0
 10
31.7065451786
 20
140.990985847
 30
0.0
 10
31.8794016082
 20
141.2090550433
 30
0.0
 10
32.2024373942
 20
141.4829697888
 30
0.0
 10
32.7396931076
 20
141.7454724439
 30
0.0
 10
33.2197736846
 20
141.8553016374
 30
0.0
 10
33.4771418291
 20
141.8891177866
 30
0.0
  0
SPLINE
  5
2A4
100
AcDbEntity
  8
1
100
AcDbSpline
 62
7
  6
BYLAYER
 70
0
 71
3
 72
11
 73
7
 74
0
 42
0.0000001
 43
0.0000001
 44
0.0000000001
 40
0.0
 40
0.0
 40
0.0
 40
0.0
 40
0.2897052857
 40
0.5490919933
 40
0.7822182543
 40
1.0
 40
1.0
 40
1.0
 40
1.0
 10
37.5289914012
 20
150.7524837945
 30
0.0
 10
37.7045091341
 20
150.6511508766
 30
0.0
 10
38.022942633
 20
150.4318270333
 30
0.0
 10
38.4035155387
 20
150.0318674114
 30
0.0
 10
38.6442537765
 20
149.5894141596
 30
0.0
 10
38.7005561356
 20
149.2718608659
 30
0.0
 10
38.7005560929
 20
149.1195071791
 30
0.0
  0
SPLINE
  5
2A5
100
AcDbEntity
  8
1
100
AcDbSpline
 62
7
  6
BYLAYER
 70
0
 71
3
 72
9
 73
5
 74
0
 42
0.0000001
 43
0.0000001
 44
0.0000000001
 40
0.0
 40
0.0
 40
0.0
 40
0.0
 40
0.2415391456
 40
1.0
 40
1.0
 40
1.0
 40
1.0
 10
52.9038912847
 20
154.4529780978
 30
0.0
 10
52.8970620041
 20
154.4692794035
 30
0.0
 10
52.8662036957
 20
154.5356781238
 30
0.0
 10
52.8254689982
 20
154.5973076428
 30
0.0
 10
52.7908161633
 20
154.6406581603
 30
0.0
  0
SPLINE
  5
2A6
100
AcDbEntity
  8
1
100
AcDbSpline
 62
7
  6
BYLAYER
 70
0
 71
3
 72
12
 73
8
 74
0
 42
0.0000001
 43
0.0000001
 44
0.0000000001
 40
0.0
 40
0.0
 40
0.0
 40
0.0
 40
0.2107034457
 40
0.3368331554
 40
0.4719707509
 40
0.7486102577
 40
1.0
 40
1.0
 40
1.0
 40
1.0
 10
52.7392395892
 20
154.6999925136
 30
0.0
 10
52.5764574771
 20
154.8728654112
 30
0.0
 10
52.2280762036
 20
155.0629403154
 30
0.0
 10
51.7161305432
 20
155.2037143571
 30
0.0
 10
51.1120140069
 20
155.2792665193
 30
0.0
 10
50.359581166
 20
155.227919849
 30
0.0
 10
49.7842026862
 20
155.0350409546
 30
0.0
 10
49.5388552661
 20
154.8933904011
 30
0.0
  0
SPLINE
  5
2A7
100
AcDbEntity
  8
1
100
AcDbSpline
 62
7
  6
BYLAYER
 70
0
 71
3
 72
9
 73
5
 74
0
 42
0.0000001
 43
0.0000001
 44
0.0000000001
 40
0.0
 40
0.0
 40
0.0
 40
0.0
 40
0.2758279492
 40
1.0
 40
1.0
 40
1.0
 40
1.0
 10
53.4279263708
 20
157.1387332474
 30
0.0
 10
53.3776675409
 20
157.1097164716
 30
0.0
 10
53.2006288465
 20
156.9967626892
 30
0.0
 10
53.041994089
 20
156.8482535274
 30
0.0
 10
52.9595757358
 20
156.7201042373
 30
0.0
  0
SPLINE
  5
2A8
100
AcDbEntity
  8
1
100
AcDbSpline
 62
7
  6
BYLAYER
 70
0
 71
3
 72
8
 73
4
 74
0
 42
0.0000001
 43
0.0000001
 44
0.0000000001
 40
0.0
 40
0.0
 40
0.0
 40
0.0
 40
1.0
 40
1.0
 40
1.0
 40
1.0
 10
52.9595757358
 20
156.7201042373
 30
0.0
 10
52.937372108
 20
156.6855806265
 30
0.0
 10
52.917480247
 20
156.6494107058
 30
0.0
 10
52.9006886292
 20
156.6119551006
 30
0.0
  0
SPLINE
  5
2A9
100
AcDbEntity
  8
1
100
AcDbSpline
 62
7
  6
BYLAYER
 70
0
 71
3
 72
9
 73
5
 74
0
 42
0.0000001
 43
0.0000001
 44
0.0000000001
 40
0.0
 40
0.0
 40
0.0
 40
0.0
 40
0.4839064228
 40
1.0
 40
1.0
 40
1.0
 40
1.0
 10
130.4164195191
 20
203.5251649274
 30
0.0
 10
130.4164017673
 20
203.0742181853
 30
0.0
 10
130.5762747551
 20
202.1368484316
 30
0.0
 10
131.0156396436
 20
201.2991474916
 30
0.0
 10
131.289116927
 20
200.9035277566
 30
0.0
  0
SPLINE
  5
2AA
100
AcDbEntity
  8
1
100
AcDbSpline
 62
7
  6
BYLAYER
 70
0
 71
3
 72
11
 73
7
 74
0
 42
0.0000001
 43
0.0000001
 44
0.0000000001
 40
0.0
 40
0.0
 40
0.0
 40
0.0
 40
0.2372405738
 40
0.5000004574
 40
0.7627600882
 40
1.0
 40
1.0
 40
1.0
 40
1.0
 10
58.5211477964
 20
130.291195081
 30
0.0
 10
58.1195884941
 20
130.5230302075
 30
0.0
 10
57.1857707362
 20
130.8613309679
 30
0.0
 10
55.6927165681
 20
131.0234100749
 30
0.0
 10
54.1996644364
 20
130.8613242822
 30
0.0
 10
53.2658500571
 20
130.5230188589
 30
0.0
 10
52.864293547
 20
130.2911814836
 30
0.0
  0
SPLINE
  5
2AB
100
AcDbEntity
  8
1
100
AcDbSpline
 62
7
  6
BYLAYER
 70
0
 71
3
 72
9
 73
5
 74
0
 42
0.0000001
 43
0.0000001
 44
0.0000000001
 40
0.0
 40
0.0
 40
0.0
 40
0.0
 40
0.525566351
 40
1.0
 40
1.0
 40
1.0
 40
1.0
 10
55.2200828882
 20
130.2544557228
 30
0.0
 10
55.6647607085
 20
130.2554268203
 30
0.0
 10
56.5133368893
 20
130.1648560814
 30
0.0
 10
57.3218632923
 20
129.8725335553
 30
0.0
 10
57.6695015168
 20
129.6718290733
 30
0.0
  0
SPLINE
  5
2AC
100
AcDbEntity
  8
1
100
AcDbSpline
 62
7
  6
BYLAYER
 70
0
 71
3
 72
11
 73
7
 74
0
 42
0.0000001
 43
0.0000001
 44
0.0000000001
 40
0.0
 40
0.0
 40
0.0
 40
0.0
 40
0.289828702
 40
0.5491487435
 40
0.7822716308
 40
1.0
 40
1.0
 40
1.0
 40
1.0
 10
57.6695015168
 20
129.6718290733
 30
0.0
 10
57.8213769189
 20
129.5841457527
 30
0.0
 10
58.096743639
 20
129.3942826913
 30
0.0
 10
58.4255518795
 20
129.0478639062
 30
0.0
 10
58.6323244381
 20
128.6643702472
 30
0.0
 10
58.6795365152
 20
128.389421953
 30
0.0
 10
58.6786752981
 20
128.257681637
 30
0.0
  0
SPLINE
  5
2AD
100
AcDbEntity
  8
1
100
AcDbSpline
 62
7
  6
BYLAYER
 70
0
 71
3
 72
9
 73
5
 74
0
 42
0.0000001
 43
0.0000001
 44
0.0000000001
 40
0.0
 40
0.0
 40
0.0
 40
0.0
 40
0.2449435512
 40
1.0
 40
1.0
 40
1.0
 40
1.0
 10
138.1305922418
 20
196.9559296843
 30
0.0
 10
138.4652849521
 20
196.8788941348
 30
0.0
 10
139.8402853698
 20
196.6025817665
 30
0.0
 10
141.2442788155
 20
196.4739105978
 30
0.0
 10
142.3028150537
 20
196.4558163246
 30
0.0
  0
SPLINE
  5
2AE
100
AcDbEntity
  8
1
100
AcDbSpline
 62
7
  6
BYLAYER
 70
0
 71
3
 72
9
 73
5
 74
0
 42
0.0000001
 43
0.0000001
 44
0.0000000001
 40
0.0
 40
0.0
 40
0.0
 40
0.0
 40
0.2534348087
 40
1.0
 40
1.0
 40
1.0
 40
1.0
 10
143.4471186297
 20
196.4671493805
 30
0.0
 10
143.7398792992
 20
196.4779584806
 30
0.0
 10
144.8939895879
 20
196.5445453126
 30
0.0
 10
146.0429921332
 20
196.706945083
 30
0.0
 10
146.8872484888
 20
196.885823605
 30
0.0
  0
SPLINE
  5
2AF
100
AcDbEntity
  8
1
100
AcDbSpline
 62
7
  6
BYLAYER
 70
0
 71
3
 72
9
 73
5
 74
0
 42
0.0000001
 43
0.0000001
 44
0.0000000001
 40
0.0
 40
0.0
 40
0.0
 40
0.0
 40
0.5177263943
 40
1.0
 40
1.0
 40
1.0
 40
1.0
 10
147.6332023029
 20
197.0601453837
 30
0.0
 10
148.2879377001
 20
197.2278318891
 30
0.0
 10
149.5356785212
 20
197.6233778195
 30
0.0
 10
150.7227005272
 20
198.1789584896
 30
0.0
 10
151.2697731044
 20
198.4905509195
 30
0.0
  0
SPLINE
  5
2B0
100
AcDbEntity
  8
1
100
AcDbSpline
 62
7
  6
BYLAYER
 70
0
 71
3
 72
9
 73
5
 74
0
 42
0.0000001
 43
0.0000001
 44
0.0000000001
 40
0.0
 40
0.0
 40
0.0
 40
0.0
 40
0.269729306
 40
1.0
 40
1.0
 40
1.0
 40
1.0
 10
151.4720284283
 20
198.6084908009
 30
0.0
 10
151.7203317052
 20
198.7567305439
 30
0.0
 10
152.6185022276
 20
199.3407131488
 30
0.0
 10
153.4276527032
 20
200.0779451769
 30
0.0
 10
153.8989545875
 20
200.7031568533
 30
0.0
  0
SPLINE
  5
2B1
100
AcDbEntity
  8
1
100
AcDbSpline
 62
7
  6
BYLAYER
 70
0
 71
3
 72
9
 73
5
 74
0
 42
0.0000001
 43
0.0000001
 44
0.0000000001
 40
0.0
 40
0.0
 40
0.0
 40
0.0
 40
0.2538088737
 40
1.0
 40
1.0
 40
1.0
 40
1.0
 10
153.8989545875
 20
200.7031568533
 30
0.0
 10
153.9289823518
 20
200.7429905766
 30
0.0
 10
154.0453843286
 20
200.9013592075
 30
0.0
 10
154.1539791133
 20
201.0654924058
 30
0.0
 10
154.2299394805
 20
201.1909447375
 30
0.0
  0
SPLINE
  5
2B2
100
AcDbEntity
  8
1
100
AcDbSpline
 62
7
  6
BYLAYER
 70
0
 71
3
 72
9
 73
5
 74
0
 42
0.0000001
 43
0.0000001
 44
0.0000000001
 40
0.0
 40
0.0
 40
0.0
 40
0.0
 40
0.5129259824
 40
1.0
 40
1.0
 40
1.0
 40
1.0
 10
154.2299394805
 20
201.1909447375
 30
0.0
 10
154.4474526291
 20
201.5501785415
 30
0.0
 10
154.7931521755
 20
202.3036582787
 30
0.0
 10
154.9163910442
 20
203.1263775351
 30
0.0
 10
154.9164002111
 20
203.5251649205
 30
0.0
  0
SPLINE
  5
2B3
100
AcDbEntity
  8
1
100
AcDbSpline
 62
7
  6
BYLAYER
 70
0
 71
3
 72
9
 73
5
 74
0
 42
0.0000001
 43
0.0000001
 44
0.0000000001
 40
0.0
 40
0.0
 40
0.0
 40
0.0
 40
0.2758286258
 40
1.0
 40
1.0
 40
1.0
 40
1.0
 10
49.5388552661
 20
154.8933904011
 30
0.0
 10
49.4886017091
 20
154.8643766696
 30
0.0
 10
49.3115801498
 20
154.7514374782
 30
0.0
 10
49.1529617867
 20
154.6029481131
 30
0.0
 10
49.0705429301
 20
154.4748187665
 30
0.0
  0
SPLINE
  5
2B4
100
AcDbEntity
  8
1
100
AcDbSpline
 62
7
  6
BYLAYER
 70
0
 71
3
 72
8
 73
4
 74
0
 42
0.0000001
 43
0.0000001
 44
0.0000000001
 40
0.0
 40
0.0
 40
0.0
 40
0.0
 40
1.0
 40
1.0
 40
1.0
 40
1.0
 10
49.0705429301
 20
154.4748187665
 30
0.0
 10
49.0484569833
 20
154.4404836879
 30
0.0
 10
49.0286576104
 20
154.4045211357
 30
0.0
 10
49.0119202733
 20
154.3672847528
 30
0.0
  0
SPLINE
  5
2B5
100
AcDbEntity
  8
1
100
AcDbSpline
 62
7
  6
BYLAYER
 70
0
 71
3
 72
17
 73
13
 74
0
 42
0.0000001
 43
0.0000001
 44
0.0000000001
 40
0.0
 40
0.0
 40
0.0
 40
0.0
 40
0.0430832608
 40
0.0874799559
 40
0.1343163179
 40
0.1844160725
 40
0.2958205912
 40
0.4225282512
 40
0.5616587513
 40
0.7082891859
 40
0.8564558193
 40
1.0
 40
1.0
 40
1.0
 40
1.0
 10
154.9164040872
 20
199.3335885698
 30
0.0
 10
154.9163978848
 20
199.03625124
 30
0.0
 10
154.8493253463
 20
198.4305820919
 30
0.0
 10
154.552357721
 20
197.545962354
 30
0.0
 10
154.0662481023
 20
196.6938906576
 30
0.0
 10
153.1471765038
 20
195.5805487255
 30
0.0
 10
151.547779566
 20
194.3563665636
 30
0.0
 10
149.1723743114
 20
193.255422141
 30
0.0
 10
146.408425899
 20
192.522721258
 30
0.0
 10
143.4201480402
 20
192.2016760671
 30
0.0
 10
140.3872467468
 20
192.3104677301
 30
0.0
 10
138.3978068055
 20
192.6763924411
 30
0.0
 10
137.4419313129
 20
192.9366184343
 30
0.0
  0
ELLIPSE
  5
2B6
100
AcDbEntity
  8
1
100
AcDbEllipse
 62
7
  6
BYLAYER
 10
50.9316429921
 20
154.6851224794
 30
0.0
 11
2.0031196841
 21
-0.0019420293
 31
0.0
 40
0.5773412865
 41
0.0
 42
6.2831853072
  0
ELLIPSE
  5
2B7
100
AcDbEntity
  8
1
100
AcDbEllipse
 62
7
  6
BYLAYER
 10
54.8207140928
 20
156.9304653279
 30
0.0
 11
2.0031196786
 21
-0.0019420293
 31
0.0
 40
0.5773412865
 41
0.0
 42
6.2831853072
  0
ENDSEC
  0
SECTION
  2
OBJECTS
  0
DICTIONARY
  5
C
100
AcDbDictionary
280
0
281
1
  3
ACAD_GROUP
350
D
  3
ACAD_MLINESTYLE
350
17
  3
ACAD_LAYOUT
350
1A
  3
ACAD_PLOTSETTINGS
350
19
  3
ACAD_PLOTSTYLENAME
350
E
  0
DICTIONARY
  5
D
102
{ACAD_REACTORS
330
C
102
}
100
AcDbDictionary
280
0
281
1
  0
ACDBDICTIONARYWDFLT
  5
E
102
{ACAD_REACTORS
330
C
102
}
100
AcDbDictionary
281
1
  3
Normal
350
F
100
AcDbDictionaryWithDefault
340
F
  0
DICTIONARY
  5
17
102
{ACAD_REACTORS
330
C
102
}
100
AcDbDictionary
280
0
281
1
  3
Standard
350
18
  0
DICTIONARY
  5
19
102
{ACAD_REACTORS
330
C
102
}
100
AcDbDictionary
281
1
  0
DICTIONARY
  5
1A
102
{ACAD_REACTORS
330
C
102
}
100
AcDbDictionary
281
1
  3
Model
350
2B8
  3
Layout1
350
2B9
  0
ACDBPLACEHOLDER
  5
F
102
{ACAD_REACTORS
330
E
102
}
  0
MLINESTYLE
  5
18
102
{ACAD_REACTORS
330
17
102
}
100
AcDbMlineStyle
  2
STANDARD
 70
0
  3

 62
256
 51
90.0
 52
90.0
 71
2
 49
0.5
 62
256
  6
BYLAYER
 49
-0.5
 62
256
  6
BYLAYER
  0
LAYOUT
  5
2B8
102
{ACAD_REACTORS
330
1A
102
}
100
AcDbPlotSettings
  1

  2
none_device
  4

  6

 40
0.0
 41
0.0
 42
0.0
 43
0.0
 44
210.0
 45
297.0
 46
0.0
 47
0.0
 48
0.0
 49
0.0
140
0.0
141
0.0
142
1.0
143
1.0
 70
1024
 72
1
 73
0
 74
0
  7

 75
0
147
1.0
148
0.0
149
0.0
100
AcDbLayout
  1
Model
 70
0
 71
0
 10
0.0
 20
0.0
 11
210.0
 21
297.0
 12
0.0
 22
0.0
 32
0.0
 14
0.0
 24
0.0
 34
0.0
 15
0.0
 25
0.0
 35
0.0
146
0.0
 13
0.0
 23
0.0
 33
0.0
 16
1.0
 26
0.0
 36
0.0
 17
0.0
 27
1.0
 37
0.0
 76
0
330
212
345
0
346
0
  0
LAYOUT
  5
2B9
102
{ACAD_REACTORS
330
1A
102
}
100
AcDbPlotSettings
  1

  2
none_device
  4

  6

 40
0.0
 41
0.0
 42
0.0
 43
0.0
 44
210.0
 45
297.0
 46
0.0
 47
0.0
 48
0.0
 49
0.0
140
0.0
141
0.0
142
1.0
143
1.0
 70
0
 72
1
 73
0
 74
0
  7

 75
0
147
1.0
148
0.0
149
0.0
100
AcDbLayout
  1
Layout1
 70
0
 71
1
 10
0.0
 20
0.0
 11
210.0
 21
297.0
 12
0.0
 22
0.0
 32
0.0
 14
0.0
 24
0.0
 34
0.0
 15
0.0
 25
0.0
 35
0.0
146
0.0
 13
0.0
 23
0.0
 33
0.0
 16
1.0
 26
0.0
 36
0.0
 17
0.0
 27
1.0
 37
0.0
 76
0
330
213
345
0
346
0
  0
ENDSEC
  0
EOF
