999
DXF file: C:\Users\sesa63760\Dev\_Creo\CAD\MCADID0004750_3D-CAD\drw0001_4.dxf
999
Pro/ENGINEER 2019471 by Parametric Technology Corporation
  0
SECTION
  2
HEADER
  9
$ACADVER
  1
AC1024
  9
$DWGCODEPAGE
  3
ANSI_1252
  9
$EXTMAX
 10
67.4163727795
 20
95.346012931
 30
0.0
  9
$EXTMIN
 10
0.0
 20
0.0
 30
0.0
  9
$LIMMIN
 10
0.0
 20
0.0
  9
$LIMMAX
 10
67.4163727795
 20
95.346012931
  9
$VIEWCTR
 10
33.7081863898
 20
47.6730064655
  9
$VIEWSIZE
 40
95.346012931
  9
$CLAYER
  8
0
  9
$LTSCALE
 40
6.2151475096
  9
$CELTYPE
  6
BYLAYER
  9
$DIMSCALE
 40
1.0
  9
$DIMASZ
 40
0.8025758664
  9
$DIMEXO
 40
1.0
  9
$DIMDLI
 40
4.2941019157
  9
$DIMEXE
 40
1.0
  9
$DIMCEN
 40
1.0170241379
  9
$DIMLFAC
 40
1.0
  9
$DIMBLK
  1
_FILLED
  9
$DIMALT
 70
0
  9
$DIMALTF
 40
0.0393700787
  9
$DIMTXT
 40
1.123606213
  9
$DIMTOL
 70
1
  9
$DIMLIM
 70
0
  9
$DIMTFAC
 40
1.0
  9
$DIMTP
 40
0.01
  9
$DIMTM
 40
0.01
  9
$DIMGAP
 40
0.625
  9
$DIMDSEP
 70
46
  9
$AUNITS
 70
0
  9
$PDMODE
 70
3
  9
$PDSIZE
 40
0.3125
  9
$HANDSEED
  5
2F1
  9
$TILEMODE
 70
1
  9
$MEASUREMENT
 70
1
  9
$INSUNITS
 70
4
  0
ENDSEC
  0
SECTION
  2
CLASSES
  0
CLASS
  1
ACDBDICTIONARYWDFLT
  2
AcDbDictionaryWithDefault
  3
AutoCAD 2000
 90
0
 91
1
280
0
281
0
  0
CLASS
  1
ACDBPLACEHOLDER
  2
AcDbPlaceHolder
  3
AutoCAD 2000
 90
0
 91
1
280
0
281
0
  0
CLASS
  1
LAYOUT
  2
AcDbLayout
  3
AutoCAD 2000
 90
0
 91
0
280
0
281
0
  0
ENDSEC
  0
SECTION
  2
TABLES
  0
TABLE
  2
VPORT
  5
8
100
AcDbSymbolTable
 70
2
  0
VPORT
  5
1F4
100
AcDbSymbolTableRecord
100
AcDbViewportTableRecord
  2
*ACTIVE
 70
0
 10
0.0
 20
0.0
 11
1.0
 21
1.0
 12
33.7081863898
 22
47.6730064655
 13
0.0
 23
0.0
 14
1.0
 24
1.0
 15
0.0
 25
0.0
 16
0.0
 26
0.0
 36
1.0
 17
0.0
 27
0.0
 37
0.0
 40
95.346012931
 41
0.7070707071
 42
50.0
 43
0.0
 44
0.0
 50
0.0
 51
0.0
 71
0
 72
100
 73
1
 74
1
 75
0
 76
0
 77
0
 78
0
  0
ENDTAB
  0
TABLE
  2
LTYPE
  5
5
100
AcDbSymbolTable
 70
6
  0
LTYPE
  5
14
100
AcDbSymbolTableRecord
100
AcDbLinetypeTableRecord
  2
BYBLOCK
 70
0
  3

 72
65
 73
0
 40
0.0
  0
LTYPE
  5
15
100
AcDbSymbolTableRecord
100
AcDbLinetypeTableRecord
  2
BYLAYER
 70
0
  3

 72
65
 73
0
 40
0.0
  0
LTYPE
  5
16
100
AcDbSymbolTableRecord
100
AcDbLinetypeTableRecord
  2
CONTINUOUS
 70
64
  3
Solid line
 72
65
 73
0
 40
0.0
  0
LTYPE
  5
1F5
100
AcDbSymbolTableRecord
100
AcDbLinetypeTableRecord
  2
CENTER
 70
64
  3
____ _ ____ _ ____ _ ____ _ ____ _ ____ _ ____
 72
65
 73
4
 40
0.6
 49
0.375
 74
0
 49
-0.075
 74
0
 49
0.075
 74
0
 49
-0.075
 74
0
  0
LTYPE
  5
1F6
100
AcDbSymbolTableRecord
100
AcDbLinetypeTableRecord
  2
HIDDEN
 70
64
  3
- - - - - - - - - - - - - - - - - - - -
 72
65
 73
2
 40
0.2
 49
0.1
 74
0
 49
-0.1
 74
0
  0
LTYPE
  5
1F7
100
AcDbSymbolTableRecord
100
AcDbLinetypeTableRecord
  2
PHANTOM
 70
64
  3
_____ _ _ _____ _ _ _____ _ _ _____
 72
65
 73
6
 40
0.8
 49
0.45
 74
0
 49
-0.05
 74
0
 49
0.1
 74
0
 49
-0.05
 74
0
 49
0.1
 74
0
 49
-0.05
 74
0
  0
LTYPE
  5
1F8
100
AcDbSymbolTableRecord
100
AcDbLinetypeTableRecord
  2
DOT
 70
64
  3
. . . . . . . . . . . . . . . . . . . .
 72
65
 73
2
 40
0.2
 49
0.1
 74
0
 49
-0.1
 74
0
  0
LTYPE
  5
1F9
100
AcDbSymbolTableRecord
100
AcDbLinetypeTableRecord
  2
DASHED
 70
64
  3
- - - - - - - - - - - - - - - - - - - -
 72
65
 73
2
 40
0.2
 49
0.1
 74
0
 49
-0.1
 74
0
  0
ENDTAB
  0
TABLE
  2
LAYER
  5
2
100
AcDbSymbolTable
 70
36
  0
LAYER
  5
10
100
AcDbSymbolTableRecord
100
AcDbLayerTableRecord
  2
0
 70
0
 62
7
  6
CONTINUOUS
370
-3
390
F
  0
LAYER
  5
1FA
100
AcDbSymbolTableRecord
100
AcDbLayerTableRecord
  2
DEFAULT_1
 70
0
 62
7
  6
CENTER
370
-3
390
F
  0
LAYER
  5
1FB
100
AcDbSymbolTableRecord
100
AcDbLayerTableRecord
  2
DEFAULT_2
 70
0
 62
7
  6
HIDDEN
370
-3
390
F
  0
LAYER
  5
1FC
100
AcDbSymbolTableRecord
100
AcDbLayerTableRecord
  2
DEFAULT_3
 70
0
 62
7
  6
PHANTOM
370
-3
390
F
  0
LAYER
  5
1FD
100
AcDbSymbolTableRecord
100
AcDbLayerTableRecord
  2
00_COMPONENTS
 70
0
 62
7
  6
CONTINUOUS
370
-3
390
F
  0
LAYER
  5
1FE
100
AcDbSymbolTableRecord
100
AcDbLayerTableRecord
  2
01_1_DEFAULT_DATUMS
 70
0
 62
7
  6
CONTINUOUS
370
-3
390
F
  0
LAYER
  5
1FF
100
AcDbSymbolTableRecord
100
AcDbLayerTableRecord
  2
01_PLANES
 70
0
 62
7
  6
CONTINUOUS
370
-3
390
F
  0
LAYER
  5
200
100
AcDbSymbolTableRecord
100
AcDbLayerTableRecord
  2
02_COORD_SYS
 70
0
 62
7
  6
CONTINUOUS
370
-3
390
F
  0
LAYER
  5
201
100
AcDbSymbolTableRecord
100
AcDbLayerTableRecord
  2
03_AXES
 70
0
 62
7
  6
CONTINUOUS
370
-3
390
F
  0
LAYER
  5
202
100
AcDbSymbolTableRecord
100
AcDbLayerTableRecord
  2
04_POINTS
 70
0
 62
7
  6
CONTINUOUS
370
-3
390
F
  0
LAYER
  5
203
100
AcDbSymbolTableRecord
100
AcDbLayerTableRecord
  2
05_CURVES
 70
0
 62
7
  6
CONTINUOUS
370
-3
390
F
  0
LAYER
  5
204
100
AcDbSymbolTableRecord
100
AcDbLayerTableRecord
  2
06_SURFS
 70
0
 62
7
  6
CONTINUOUS
370
-3
390
F
  0
LAYER
  5
205
100
AcDbSymbolTableRecord
100
AcDbLayerTableRecord
  2
07_COSMETICS
 70
0
 62
7
  6
CONTINUOUS
370
-3
390
F
  0
LAYER
  5
206
100
AcDbSymbolTableRecord
100
AcDbLayerTableRecord
  2
10_NOTES
 70
0
 62
7
  6
CONTINUOUS
370
-3
390
F
  0
LAYER
  5
207
100
AcDbSymbolTableRecord
100
AcDbLayerTableRecord
  2
11_NOTES_PUB
 70
0
 62
7
  6
CONTINUOUS
370
-3
390
F
  0
LAYER
  5
208
100
AcDbSymbolTableRecord
100
AcDbLayerTableRecord
  2
13_REF_GTOL
 70
0
 62
7
  6
CONTINUOUS
370
-3
390
F
  0
LAYER
  5
209
100
AcDbSymbolTableRecord
100
AcDbLayerTableRecord
  2
16_MISC
 70
0
 62
7
  6
CONTINUOUS
370
-3
390
F
  0
LAYER
  5
20A
100
AcDbSymbolTableRecord
100
AcDbLayerTableRecord
  2
17_NO_PRINT
 70
0
 62
7
  6
CONTINUOUS
370
-3
390
F
  0
LAYER
  5
20B
100
AcDbSymbolTableRecord
100
AcDbLayerTableRecord
  2
18_DATUM_CAMS_JOINTS
 70
0
 62
7
  6
CONTINUOUS
370
-3
390
F
  0
LAYER
  5
20C
100
AcDbSymbolTableRecord
100
AcDbLayerTableRecord
  2
19_DATUM_FUNCTIONAL
 70
0
 62
7
  6
CONTINUOUS
370
-3
390
F
  0
LAYER
  5
20D
100
AcDbSymbolTableRecord
100
AcDbLayerTableRecord
  2
20_DATUM_KINEMATIC_SCHEME
 70
0
 62
7
  6
CONTINUOUS
370
-3
390
F
  0
ENDTAB
  0
TABLE
  2
STYLE
  5
3
100
AcDbSymbolTable
 70
1
  0
STYLE
  5
11
100
AcDbSymbolTableRecord
100
AcDbTextStyleTableRecord
  2
STANDARD
 70
0
 40
0.0
 41
1.0
 50
0.0
 71
0
 42
0.2
  3
ARIAL.TTF
  4

  0
STYLE
  5
20E
100
AcDbSymbolTableRecord
100
AcDbTextStyleTableRecord
  2
TEXTSTYLE_1
 70
0
 40
0.0
 41
0.8
 50
0.0
 71
0
 42
0.2
  3
gdt
  4

  0
ENDTAB
  0
TABLE
  2
VIEW
  5
6
100
AcDbSymbolTable
 70
0
  0
ENDTAB
  0
TABLE
  2
UCS
  5
7
100
AcDbSymbolTable
 70
0
  0
ENDTAB
  0
TABLE
  2
APPID
  5
9
100
AcDbSymbolTable
 70
1
  0
APPID
  5
20F
100
AcDbSymbolTableRecord
100
AcDbRegAppTableRecord
  2
ACAD
 70
0
  0
ENDTAB
  0
TABLE
  2
BLOCK_RECORD
  5
1
100
AcDbSymbolTable
 70
0
  0
BLOCK_RECORD
  5
210
100
AcDbSymbolTableRecord
100
AcDbBlockTableRecord
  2
*Model_Space
  0
BLOCK_RECORD
  5
211
100
AcDbSymbolTableRecord
100
AcDbBlockTableRecord
  2
*Paper_Space
  0
BLOCK_RECORD
  5
212
100
AcDbSymbolTableRecord
100
AcDbBlockTableRecord
  2
_FILLED
  0
ENDTAB
  0
TABLE
  2
DIMSTYLE
  5
A
100
AcDbSymbolTable
 70
1
100
AcDbDimStyleTable
 71
0
  0
DIMSTYLE
105
213
100
AcDbSymbolTableRecord
100
AcDbDimStyleTableRecord
  2
STANDARD
 70
0
  3

  4

 40
1.0
 41
0.8025758664
 42
1.0
 43
0.38
 44
1.0
 45
0.0
 46
0.0
 47
0.01
 48
0.01
140
1.123606213
141
0.09
142
0.0
143
25.4
144
1.0
145
0.0
146
1.0
147
0.625
 71
1
 72
0
 73
0
 74
0
 75
0
 76
0
 77
1
 78
8
 79
2
170
0
171
1
172
0
173
0
174
0
175
0
176
0
177
0
178
0
270
2
179
2
271
2
272
2
273
2
274
2
275
0
280
0
281
0
282
0
283
1
284
8
285
0
286
0
287
3
288
0
340
11
278
46
341
212
342
212
343
212
344
212
  0
ENDTAB
  0
ENDSEC
  0
SECTION
  2
BLOCKS
  0
BLOCK
  5
20
100
AcDbEntity
  8
0
100
AcDbBlockBegin
  2
*Model_Space
 70
0
 10
0.0
 20
0.0
 30
0.0
  3
*Model_Space
  1

  0
ENDBLK
  5
21
100
AcDbEntity
  8
0
100
AcDbBlockEnd
  0
BLOCK
  5
1C
100
AcDbEntity
  8
0
100
AcDbBlockBegin
  2
*Paper_Space
 70
0
 10
0.0
 20
0.0
 30
0.0
  3
*Paper_Space
  1

  0
ENDBLK
  5
1D
100
AcDbEntity
  8
0
100
AcDbBlockEnd
  0
BLOCK
  5
214
100
AcDbEntity
  8
0
100
AcDbBlockBegin
  2
_FILLED
 70
64
 10
0.0
 20
0.0
  3
_FILLED
  1

  0
SOLID
  5
215
100
AcDbEntity
  8
0
  6
BYBLOCK
 62
0
100
AcDbTrace
 10
0.0
 20
0.0
 11
-1.0
 21
0.25
 12
-1.0
 22
-0.25
 13
-1.0
 23
-0.25
  0
ENDBLK
  5
216
100
AcDbEntity
  8
0
  6
BYBLOCK
 62
0
100
AcDbBlockEnd
  0
ENDSEC
  0
SECTION
  2
ENTITIES
  0
LINE
  5
217
100
AcDbEntity
  8
0
100
AcDbLine
 62
7
  6
BYLAYER
 10
7.5084557863
 20
43.13125
 11
7.5084557863
 21
59.63125
  0
LINE
  5
218
100
AcDbEntity
  8
0
100
AcDbLine
 62
7
  6
BYLAYER
 10
8.1452873897
 20
43.13125
 11
8.1452873897
 21
41.33125
  0
LINE
  5
219
100
AcDbEntity
  8
0
100
AcDbLine
 62
7
  6
BYLAYER
 10
8.2053294381
 20
41.33125
 11
8.2053294381
 21
43.13125
  0
LINE
  5
21A
100
AcDbEntity
  8
0
100
AcDbLine
 62
7
  6
BYLAYER
 10
8.5870330993
 20
43.13125
 11
8.5870330993
 21
41.33125
  0
LINE
  5
21B
100
AcDbEntity
  8
0
100
AcDbLine
 62
7
  6
BYLAYER
 10
8.7630674782
 20
41.33125
 11
8.7630674782
 21
43.13125
  0
LINE
  5
21C
100
AcDbEntity
  8
0
100
AcDbLine
 62
7
  6
BYLAYER
 10
8.8084557863
 20
40.98125
 11
8.8084557863
 21
41.13125
  0
LINE
  5
21D
100
AcDbEntity
  8
0
100
AcDbLine
 62
7
  6
BYLAYER
 10
9.1584557863
 20
36.73125
 11
9.1584557863
 21
37.33125
  0
LINE
  5
21E
100
AcDbEntity
  8
0
100
AcDbLine
 62
7
  6
BYLAYER
 10
9.1584557863
 20
38.53125
 11
9.1584557863
 21
39.68125
  0
LINE
  5
21F
100
AcDbEntity
  8
0
100
AcDbLine
 62
7
  6
BYLAYER
 10
9.5571484436
 20
43.13125
 11
9.5571484436
 21
41.13125
  0
LINE
  5
220
100
AcDbEntity
  8
0
100
AcDbLine
 62
7
  6
BYLAYER
 10
9.7584557863
 20
33.38125
 11
9.7584557863
 21
34.78125
  0
LINE
  5
221
100
AcDbEntity
  8
0
100
AcDbLine
 62
7
  6
BYLAYER
 10
10.0084557863
 20
39.68125
 11
10.0084557863
 21
40.98125
  0
LWPOLYLINE
  5
222
100
AcDbEntity
  8
0
100
AcDbPolyline
 62
7
  6
BYLAYER
 90
4
 70
0
 10
10.7279681707
 20
36.73125
 10
10.7713174008
 20
36.6780045871
 10
10.815071651
 20
36.5547524701
 10
10.8214021576
 20
36.4813030903
  0
LWPOLYLINE
  5
223
100
AcDbEntity
  8
0
100
AcDbPolyline
 62
7
  6
BYLAYER
 90
3
 70
0
 10
10.7857535309
 20
36.6373391984
 10
10.8142884157
 20
36.5591136298
 10
10.8145535187
 20
36.5562120062
  0
LINE
  5
224
100
AcDbEntity
  8
0
100
AcDbLine
 62
7
  6
BYLAYER
 10
10.821395949
 20
36.4812590134
 11
10.821395949
 21
35.2812500082
  0
LINE
  5
225
100
AcDbEntity
  8
0
100
AcDbLine
 62
7
  6
BYLAYER
 10
10.8697114115
 20
36.4812499765
 11
10.8697114115
 21
35.2812500112
  0
LWPOLYLINE
  5
226
100
AcDbEntity
  8
0
100
AcDbPolyline
 62
7
  6
BYLAYER
 90
4
 70
0
 10
10.8214018646
 20
35.2812500276
 10
10.8120130932
 20
35.1919812767
 10
10.7660068512
 20
35.0758138663
 10
10.7335204025
 20
35.0359192479
  0
LINE
  5
227
100
AcDbEntity
  8
0
100
AcDbLine
 62
7
  6
BYLAYER
 10
12.4308039358
 20
41.13125
 11
12.4308039358
 21
43.13125
  0
LINE
  5
228
100
AcDbEntity
  8
0
100
AcDbLine
 62
7
  6
BYLAYER
 10
12.4654742595
 20
43.13125
 11
12.4654742595
 21
41.33125
  0
LINE
  5
229
100
AcDbEntity
  8
0
100
AcDbLine
 62
7
  6
BYLAYER
 10
12.8904588445
 20
41.33125
 11
12.8904588445
 21
43.13125
  0
LINE
  5
22A
100
AcDbEntity
  8
0
100
AcDbLine
 62
7
  6
BYLAYER
 10
13.476474501
 20
43.13125
 11
13.476474501
 21
41.13125
  0
LINE
  5
22B
100
AcDbEntity
  8
0
100
AcDbLine
 62
7
  6
BYLAYER
 10
14.0759840632
 20
41.13125
 11
14.0759840632
 21
43.13125
  0
LINE
  5
22C
100
AcDbEntity
  8
0
100
AcDbLine
 62
7
  6
BYLAYER
 10
14.3149963014
 20
43.13125
 11
14.3149963014
 21
41.33125
  0
LINE
  5
22D
100
AcDbEntity
  8
0
100
AcDbLine
 62
7
  6
BYLAYER
 10
14.4407479611
 20
33.38125
 11
14.4407479611
 21
36.73125
  0
LINE
  5
22E
100
AcDbEntity
  8
0
100
AcDbLine
 62
7
  6
BYLAYER
 10
14.7710609377
 20
41.33125
 11
14.7710609377
 21
43.13125
  0
LINE
  5
22F
100
AcDbEntity
  8
0
100
AcDbLine
 62
7
  6
BYLAYER
 10
15.1981268015
 20
43.13125
 11
15.1981268015
 21
41.13125
  0
LINE
  5
230
100
AcDbEntity
  8
0
100
AcDbLine
 62
7
  6
BYLAYER
 10
15.5084557863
 20
49.025698717
 11
15.5084557924
 21
60.9776389447
  0
LINE
  5
231
100
AcDbEntity
  8
0
100
AcDbLine
 62
7
  6
BYLAYER
 10
15.8187847711
 20
41.13125
 11
15.8187847711
 21
43.13125
  0
LINE
  5
232
100
AcDbEntity
  8
0
100
AcDbLine
 62
7
  6
BYLAYER
 10
16.245850635
 20
43.13125
 11
16.245850635
 21
41.33125
  0
LWPOLYLINE
  5
233
100
AcDbEntity
  8
0
100
AcDbPolyline
 62
7
  6
BYLAYER
 90
5
 70
0
 10
20.2941040303
 20
35.0276651076
 10
20.2923235157
 20
35.0287967642
 10
20.2455945558
 20
35.08449472
 10
20.2018372098
 20
35.207762841
 10
20.1955098609
 20
35.2811725086
  0
LINE
  5
234
100
AcDbEntity
  8
0
100
AcDbLine
 62
7
  6
BYLAYER
 10
16.5761636115
 20
36.73125
 11
16.5761636115
 21
33.38125
  0
LINE
  5
235
100
AcDbEntity
  8
0
100
AcDbLine
 62
7
  6
BYLAYER
 10
16.7019152712
 20
41.33125
 11
16.7019152712
 21
43.13125
  0
LINE
  5
236
100
AcDbEntity
  8
0
100
AcDbLine
 62
7
  6
BYLAYER
 10
16.9409275095
 20
43.13125
 11
16.9409275095
 21
41.13125
  0
LINE
  5
237
100
AcDbEntity
  8
0
100
AcDbLine
 62
7
  6
BYLAYER
 10
17.5404370717
 20
41.13125
 11
17.5404370717
 21
43.13125
  0
LINE
  5
238
100
AcDbEntity
  8
0
100
AcDbLine
 62
7
  6
BYLAYER
 10
18.1264527281
 20
43.13125
 11
18.1264527281
 21
41.33125
  0
LINE
  5
239
100
AcDbEntity
  8
0
100
AcDbLine
 62
7
  6
BYLAYER
 10
20.2314981633
 20
35.1114884742
 11
20.2230353682
 21
35.1480458472
  0
LINE
  5
23A
100
AcDbEntity
  8
0
100
AcDbLine
 62
7
  6
BYLAYER
 10
18.5514373131
 20
41.33125
 11
18.5514373131
 21
43.13125
  0
LINE
  5
23B
100
AcDbEntity
  8
0
100
AcDbLine
 62
7
  6
BYLAYER
 10
18.5861076368
 20
43.13125
 11
18.5861076368
 21
41.13125
  0
LINE
  5
23C
100
AcDbEntity
  8
0
100
AcDbLine
 62
7
  6
BYLAYER
 10
20.1472001612
 20
35.2812500105
 11
20.1472001612
 21
36.4812499909
  0
LINE
  5
23D
100
AcDbEntity
  8
0
100
AcDbLine
 62
7
  6
BYLAYER
 10
20.1955156236
 20
35.281245975
 11
20.1955156236
 21
36.4812499917
  0
LINE
  5
23E
100
AcDbEntity
  8
0
100
AcDbLine
 62
7
  6
BYLAYER
 10
10.008455937
 20
33.13125
 11
21.0084556357
 21
33.13125
  0
LINE
  5
23F
100
AcDbEntity
  8
0
100
AcDbLine
 62
7
  6
BYLAYER
 10
21.0084557863
 20
40.98125
 11
21.0084557863
 21
39.68125
  0
LINE
  5
240
100
AcDbEntity
  8
0
100
AcDbLine
 62
7
  6
BYLAYER
 10
21.2584557863
 20
34.78125
 11
21.2584557863
 21
33.38125
  0
LINE
  5
241
100
AcDbEntity
  8
0
100
AcDbLine
 62
7
  6
BYLAYER
 10
21.459763129
 20
41.13125
 11
21.459763129
 21
43.13125
  0
LINE
  5
242
100
AcDbEntity
  8
0
100
AcDbLine
 62
7
  6
BYLAYER
 10
21.8584557863
 20
39.68125
 11
21.8584557863
 21
38.53125
  0
LINE
  5
243
100
AcDbEntity
  8
0
100
AcDbLine
 62
7
  6
BYLAYER
 10
21.8584557863
 20
37.33125
 11
21.8584557863
 21
36.73125
  0
LINE
  5
244
100
AcDbEntity
  8
0
100
AcDbLine
 62
7
  6
BYLAYER
 10
22.2084557863
 20
41.13125
 11
22.2084557863
 21
40.98125
  0
LINE
  5
245
100
AcDbEntity
  8
0
100
AcDbLine
 62
7
  6
BYLAYER
 10
22.2538440945
 20
43.13125
 11
22.2538440945
 21
41.33125
  0
LINE
  5
246
100
AcDbEntity
  8
0
100
AcDbLine
 62
7
  6
BYLAYER
 10
22.4298784733
 20
41.33125
 11
22.4298784733
 21
43.13125
  0
LWPOLYLINE
  5
247
100
AcDbEntity
  8
0
100
AcDbPolyline
 62
7
  6
BYLAYER
 90
4
 70
0
 10
20.1955092489
 20
36.4812499737
 10
20.2049136275
 20
36.5705895065
 10
20.2509363447
 20
36.6867356851
 10
20.2834051395
 20
36.7265933855
  0
LINE
  5
248
100
AcDbEntity
  8
0
100
AcDbLine
 62
7
  6
BYLAYER
 10
21.2584557863
 20
33.38125
 11
16.5761636115
 21
33.38125
  0
LINE
  5
249
100
AcDbEntity
  8
0
100
AcDbLine
 62
7
  6
BYLAYER
 10
14.4407479611
 20
33.38125
 11
9.7584557863
 21
33.38125
  0
LINE
  5
24A
100
AcDbEntity
  8
0
100
AcDbLine
 62
7
  6
BYLAYER
 10
9.7584557863
 20
34.78125
 11
10.5288097145
 21
34.78125
  0
LINE
  5
24B
100
AcDbEntity
  8
0
100
AcDbLine
 62
7
  6
BYLAYER
 10
20.4881018584
 20
34.78125
 11
21.2580249902
 21
34.78125
  0
LINE
  5
24C
100
AcDbEntity
  8
0
100
AcDbLine
 62
7
  6
BYLAYER
 10
10.0085344732
 20
35.03125
 11
10.7335204025
 21
35.03125
  0
LINE
  5
24D
100
AcDbEntity
  8
0
100
AcDbLine
 62
7
  6
BYLAYER
 10
20.2902653224
 20
35.03125
 11
21.0080437205
 21
35.03125
  0
LINE
  5
24E
100
AcDbEntity
  8
0
100
AcDbLine
 62
7
  6
BYLAYER
 10
10.8697114115
 20
35.2812500082
 11
10.821395949
 21
35.2812500082
  0
LINE
  5
24F
100
AcDbEntity
  8
0
100
AcDbLine
 62
7
  6
BYLAYER
 10
20.1472001612
 20
35.2812510318
 11
20.1955156236
 21
35.281245975
  0
LINE
  5
250
100
AcDbEntity
  8
0
100
AcDbLine
 62
7
  6
BYLAYER
 10
22.8115821345
 20
43.13125
 11
22.8115821345
 21
41.33125
  0
LINE
  5
251
100
AcDbEntity
  8
0
100
AcDbLine
 62
7
  6
BYLAYER
 10
22.8716241829
 20
41.33125
 11
22.8716241829
 21
43.13125
  0
LINE
  5
252
100
AcDbEntity
  8
0
100
AcDbLine
 62
7
  6
BYLAYER
 10
23.5084557863
 20
43.38125
 11
23.5084557863
 21
43.13125
  0
LINE
  5
253
100
AcDbEntity
  8
0
100
AcDbLine
 62
7
  6
BYLAYER
 10
10.8697114115
 20
36.4812570303
 11
10.821395949
 21
36.4812590134
  0
LINE
  5
254
100
AcDbEntity
  8
0
100
AcDbLine
 62
7
  6
BYLAYER
 10
20.1472001612
 20
36.4812499917
 11
20.1955156222
 21
36.4812499917
  0
LINE
  5
255
100
AcDbEntity
  8
0
100
AcDbLine
 62
7
  6
BYLAYER
 10
21.8584557863
 20
36.73125
 11
9.1584557863
 21
36.73125
  0
LINE
  5
256
100
AcDbEntity
  8
0
100
AcDbLine
 62
7
  6
BYLAYER
 10
9.1584557863
 20
37.33125
 11
21.8584557863
 21
37.33125
  0
LINE
  5
257
100
AcDbEntity
  8
0
100
AcDbLine
 62
7
  6
BYLAYER
 10
21.5084557863
 20
37.43125
 11
9.5084557863
 21
37.43125
  0
LINE
  5
258
100
AcDbEntity
  8
0
100
AcDbLine
 62
7
  6
BYLAYER
 10
21.5084557863
 20
38.43125
 11
9.5084557863
 21
38.43125
  0
LINE
  5
259
100
AcDbEntity
  8
0
100
AcDbLine
 62
7
  6
BYLAYER
 10
21.8584557863
 20
38.53125
 11
9.1584557863
 21
38.53125
  0
LINE
  5
25A
100
AcDbEntity
  8
0
100
AcDbLine
 62
7
  6
BYLAYER
 10
9.1584557863
 20
39.68125
 11
21.8584557863
 21
39.68125
  0
LINE
  5
25B
100
AcDbEntity
  8
0
100
AcDbLine
 62
7
  6
BYLAYER
 10
22.2084557863
 20
40.98125
 11
8.8084557863
 21
40.98125
  0
LINE
  5
25C
100
AcDbEntity
  8
0
100
AcDbLine
 62
7
  6
BYLAYER
 10
22.6820052246
 20
41.13125
 11
21.459763129
 21
41.13125
  0
LINE
  5
25D
100
AcDbEntity
  8
0
100
AcDbLine
 62
7
  6
BYLAYER
 10
18.5861076368
 20
41.13125
 11
17.5404370717
 21
41.13125
  0
LINE
  5
25E
100
AcDbEntity
  8
0
100
AcDbLine
 62
7
  6
BYLAYER
 10
16.9409275095
 20
41.13125
 11
15.8187847711
 21
41.13125
  0
LINE
  5
25F
100
AcDbEntity
  8
0
100
AcDbLine
 62
7
  6
BYLAYER
 10
15.1981268015
 20
41.13125
 11
14.0759840632
 21
41.13125
  0
LINE
  5
260
100
AcDbEntity
  8
0
100
AcDbLine
 62
7
  6
BYLAYER
 10
13.476474501
 20
41.13125
 11
12.4308039358
 21
41.13125
  0
LINE
  5
261
100
AcDbEntity
  8
0
100
AcDbLine
 62
7
  6
BYLAYER
 10
9.5571484436
 20
41.13125
 11
8.4197527801
 21
41.13125
  0
LINE
  5
262
100
AcDbEntity
  8
0
100
AcDbLine
 62
7
  6
BYLAYER
 10
22.8716241829
 20
41.33125
 11
22.8115821345
 21
41.33125
  0
LINE
  5
263
100
AcDbEntity
  8
0
100
AcDbLine
 62
7
  6
BYLAYER
 10
22.4298784733
 20
41.33125
 11
22.2538440945
 21
41.33125
  0
LINE
  5
264
100
AcDbEntity
  8
0
100
AcDbLine
 62
7
  6
BYLAYER
 10
18.5514373131
 20
41.33125
 11
18.1264527281
 21
41.33125
  0
LINE
  5
265
100
AcDbEntity
  8
0
100
AcDbLine
 62
7
  6
BYLAYER
 10
16.7019152712
 20
41.33125
 11
16.245850635
 21
41.33125
  0
LINE
  5
266
100
AcDbEntity
  8
0
100
AcDbLine
 62
7
  6
BYLAYER
 10
14.7710609377
 20
41.33125
 11
14.3149963014
 21
41.33125
  0
LINE
  5
267
100
AcDbEntity
  8
0
100
AcDbLine
 62
7
  6
BYLAYER
 10
12.8904588445
 20
41.33125
 11
12.4654742595
 21
41.33125
  0
LINE
  5
268
100
AcDbEntity
  8
0
100
AcDbLine
 62
7
  6
BYLAYER
 10
8.7630674782
 20
41.33125
 11
8.5870330993
 21
41.33125
  0
LINE
  5
269
100
AcDbEntity
  8
0
100
AcDbLine
 62
7
  6
BYLAYER
 10
8.2053294381
 20
41.33125
 11
8.1452873897
 21
41.33125
  0
LINE
  5
26A
100
AcDbEntity
  8
0
100
AcDbLine
 62
7
  6
BYLAYER
 10
23.5084557863
 20
43.13125
 11
7.5084557863
 21
43.13125
  0
LINE
  5
26B
100
AcDbEntity
  8
0
100
AcDbLine
 62
7
  6
BYLAYER
 10
39.5584557863
 20
52.88125
 11
38.8584557863
 21
52.63125
  0
LINE
  5
26C
100
AcDbEntity
  8
0
100
AcDbLine
 62
7
  6
BYLAYER
 10
33.6584557863
 20
43.63125
 11
23.7584557863
 21
43.63125
  0
LINE
  5
26D
100
AcDbEntity
  8
0
100
AcDbLine
 62
7
  6
BYLAYER
 10
33.6584557863
 20
43.78125
 11
38.1584557863
 21
43.78125
  0
LINE
  5
26E
100
AcDbEntity
  8
0
100
AcDbLine
 62
7
  6
BYLAYER
 10
38.4084557863
 20
44.73125
 11
38.8584557863
 21
44.73125
  0
LINE
  5
26F
100
AcDbEntity
  8
0
100
AcDbLine
 62
7
  6
BYLAYER
 10
33.6584557863
 20
43.78125
 11
33.6584557863
 21
43.631298976
  0
LINE
  5
270
100
AcDbEntity
  8
0
100
AcDbLine
 62
7
  6
BYLAYER
 10
38.1584557863
 20
47.9955412172
 11
17.7888625701
 21
47.9955412172
  0
LINE
  5
271
100
AcDbEntity
  8
0
100
AcDbLine
 62
7
  6
BYLAYER
 10
39.9584557863
 20
48.63125
 11
44.6584557863
 21
48.63125
  0
LINE
  5
272
100
AcDbEntity
  8
0
100
AcDbLine
 62
7
  6
BYLAYER
 10
49.1584557863
 20
48.63125
 11
53.1584557863
 21
48.63125
  0
LINE
  5
273
100
AcDbEntity
  8
0
100
AcDbLine
 62
7
  6
BYLAYER
 10
58.1584557863
 20
48.63125
 11
61.6584557863
 21
48.63125
  0
LINE
  5
274
100
AcDbEntity
  8
0
100
AcDbLine
 62
7
  6
BYLAYER
 10
38.1584557863
 20
49.0256987245
 11
15.5084557863
 21
49.025698717
  0
LINE
  5
275
100
AcDbEntity
  8
0
100
AcDbLine
 62
7
  6
BYLAYER
 10
44.6584557863
 20
49.13125
 11
48.8584557863
 21
49.13125
  0
LINE
  5
276
100
AcDbEntity
  8
0
100
AcDbLine
 62
7
  6
BYLAYER
 10
38.1584557863
 20
61.6312468981
 11
38.1584557863
 21
43.78125
  0
LINE
  5
277
100
AcDbEntity
  8
0
100
AcDbLine
 62
7
  6
BYLAYER
 10
38.4084557863
 20
44.73125
 11
38.4084557863
 21
60.53125
  0
LINE
  5
278
100
AcDbEntity
  8
0
100
AcDbLine
 62
7
  6
BYLAYER
 10
38.8584557863
 20
60.53125
 11
38.8584557863
 21
44.73125
  0
LINE
  5
279
100
AcDbEntity
  8
0
100
AcDbLine
 62
7
  6
BYLAYER
 10
39.5584557863
 20
47.23125
 11
39.9584557863
 21
47.63125
  0
LINE
  5
27A
100
AcDbEntity
  8
0
100
AcDbLine
 62
7
  6
BYLAYER
 10
39.4991294506
 20
45.0164962933
 11
38.8584557863
 21
44.73125
  0
LINE
  5
27B
100
AcDbEntity
  8
0
100
AcDbLine
 62
7
  6
BYLAYER
 10
38.4084557863
 20
44.73125
 11
38.1584557863
 21
44.63125
  0
LINE
  5
27C
100
AcDbEntity
  8
0
100
AcDbLine
 62
7
  6
BYLAYER
 10
53.1584557863
 20
50.13125
 11
58.1584557863
 21
50.13125
  0
LINE
  5
27D
100
AcDbEntity
  8
0
100
AcDbLine
 62
7
  6
BYLAYER
 10
39.4584557863
 20
52.8455357143
 11
39.4584557863
 21
52.4169642857
  0
LINE
  5
27E
100
AcDbEntity
  8
0
100
AcDbLine
 62
7
  6
BYLAYER
 10
39.4991294506
 20
60.2460037067
 11
39.4991294506
 21
59.3372482853
  0
LINE
  5
27F
100
AcDbEntity
  8
0
100
AcDbLine
 62
7
  6
BYLAYER
 10
39.4991294506
 20
59.1084361114
 11
39.4991294506
 21
52.8600619269
  0
LINE
  5
280
100
AcDbEntity
  8
0
100
AcDbLine
 62
7
  6
BYLAYER
 10
39.4991294506
 20
52.4024376036
 11
39.4991294506
 21
46.1540636416
  0
LINE
  5
281
100
AcDbEntity
  8
0
100
AcDbLine
 62
7
  6
BYLAYER
 10
39.4991294506
 20
45.9252514922
 11
39.4991294506
 21
45.0164962933
  0
LINE
  5
282
100
AcDbEntity
  8
0
100
AcDbLine
 62
7
  6
BYLAYER
 10
39.5584557863
 20
59.0181065864
 11
39.5584557863
 21
52.88125
  0
LINE
  5
283
100
AcDbEntity
  8
0
100
AcDbLine
 62
7
  6
BYLAYER
 10
39.5584557863
 20
52.38125
 11
39.5584557863
 21
46.2443934136
  0
LINE
  5
284
100
AcDbEntity
  8
0
100
AcDbLine
 62
7
  6
BYLAYER
 10
39.5584557863
 20
46.1879729405
 11
39.5584557863
 21
45.1078565477
  0
LINE
  5
285
100
AcDbEntity
  8
0
100
AcDbLine
 62
7
  6
BYLAYER
 10
39.5584557863
 20
59.0745270595
 11
39.5584557863
 21
60.1546434523
  0
LINE
  5
286
100
AcDbEntity
  8
0
100
AcDbLine
 62
7
  6
BYLAYER
 10
39.9584557863
 20
57.63125
 11
39.9584557863
 21
47.63125
  0
LINE
  5
287
100
AcDbEntity
  8
0
100
AcDbLine
 62
7
  6
BYLAYER
 10
61.0396536328
 20
52.63125
 11
58.7772579398
 21
52.63125
  0
LINE
  5
288
100
AcDbEntity
  8
0
100
AcDbLine
 62
7
  6
BYLAYER
 10
49.3865091426
 20
52.63125
 11
52.93040243
 21
52.63125
  0
LINE
  5
289
100
AcDbEntity
  8
0
100
AcDbLine
 62
7
  6
BYLAYER
 10
38.8584557863
 20
52.63125
 11
39.5584557863
 21
52.38125
  0
LINE
  5
28A
100
AcDbEntity
  8
0
100
AcDbLine
 62
7
  6
BYLAYER
 10
58.1584557863
 20
55.13125
 11
53.1584557863
 21
55.13125
  0
LINE
  5
28B
100
AcDbEntity
  8
0
100
AcDbLine
 62
7
  6
BYLAYER
 10
44.6584557863
 20
56.63125
 11
44.6584557863
 21
56.13125
  0
LINE
  5
28C
100
AcDbEntity
  8
0
100
AcDbLine
 62
7
  6
BYLAYER
 10
44.6584557863
 20
49.13125
 11
44.6584557863
 21
48.63125
  0
LINE
  5
28D
100
AcDbEntity
  8
0
100
AcDbLine
 62
7
  6
BYLAYER
 10
48.8584557863
 20
56.13125
 11
44.6584557863
 21
56.13125
  0
LINE
  5
28E
100
AcDbEntity
  8
0
100
AcDbLine
 62
7
  6
BYLAYER
 10
61.6584557863
 20
56.63125
 11
58.1584557863
 21
56.63125
  0
LINE
  5
28F
100
AcDbEntity
  8
0
100
AcDbLine
 62
7
  6
BYLAYER
 10
44.6584557863
 20
56.63125
 11
39.9584557863
 21
56.63125
  0
LINE
  5
290
100
AcDbEntity
  8
0
100
AcDbLine
 62
7
  6
BYLAYER
 10
49.1584557863
 20
56.63125
 11
53.1584557863
 21
56.63125
  0
LINE
  5
291
100
AcDbEntity
  8
0
100
AcDbLine
 62
7
  6
BYLAYER
 10
15.5084557863
 20
59.0188762352
 11
38.1584557863
 21
59.0188762352
  0
LINE
  5
292
100
AcDbEntity
  8
0
100
AcDbLine
 62
7
  6
BYLAYER
 10
39.9584557863
 20
57.63125
 11
39.5584557863
 21
58.03125
  0
LINE
  5
293
100
AcDbEntity
  8
0
100
AcDbLine
 62
7
  6
BYLAYER
 10
48.8584557863
 20
56.13125
 11
48.8584557863
 21
49.13125
  0
LINE
  5
294
100
AcDbEntity
  8
0
100
AcDbLine
 62
7
  6
BYLAYER
 10
38.4084557863
 20
60.53125
 11
38.8584557863
 21
60.53125
  0
LINE
  5
295
100
AcDbEntity
  8
0
100
AcDbLine
 62
7
  6
BYLAYER
 10
15.5084557863
 20
60.9776389447
 11
38.1584557863
 21
60.9776389447
  0
LINE
  5
296
100
AcDbEntity
  8
0
100
AcDbLine
 62
7
  6
BYLAYER
 10
9.5084581678
 20
61.63125
 11
38.1584557863
 21
61.63125
  0
LINE
  5
297
100
AcDbEntity
  8
0
100
AcDbLine
 62
7
  6
BYLAYER
 10
38.4084557863
 20
60.53125
 11
38.1584557863
 21
60.63125
  0
LINE
  5
298
100
AcDbEntity
  8
0
100
AcDbLine
 62
7
  6
BYLAYER
 10
39.4991294506
 20
60.2460037067
 11
38.8584557863
 21
60.53125
  0
LINE
  5
299
100
AcDbEntity
  8
0
100
AcDbLine
 62
7
  6
BYLAYER
 10
49.1584557863
 20
48.63125
 11
49.1584557863
 21
56.63125
  0
LINE
  5
29A
100
AcDbEntity
  8
0
100
AcDbLine
 62
7
  6
BYLAYER
 10
53.1584557863
 20
56.63125
 11
53.1584557863
 21
48.63125
  0
LINE
  5
29B
100
AcDbEntity
  8
0
100
AcDbLine
 62
7
  6
BYLAYER
 10
58.1584557863
 20
48.63125
 11
58.1584557863
 21
56.63125
  0
LINE
  5
29C
100
AcDbEntity
  8
0
100
AcDbLine
 62
7
  6
BYLAYER
 10
61.6584557863
 20
56.63125
 11
61.6584557863
 21
48.63125
  0
ARC
  5
29D
100
AcDbEntity
  8
0
100
AcDbCircle
 62
7
  6
BYLAYER
 10
-11.743605721
 20
135.4986236092
 40
102.9964473041
100
AcDbArc
 50
299.4260032362
 51
299.8360251272
  0
ARC
  5
29E
100
AcDbEntity
  8
0
100
AcDbCircle
 62
7
  6
BYLAYER
 10
-11.7423031794
 20
-30.2338314803
 40
102.9938142089
100
AcDbArc
 50
60.163980684
 51
60.574002451
  0
ARC
  5
29F
100
AcDbEntity
  8
0
100
AcDbCircle
 62
7
  6
BYLAYER
 10
24.107051498
 20
117.0673323261
 40
72.7881317869
100
AcDbArc
 50
281.6926816803
 51
282.2081563892
  0
ARC
  5
2A0
100
AcDbEntity
  8
0
100
AcDbCircle
 62
7
  6
BYLAYER
 10
24.3293224394
 20
-10.7546626143
 40
71.7147050259
100
AcDbArc
 50
77.787971729
 51
78.3111756423
  0
ARC
  5
2A1
100
AcDbEntity
  8
0
100
AcDbCircle
 62
7
  6
BYLAYER
 10
9.5084582993
 20
59.6312489101
 40
2.000000393
100
AcDbArc
 50
90.0001356052
 51
179.9999687719
  0
ARC
  5
2A2
100
AcDbEntity
  8
0
100
AcDbCircle
 62
7
  6
BYLAYER
 10
20.8016789082
 20
36.4810935336
 40
0.6544787656
100
AcDbArc
 50
172.6189097167
 51
179.9863030838
  0
ARC
  5
2A3
100
AcDbEntity
  8
0
100
AcDbCircle
 62
7
  6
BYLAYER
 10
10.2153794948
 20
36.4811058307
 40
0.6543319325
100
AcDbArc
 50
0.0126219532
 51
7.3280089804
  0
ARC
  5
2A4
100
AcDbEntity
  8
0
100
AcDbCircle
 62
7
  6
BYLAYER
 10
20.7984689735
 20
35.2812992384
 40
0.6512688141
100
AcDbArc
 50
180.0043308547
 51
180.4385456921
  0
ARC
  5
2A5
100
AcDbEntity
  8
0
100
AcDbCircle
 62
7
  6
BYLAYER
 10
10.2184593551
 20
35.2812996664
 40
0.6512520582
100
AcDbArc
 50
359.5678673527
 51
359.9956314417
  0
ARC
  5
2A6
100
AcDbEntity
  8
0
100
AcDbCircle
 62
7
  6
BYLAYER
 10
10.2863269266
 20
35.2592042527
 40
0.5795902219
100
AcDbArc
 50
332.5652072335
 51
335.4720702759
  0
ARC
  5
2A7
100
AcDbEntity
  8
0
100
AcDbCircle
 62
7
  6
BYLAYER
 10
20.7269269558
 20
35.2574795122
 40
0.5755466054
100
AcDbArc
 50
204.5236861239
 51
208.7754395729
  0
ARC
  5
2A8
100
AcDbEntity
  8
0
100
AcDbCircle
 62
7
  6
BYLAYER
 10
21.5084557863
 20
37.93125
 40
0.5
100
AcDbArc
 50
270.0
 51
90.0
  0
ARC
  5
2A9
100
AcDbEntity
  8
0
100
AcDbCircle
 62
7
  6
BYLAYER
 10
9.5084557863
 20
37.93125
 40
0.5
100
AcDbArc
 50
90.0
 51
270.0
  0
ARC
  5
2AA
100
AcDbEntity
  8
0
100
AcDbCircle
 62
7
  6
BYLAYER
 10
48.8584557863
 20
55.83125
 40
0.3
100
AcDbArc
 50
0.0
 51
90.0
  0
ARC
  5
2AB
100
AcDbEntity
  8
0
100
AcDbCircle
 62
7
  6
BYLAYER
 10
48.8584557863
 20
49.43125
 40
0.3
100
AcDbArc
 50
270.0
 51
360.0
  0
ARC
  5
2AC
100
AcDbEntity
  8
0
100
AcDbCircle
 62
7
  6
BYLAYER
 10
23.7585514286
 20
43.3811540456
 40
0.2501044793
100
AcDbArc
 50
90.0219108789
 51
179.9780177054
  0
ARC
  5
2AD
100
AcDbEntity
  8
0
100
AcDbCircle
 62
7
  6
BYLAYER
 10
21.0084557863
 20
34.78125
 40
0.25
100
AcDbArc
 50
0.0
 51
90.0
  0
ARC
  5
2AE
100
AcDbEntity
  8
0
100
AcDbCircle
 62
7
  6
BYLAYER
 10
10.0084557863
 20
34.78125
 40
0.25
100
AcDbArc
 50
90.0
 51
180.0
  0
ARC
  5
2AF
100
AcDbEntity
  8
0
100
AcDbCircle
 62
7
  6
BYLAYER
 10
10.0084557863
 20
33.38125
 40
0.25
100
AcDbArc
 50
180.0
 51
270.0
  0
ARC
  5
2B0
100
AcDbEntity
  8
0
100
AcDbCircle
 62
7
  6
BYLAYER
 10
21.0084557863
 20
33.38125
 40
0.25
100
AcDbArc
 50
270.0
 51
360.0
  0
ARC
  5
2B1
100
AcDbEntity
  8
0
100
AcDbCircle
 62
7
  6
BYLAYER
 10
9.6584557863
 20
38.28125
 40
0.25
100
AcDbArc
 50
31.6563789643
 51
89.9999873184
  0
ARC
  5
2B2
100
AcDbEntity
  8
0
100
AcDbCircle
 62
7
  6
BYLAYER
 10
21.3584557863
 20
38.28125
 40
0.25
100
AcDbArc
 50
90.0000126816
 51
148.3436210357
  0
ARC
  5
2B3
100
AcDbEntity
  8
0
100
AcDbCircle
 62
7
  6
BYLAYER
 10
21.3584557863
 20
37.58125
 40
0.25
100
AcDbArc
 50
211.6563890343
 51
269.999963225
  0
ARC
  5
2B4
100
AcDbEntity
  8
0
100
AcDbCircle
 62
7
  6
BYLAYER
 10
9.6584557863
 20
37.58125
 40
0.25
100
AcDbArc
 50
270.000036775
 51
328.3436109657
  0
ARC
  5
2B5
100
AcDbEntity
  8
0
100
AcDbCircle
 62
7
  6
BYLAYER
 10
39.4584557863
 20
45.107850839
 40
0.1
100
AcDbArc
 50
294.0000000011
 51
360.0
  0
ARC
  5
2B6
100
AcDbEntity
  8
0
100
AcDbCircle
 62
7
  6
BYLAYER
 10
39.4584557863
 20
60.154649161
 40
0.1
100
AcDbArc
 50
0.0
 51
65.9999999989
  0
SPLINE
  5
2B7
100
AcDbEntity
  8
0
100
AcDbSpline
 62
7
  6
BYLAYER
 70
0
 71
3
 72
9
 73
5
 74
0
 42
0.0000001
 43
0.0000001
 44
0.0000000001
 40
0.0
 40
0.0
 40
0.0
 40
0.0
 40
0.5012518926
 40
1.0
 40
1.0
 40
1.0
 40
1.0
 10
52.8137114384
 20
56.63125
 30
0.0
 10
52.8891063258
 20
56.4163802978
 30
0.0
 10
53.0255840696
 20
55.9826061913
 30
0.0
 10
53.1228151126
 20
55.5378763718
 30
0.0
 10
53.1584557863
 20
55.3141211657
 30
0.0
  0
SPLINE
  5
2B8
100
AcDbEntity
  8
0
100
AcDbSpline
 62
7
  6
BYLAYER
 70
0
 71
3
 72
9
 73
5
 74
0
 42
0.0000001
 43
0.0000001
 44
0.0000000001
 40
0.0
 40
0.0
 40
0.0
 40
0.0
 40
0.4991125907
 40
1.0
 40
1.0
 40
1.0
 40
1.0
 10
53.1584557863
 20
53.594341312
 30
0.0
 10
53.132538435
 20
53.4316299576
 30
0.0
 10
53.0670262641
 20
53.1076945121
 30
0.0
 10
52.9789775912
 20
52.7893023819
 30
0.0
 10
52.93040243
 20
52.63125
 30
0.0
  0
SPLINE
  5
2B9
100
AcDbEntity
  8
0
100
AcDbSpline
 62
7
  6
BYLAYER
 70
0
 71
3
 72
9
 73
5
 74
0
 42
0.0000001
 43
0.0000001
 44
0.0000000001
 40
0.0
 40
0.0
 40
0.0
 40
0.0
 40
0.4991173144
 40
1.0
 40
1.0
 40
1.0
 40
1.0
 10
49.1584557863
 20
53.594341312
 30
0.0
 10
49.1843733831
 20
53.4316284167
 30
0.0
 10
49.2498854978
 20
53.1076929466
 30
0.0
 10
49.3379344392
 20
52.7893008923
 30
0.0
 10
49.3865091426
 20
52.63125
 30
0.0
  0
SPLINE
  5
2BA
100
AcDbEntity
  8
0
100
AcDbSpline
 62
7
  6
BYLAYER
 70
0
 71
3
 72
10
 73
6
 74
0
 42
0.0000001
 43
0.0000001
 44
0.0000000001
 40
0.0
 40
0.0
 40
0.0
 40
0.0
 40
0.5011794357
 40
0.7508817176
 40
1.0
 40
1.0
 40
1.0
 40
1.0
 10
49.5032001343
 20
56.63125
 30
0.0
 10
49.4278039045
 20
56.4163764722
 30
0.0
 10
49.3252993695
 20
56.0904791455
 30
0.0
 10
49.2183091903
 20
55.6487529782
 30
0.0
 10
49.1762607364
 20
55.4259021692
 30
0.0
 10
49.1584557863
 20
55.3141211657
 30
0.0
  0
SPLINE
  5
2BB
100
AcDbEntity
  8
0
100
AcDbSpline
 62
7
  6
BYLAYER
 70
0
 71
3
 72
9
 73
5
 74
0
 42
0.0000001
 43
0.0000001
 44
0.0000000001
 40
0.0
 40
0.0
 40
0.0
 40
0.0
 40
0.500887351
 40
1.0
 40
1.0
 40
1.0
 40
1.0
 10
52.93040243
 20
52.63125
 30
0.0
 10
52.9789775853
 20
52.4731976371
 30
0.0
 10
53.067026148
 20
52.1548054803
 30
0.0
 10
53.132538432
 20
51.8308700608
 30
0.0
 10
53.1584557863
 20
51.668158688
 30
0.0
  0
SPLINE
  5
2BC
100
AcDbEntity
  8
0
100
AcDbSpline
 62
7
  6
BYLAYER
 70
0
 71
3
 72
10
 73
6
 74
0
 42
0.0000001
 43
0.0000001
 44
0.0000000001
 40
0.0
 40
0.0
 40
0.0
 40
0.0
 40
0.2491184056
 40
0.4988207066
 40
1.0
 40
1.0
 40
1.0
 40
1.0
 10
49.1584557863
 20
49.9483788343
 30
0.0
 10
49.1762607452
 20
49.8365977756
 30
0.0
 10
49.218309213
 20
49.6137469031
 30
0.0
 10
49.3252994087
 20
49.1720207399
 30
0.0
 10
49.4278039259
 20
48.8461234668
 30
0.0
 10
49.5032001343
 20
48.63125
 30
0.0
  0
SPLINE
  5
2BD
100
AcDbEntity
  8
0
100
AcDbSpline
 62
7
  6
BYLAYER
 70
0
 71
3
 72
9
 73
5
 74
0
 42
0.0000001
 43
0.0000001
 44
0.0000000001
 40
0.0
 40
0.0
 40
0.0
 40
0.0
 40
0.5008839129
 40
1.0
 40
1.0
 40
1.0
 40
1.0
 10
49.3865091426
 20
52.63125
 30
0.0
 10
49.3379343209
 20
52.4731987228
 30
0.0
 10
49.2498858284
 20
52.1548065568
 30
0.0
 10
49.184373319
 20
51.8308711807
 30
0.0
 10
49.1584557863
 20
51.668158688
 30
0.0
  0
SPLINE
  5
2BE
100
AcDbEntity
  8
0
100
AcDbSpline
 62
7
  6
BYLAYER
 70
0
 71
3
 72
9
 73
5
 74
0
 42
0.0000001
 43
0.0000001
 44
0.0000000001
 40
0.0
 40
0.0
 40
0.0
 40
0.0
 40
0.49874819
 40
1.0
 40
1.0
 40
1.0
 40
1.0
 10
53.1584557863
 20
49.9483788343
 30
0.0
 10
53.1228151067
 20
49.7246235911
 30
0.0
 10
53.0255840631
 20
49.2798937714
 30
0.0
 10
52.8891063134
 20
48.8461196668
 30
0.0
 10
52.8137114384
 20
48.63125
 30
0.0
  0
SPLINE
  5
2BF
100
AcDbEntity
  8
0
100
AcDbSpline
 62
7
  6
BYLAYER
 70
0
 71
3
 72
13
 73
9
 74
0
 42
0.0000001
 43
0.0000001
 44
0.0000000001
 40
0.0
 40
0.0
 40
0.0
 40
0.0
 40
0.1233650039
 40
0.2469780339
 40
0.3709954483
 40
0.4955593914
 40
0.746486336
 40
1.0
 40
1.0
 40
1.0
 40
1.0
 10
61.6584557863
 20
54.6312500025
 30
0.0
 10
61.6584557864
 20
54.5441727334
 30
0.0
 10
61.6508150545
 20
54.3697502741
 30
0.0
 10
61.6169791831
 20
54.1097862119
 30
0.0
 10
61.5620229213
 20
53.8526044659
 30
0.0
 10
61.4628414242
 20
53.5139799613
 30
0.0
 10
61.295745937
 20
53.1014179707
 30
0.0
 10
61.1291250259
 20
52.7862189987
 30
0.0
 10
61.0396536328
 20
52.63125
 30
0.0
  0
SPLINE
  5
2C0
100
AcDbEntity
  8
0
100
AcDbSpline
 62
7
  6
BYLAYER
 70
0
 71
3
 72
13
 73
9
 74
0
 42
0.0000001
 43
0.0000001
 44
0.0000000001
 40
0.0
 40
0.0
 40
0.0
 40
0.0
 40
0.2535144163
 40
0.5044418623
 40
0.6290060373
 40
0.7530231952
 40
0.8766353984
 40
1.0
 40
1.0
 40
1.0
 40
1.0
 10
58.7772579398
 20
48.63125
 30
0.0
 10
58.6877862819
 20
48.7862194575
 30
0.0
 10
58.5211641438
 20
49.1014188744
 30
0.0
 10
58.3540703982
 20
49.5139826221
 30
0.0
 10
58.2548875453
 20
49.8526070958
 30
0.0
 10
58.1999327575
 20
50.1097885306
 30
0.0
 10
58.1660957486
 20
50.3697513716
 30
0.0
 10
58.158455786
 20
50.5441730212
 30
0.0
 10
58.1584557861
 20
50.6312500056
 30
0.0
  0
SPLINE
  5
2C1
100
AcDbEntity
  8
0
100
AcDbSpline
 62
7
  6
BYLAYER
 70
0
 71
3
 72
13
 73
9
 74
0
 42
0.0000001
 43
0.0000001
 44
0.0000000001
 40
0.0
 40
0.0
 40
0.0
 40
0.0
 40
0.2535144163
 40
0.5044418623
 40
0.6290060373
 40
0.7530231952
 40
0.8766353984
 40
1.0
 40
1.0
 40
1.0
 40
1.0
 10
58.7772579398
 20
52.63125
 30
0.0
 10
58.6877862818
 20
52.7862194575
 30
0.0
 10
58.5211641437
 20
53.1014188745
 30
0.0
 10
58.3540703982
 20
53.5139826223
 30
0.0
 10
58.2548875452
 20
53.8526070961
 30
0.0
 10
58.1999327575
 20
54.109788531
 30
0.0
 10
58.1660957486
 20
54.3697513721
 30
0.0
 10
58.158455786
 20
54.5441730217
 30
0.0
 10
58.1584557861
 20
54.6312500061
 30
0.0
  0
SPLINE
  5
2C2
100
AcDbEntity
  8
0
100
AcDbSpline
 62
7
  6
BYLAYER
 70
0
 71
3
 72
13
 73
9
 74
0
 42
0.0000001
 43
0.0000001
 44
0.0000000001
 40
0.0
 40
0.0
 40
0.0
 40
0.0
 40
0.1233649911
 40
0.2469780031
 40
0.3709954276
 40
0.495559401
 40
0.7464863863
 40
1.0
 40
1.0
 40
1.0
 40
1.0
 10
58.1584557861
 20
50.6312500056
 30
0.0
 10
58.1584557863
 20
50.7183272636
 30
0.0
 10
58.1660964907
 20
50.8927496992
 30
0.0
 10
58.1999324214
 20
51.1527137335
 30
0.0
 10
58.2548887024
 20
51.4098954856
 30
0.0
 10
58.3540703617
 20
51.748519996
 30
0.0
 10
58.521165869
 20
52.1610819649
 30
0.0
 10
58.6877865666
 20
52.4762810357
 30
0.0
 10
58.7772579398
 20
52.63125
 30
0.0
  0
SPLINE
  5
2C3
100
AcDbEntity
  8
0
100
AcDbSpline
 62
7
  6
BYLAYER
 70
0
 71
3
 72
13
 73
9
 74
0
 42
0.0000001
 43
0.0000001
 44
0.0000000001
 40
0.0
 40
0.0
 40
0.0
 40
0.0
 40
0.2535143653
 40
0.5044418525
 40
0.6290060584
 40
0.7530232257
 40
0.8766354113
 40
1.0
 40
1.0
 40
1.0
 40
1.0
 10
61.0396536328
 20
56.63125
 30
0.0
 10
61.1291252706
 20
56.4762805775
 30
0.0
 10
61.2957471868
 20
56.1610810577
 30
0.0
 10
61.4628409553
 20
55.7485173341
 30
0.0
 10
61.5620239826
 20
55.4098928579
 30
0.0
 10
61.6169787764
 20
55.1527114138
 30
0.0
 10
61.6508158412
 20
54.8927486013
 30
0.0
 10
61.6584557863
 20
54.7183269757
 30
0.0
 10
61.6584557863
 20
54.6312500025
 30
0.0
  0
SPLINE
  5
2C4
100
AcDbEntity
  8
0
100
AcDbSpline
 62
7
  6
BYLAYER
 70
0
 71
3
 72
13
 73
9
 74
0
 42
0.0000001
 43
0.0000001
 44
0.0000000001
 40
0.0
 40
0.0
 40
0.0
 40
0.0
 40
0.1233650039
 40
0.2469780339
 40
0.3709954483
 40
0.4955593914
 40
0.746486336
 40
1.0
 40
1.0
 40
1.0
 40
1.0
 10
61.6584557863
 20
50.6312500022
 30
0.0
 10
61.6584557864
 20
50.5441727332
 30
0.0
 10
61.6508150545
 20
50.3697502739
 30
0.0
 10
61.616979183
 20
50.1097862117
 30
0.0
 10
61.5620229213
 20
49.8526044657
 30
0.0
 10
61.4628414242
 20
49.5139799612
 30
0.0
 10
61.295745937
 20
49.1014179707
 30
0.0
 10
61.1291250259
 20
48.7862189987
 30
0.0
 10
61.0396536328
 20
48.63125
 30
0.0
  0
SPLINE
  5
2C5
100
AcDbEntity
  8
0
100
AcDbSpline
 62
7
  6
BYLAYER
 70
0
 71
3
 72
13
 73
9
 74
0
 42
0.0000001
 43
0.0000001
 44
0.0000000001
 40
0.0
 40
0.0
 40
0.0
 40
0.0
 40
0.1233649911
 40
0.2469780031
 40
0.3709954276
 40
0.495559401
 40
0.7464863863
 40
1.0
 40
1.0
 40
1.0
 40
1.0
 10
58.1584557861
 20
54.6312500061
 30
0.0
 10
58.1584557863
 20
54.7183272641
 30
0.0
 10
58.1660964907
 20
54.8927496996
 30
0.0
 10
58.1999324214
 20
55.1527137339
 30
0.0
 10
58.2548887025
 20
55.409895486
 30
0.0
 10
58.3540703618
 20
55.7485199962
 30
0.0
 10
58.521165869
 20
56.1610819651
 30
0.0
 10
58.6877865666
 20
56.4762810357
 30
0.0
 10
58.7772579398
 20
56.63125
 30
0.0
  0
SPLINE
  5
2C6
100
AcDbEntity
  8
0
100
AcDbSpline
 62
7
  6
BYLAYER
 70
0
 71
3
 72
13
 73
9
 74
0
 42
0.0000001
 43
0.0000001
 44
0.0000000001
 40
0.0
 40
0.0
 40
0.0
 40
0.0
 40
0.2535143653
 40
0.5044418525
 40
0.6290060584
 40
0.7530232257
 40
0.8766354113
 40
1.0
 40
1.0
 40
1.0
 40
1.0
 10
61.0396536328
 20
52.63125
 30
0.0
 10
61.1291252706
 20
52.4762805774
 30
0.0
 10
61.2957471869
 20
52.1610810576
 30
0.0
 10
61.4628409553
 20
51.748517334
 30
0.0
 10
61.5620239826
 20
51.4098928577
 30
0.0
 10
61.6169787764
 20
51.1527114136
 30
0.0
 10
61.6508158412
 20
50.8927486012
 30
0.0
 10
61.6584557863
 20
50.7183269755
 30
0.0
 10
61.6584557863
 20
50.6312500022
 30
0.0
  0
SPLINE
  5
2C7
100
AcDbEntity
  8
0
100
AcDbSpline
 62
7
  6
BYLAYER
 70
0
 71
3
 72
10
 73
6
 74
0
 42
0.0000001
 43
0.0000001
 44
0.0000000001
 40
0.0
 40
0.0
 40
0.0
 40
0.0
 40
0.2624811499
 40
0.5216552985
 40
1.0
 40
1.0
 40
1.0
 40
1.0
 10
39.49911628
 20
59.1084468491
 30
0.0
 10
39.5076230621
 20
59.1035671631
 30
0.0
 10
39.5235307818
 20
59.0919286911
 30
0.0
 10
39.5482428416
 20
59.0637849206
 30
0.0
 10
39.5584557863
 20
59.0359787747
 30
0.0
 10
39.5584557863
 20
59.0181065864
 30
0.0
  0
SPLINE
  5
2C8
100
AcDbEntity
  8
0
100
AcDbSpline
 62
7
  6
BYLAYER
 70
0
 71
3
 72
10
 73
6
 74
0
 42
0.0000001
 43
0.0000001
 44
0.0000000001
 40
0.0
 40
0.0
 40
0.0
 40
0.0
 40
0.4783496346
 40
0.7374998303
 40
1.0
 40
1.0
 40
1.0
 40
1.0
 10
39.5584557863
 20
46.2443934136
 30
0.0
 10
39.5584557863
 20
46.2265244987
 30
0.0
 10
39.5482467081
 20
46.1987239825
 30
0.0
 10
39.5235409002
 20
46.1705847807
 30
0.0
 10
39.5076385687
 20
46.1589454866
 30
0.0
 10
39.4991328161
 20
46.1540663911
 30
0.0
  0
SPLINE
  5
2C9
100
AcDbEntity
  8
0
100
AcDbSpline
 62
7
  6
BYLAYER
 70
0
 71
3
 72
12
 73
8
 74
0
 42
0.0000001
 43
0.0000001
 44
0.0000000001
 40
0.0
 40
0.0
 40
0.0
 40
0.0
 40
0.2954524589
 40
0.5621269426
 40
0.7922828883
 40
0.8979211377
 40
1.0
 40
1.0
 40
1.0
 40
1.0
 10
8.5870330993
 20
41.33125
 30
0.0
 10
8.5870330993
 20
41.3040290626
 30
0.0
 10
8.5950447969
 20
41.251826663
 30
0.0
 10
8.6289585467
 20
41.1856550167
 30
0.0
 10
8.672268777
 20
41.1480558222
 30
0.0
 10
8.7103082313
 20
41.1336407005
 30
0.0
 10
8.7295204978
 20
41.13125
 30
0.0
 10
8.7389253351
 20
41.13125
 30
0.0
  0
SPLINE
  5
2CA
100
AcDbEntity
  8
0
100
AcDbSpline
 62
7
  6
BYLAYER
 70
0
 71
3
 72
11
 73
7
 74
0
 42
0.0000001
 43
0.0000001
 44
0.0000000001
 40
0.0
 40
0.0
 40
0.0
 40
0.0
 40
0.2703205273
 40
0.5272762955
 40
0.7684608431
 40
1.0
 40
1.0
 40
1.0
 40
1.0
 10
8.1452873897
 20
41.33125
 30
0.0
 10
8.1452873897
 20
41.3038413444
 30
0.0
 10
8.1558899128
 20
41.2497677547
 30
0.0
 10
8.2000519186
 20
41.183204984
 30
0.0
 10
8.2629936487
 20
41.1408545483
 30
0.0
 10
8.3114297119
 20
41.13125
 30
0.0
 10
8.3349062014
 20
41.13125
 30
0.0
  0
SPLINE
  5
2CB
100
AcDbEntity
  8
0
100
AcDbSpline
 62
7
  6
BYLAYER
 70
0
 71
3
 72
13
 73
9
 74
0
 42
0.0000001
 43
0.0000001
 44
0.0000000001
 40
0.0
 40
0.0
 40
0.0
 40
0.0
 40
0.1019542656
 40
0.2074566517
 40
0.4374084788
 40
0.5665606187
 40
0.7049588921
 40
1.0
 40
1.0
 40
1.0
 40
1.0
 10
22.2779861464
 20
41.13125
 30
0.0
 10
22.2873893487
 20
41.13125
 30
0.0
 10
22.3065999908
 20
41.1336377311
 30
0.0
 10
22.3446263749
 20
41.1480467885
 30
0.0
 10
22.3781502496
 20
41.1771080878
 30
0.0
 10
22.4032437559
 20
41.215698445
 30
0.0
 10
22.4237074718
 20
41.26361783
 30
0.0
 10
22.4298784733
 20
41.3040384732
 30
0.0
 10
22.4298784733
 20
41.33125
 30
0.0
  0
SPLINE
  5
2CC
100
AcDbEntity
  8
0
100
AcDbSpline
 62
7
  6
BYLAYER
 70
0
 71
3
 72
11
 73
7
 74
0
 42
0.0000001
 43
0.0000001
 44
0.0000000001
 40
0.0
 40
0.0
 40
0.0
 40
0.0
 40
0.2314915562
 40
0.4727161218
 40
0.7297748385
 40
1.0
 40
1.0
 40
1.0
 40
1.0
 10
22.6820052574
 20
41.13125
 30
0.0
 10
22.7054769783
 20
41.13125
 30
0.0
 10
22.753912576
 20
41.1408501063
 30
0.0
 10
22.8168648297
 20
41.1832051779
 30
0.0
 10
22.861024875
 20
41.2497773117
 30
0.0
 10
22.8716241829
 20
41.3038509464
 30
0.0
 10
22.8716241829
 20
41.33125
 30
0.0
  0
SPLINE
  5
2CD
100
AcDbEntity
  8
0
100
AcDbSpline
 62
7
  6
BYLAYER
 70
0
 71
3
 72
9
 73
5
 74
0
 42
0.0000001
 43
0.0000001
 44
0.0000000001
 40
0.0
 40
0.0
 40
0.0
 40
0.0
 40
0.5127360268
 40
1.0
 40
1.0
 40
1.0
 40
1.0
 10
17.7197596777
 20
47.8667725516
 30
0.0
 10
17.7298657328
 20
47.8896337325
 30
0.0
 10
17.7513791449
 20
47.9334292057
 30
0.0
 10
17.7758966835
 20
47.9756382043
 30
0.0
 10
17.788862629
 20
47.9955408925
 30
0.0
  0
SPLINE
  5
2CE
100
AcDbEntity
  8
0
100
AcDbSpline
 62
7
  6
BYLAYER
 70
0
 71
3
 72
9
 73
5
 74
0
 42
0.0000001
 43
0.0000001
 44
0.0000000001
 40
0.0
 40
0.0
 40
0.0
 40
0.0
 40
0.5033031497
 40
1.0
 40
1.0
 40
1.0
 40
1.0
 10
15.5084557863
 20
49.0256987245
 30
0.0
 10
15.889242317
 20
48.8489271218
 30
0.0
 10
16.6458065417
 20
48.4977074835
 30
0.0
 10
17.4076225856
 20
48.1577331905
 30
0.0
 10
17.7888625701
 20
47.9955412172
 30
0.0
  0
SPLINE
  5
2CF
100
AcDbEntity
  8
0
100
AcDbSpline
 62
7
  6
BYLAYER
 70
0
 71
3
 72
12
 73
8
 74
0
 42
0.0000001
 43
0.0000001
 44
0.0000000001
 40
0.0
 40
0.0
 40
0.0
 40
0.0
 40
0.2800694865
 40
0.4199530585
 40
0.5545462585
 40
0.7963148219
 40
1.0
 40
1.0
 40
1.0
 40
1.0
 10
10.5288136839
 20
34.7812500001
 30
0.0
 10
10.5288129013
 20
34.814505999
 30
0.0
 10
10.5375009437
 20
34.8650274393
 30
0.0
 10
10.5662680597
 20
34.9245991199
 30
0.0
 10
10.6027974847
 20
34.9742228196
 30
0.0
 10
10.6594709918
 20
35.0167991434
 30
0.0
 10
10.7122420441
 20
35.0298924362
 30
0.0
 10
10.7364007237
 20
35.0310412049
 30
0.0
  0
SPLINE
  5
2D0
100
AcDbEntity
  8
0
100
AcDbSpline
 62
7
  6
BYLAYER
 70
0
 71
3
 72
9
 73
5
 74
0
 42
0.0000001
 43
0.0000001
 44
0.0000000001
 40
0.0
 40
0.0
 40
0.0
 40
0.0
 40
0.2383026113
 40
1.0
 40
1.0
 40
1.0
 40
1.0
 10
10.8192008707
 20
36.73125
 30
0.0
 10
10.8246120243
 20
36.7186182181
 30
0.0
 10
10.8454869141
 20
36.6648428938
 30
0.0
 10
10.8587564577
 20
36.6081299
 30
0.0
 10
10.8643669807
 20
36.5645655284
 30
0.0
  0
SPLINE
  5
2D1
100
AcDbEntity
  8
0
100
AcDbSpline
 62
7
  6
BYLAYER
 70
0
 71
3
 72
9
 73
5
 74
0
 42
0.0000001
 43
0.0000001
 44
0.0000000001
 40
0.0
 40
0.0
 40
0.0
 40
0.0
 40
0.5190888673
 40
1.0
 40
1.0
 40
1.0
 40
1.0
 10
10.8696928906
 20
35.2763878804
 30
0.0
 10
10.8693467901
 20
35.2304894427
 30
0.0
 10
10.8593385784
 20
35.1418759129
 30
0.0
 10
10.831270461
 20
35.057280262
 30
0.0
 10
10.8136143554
 20
35.0185950411
 30
0.0
  0
SPLINE
  5
2D2
100
AcDbEntity
  8
0
100
AcDbSpline
 62
7
  6
BYLAYER
 70
0
 71
3
 72
11
 73
7
 74
0
 42
0.0000001
 43
0.0000001
 44
0.0000000001
 40
0.0
 40
0.0
 40
0.0
 40
0.0
 40
0.3055099782
 40
0.569536559
 40
0.7975917414
 40
1.0
 40
1.0
 40
1.0
 40
1.0
 10
10.8007339781
 20
34.9921645353
 30
0.0
 10
10.7838568872
 20
34.9596718961
 30
0.0
 10
10.746432036
 20
34.9018836658
 30
0.0
 10
10.6777475574
 20
34.8342201644
 30
0.0
 10
10.604892643
 20
34.7918777092
 30
0.0
 10
10.5530676406
 20
34.781241169
 30
0.0
 10
10.5288097145
 20
34.78125
 30
0.0
  0
SPLINE
  5
2D3
100
AcDbEntity
  8
0
100
AcDbSpline
 62
7
  6
BYLAYER
 70
0
 71
3
 72
9
 73
5
 74
0
 42
0.0000001
 43
0.0000001
 44
0.0000000001
 40
0.0
 40
0.0
 40
0.0
 40
0.0
 40
0.260942409
 40
1.0
 40
1.0
 40
1.0
 40
1.0
 10
20.1526234051
 20
36.565173309
 30
0.0
 10
20.1545528158
 20
36.5800440529
 30
0.0
 10
20.1639251281
 20
36.6367570342
 30
0.0
 10
20.1809870469
 20
36.6922103381
 30
0.0
 10
20.1977107087
 20
36.73125
 30
0.0
  0
SPLINE
  5
2D4
100
AcDbEntity
  8
0
100
AcDbSpline
 62
7
  6
BYLAYER
 70
0
 71
3
 72
9
 73
5
 74
0
 42
0.0000001
 43
0.0000001
 44
0.0000000001
 40
0.0
 40
0.0
 40
0.0
 40
0.0
 40
0.5190886447
 40
1.0
 40
1.0
 40
1.0
 40
1.0
 10
20.1472192365
 20
35.2763144325
 30
0.0
 10
20.1475703859
 20
35.2304273123
 30
0.0
 10
20.1575838333
 20
35.1418367438
 30
0.0
 10
20.185648243
 20
35.0572632468
 30
0.0
 10
20.2033005487
 20
35.0185877361
 30
0.0
  0
SPLINE
  5
2D5
100
AcDbEntity
  8
0
100
AcDbSpline
 62
7
  6
BYLAYER
 70
0
 71
3
 72
11
 73
7
 74
0
 42
0.0000001
 43
0.0000001
 44
0.0000000001
 40
0.0
 40
0.0
 40
0.0
 40
0.0
 40
0.3038757773
 40
0.5673953081
 40
0.7960829776
 40
1.0
 40
1.0
 40
1.0
 40
1.0
 10
20.2224528118
 20
34.980424043
 30
0.0
 10
20.2393545102
 20
34.9496859
 30
0.0
 10
20.2764291465
 20
34.8950344583
 30
0.0
 10
20.343552627
 20
34.8311474566
 30
0.0
 10
20.4143967175
 20
34.7912179353
 30
0.0
 10
20.4645622991
 20
34.7812414224
 30
0.0
 10
20.4881018584
 20
34.78125
 30
0.0
  0
SPLINE
  5
2D6
100
AcDbEntity
  8
0
100
AcDbSpline
 62
7
  6
BYLAYER
 70
0
 71
3
 72
12
 73
8
 74
0
 42
0.0000001
 43
0.0000001
 44
0.0000000001
 40
0.0
 40
0.0
 40
0.0
 40
0.0
 40
0.2767421432
 40
0.4153445894
 40
0.5494494263
 40
0.7926817576
 40
1.0
 40
1.0
 40
1.0
 40
1.0
 10
20.4880992784
 20
34.7812500001
 30
0.0
 10
20.4880999585
 20
34.8129653707
 30
0.0
 10
20.4801972972
 20
34.8611253082
 30
0.0
 10
20.4539706743
 20
34.9186615948
 30
0.0
 10
20.420226879
 20
34.9675548929
 30
0.0
 10
20.3672034862
 20
35.0113220557
 30
0.0
 10
20.31667561
 20
35.0273133982
 30
0.0
 10
20.293071371
 20
35.0300226417
 30
0.0
  0
SPLINE
  5
2D7
100
AcDbEntity
  8
0
100
AcDbSpline
 62
7
  6
BYLAYER
 70
0
 71
3
 72
38
 73
34
 74
0
 42
0.0000001
 43
0.0000001
 44
0.0000000001
 40
0.0
 40
0.0
 40
0.0
 40
0.0
 40
0.0078005512
 40
0.0156127495
 40
0.0234279261
 40
0.0312429906
 40
0.046861006
 40
0.0624851191
 40
0.078110788
 40
0.0937369385
 40
0.1249853625
 40
0.1562362189
 40
0.1874879722
 40
0.2187401449
 40
0.2499925069
 40
0.3124952785
 40
0.3749991421
 40
0.5000019851
 40
0.6250050527
 40
0.687509019
 40
0.7500118521
 40
0.8125118168
 40
0.8437635753
 40
0.8750144398
 40
0.9062628718
 40
0.9218890296
 40
0.9375147094
 40
0.9531388294
 40
0.9687568786
 40
0.9765719493
 40
0.9843871801
 40
0.9921993201
 40
1.0
 40
1.0
 40
1.0
 40
1.0
 10
14.4407479611
 20
33.38125
 30
0.0
 10
14.4407479611
 20
33.3754197568
 30
0.0
 10
14.4430665917
 20
33.3636717462
 30
0.0
 10
14.4518049016
 20
33.3482819832
 30
0.0
 10
14.4635064303
 20
33.3351282559
 30
0.0
 10
14.4813860254
 20
33.3200227425
 30
0.0
 10
14.5063052753
 20
33.3045740447
 30
0.0
 10
14.5379649151
 20
33.2895071088
 30
0.0
 10
14.5706535069
 20
33.27682831
 30
0.0
 10
14.6150638084
 20
33.2622934206
 30
0.0
 10
14.6716115703
 20
33.2475349028
 30
0.0
 10
14.7402754145
 20
33.2334669709
 30
0.0
 10
14.8094329104
 20
33.2220849982
 30
0.0
 10
14.8788950991
 20
33.2127788267
 30
0.0
 10
14.9717781951
 20
33.2026006425
 30
0.0
 10
15.0882226987
 20
33.1932994868
 30
0.0
 10
15.2748553074
 20
33.183745053
 30
0.0
 10
15.5084556533
 20
33.1795858264
 30
0.0
 10
15.7420540247
 20
33.1837463883
 30
0.0
 10
15.928690209
 20
33.1932969457
 30
0.0
 10
16.0684107821
 20
33.2044696231
 30
0.0
 10
16.1844283721
 20
33.2182965491
 30
0.0
 10
16.2766357309
 20
33.2334659421
 30
0.0
 10
16.3452995729
 20
33.2475350417
 30
0.0
 10
16.4018473615
 20
33.2622932604
 30
0.0
 10
16.4462576889
 20
33.2768281655
 30
0.0
 10
16.4789463166
 20
33.2895069212
 30
0.0
 10
16.5106059779
 20
33.3045738986
 30
0.0
 10
16.5355253049
 20
33.320022537
 30
0.0
 10
16.5534049611
 20
33.3351280923
 30
0.0
 10
16.5651064944
 20
33.3482818095
 30
0.0
 10
16.5738449733
 20
33.3636715821
 30
0.0
 10
16.5761636115
 20
33.3754196606
 30
0.0
 10
16.5761636115
 20
33.38125
 30
0.0
  0
SPLINE
  5
2D8
100
AcDbEntity
  8
0
100
AcDbSpline
 62
7
  6
BYLAYER
 70
0
 71
3
 72
11
 73
7
 74
0
 42
0.0000001
 43
0.0000001
 44
0.0000000001
 40
0.0
 40
0.0
 40
0.0
 40
0.0
 40
0.2515201901
 40
0.4955792554
 40
0.7425312788
 40
1.0
 40
1.0
 40
1.0
 40
1.0
 10
39.5584557863
 20
59.2681065864
 30
0.0
 10
39.5584557863
 20
59.2763624958
 30
0.0
 10
39.5556668165
 20
59.2928048378
 30
0.0
 10
39.542894762
 20
59.3142084371
 30
0.0
 10
39.5232178457
 20
59.3297081767
 30
0.0
 10
39.5073926532
 20
59.335458743
 30
0.0
 10
39.4991328161
 20
59.3372468339
 30
0.0
  0
SPLINE
  5
2D9
100
AcDbEntity
  8
0
100
AcDbSpline
 62
7
  6
BYLAYER
 70
0
 71
3
 72
35
 73
31
 74
0
 42
0.0000001
 43
0.0000001
 44
0.0000000001
 40
0.0
 40
0.0
 40
0.0
 40
0.0
 40
0.0002387942
 40
0.0006257787
 40
0.0011952543
 40
0.0019456884
 40
0.0028750484
 40
0.0052616812
 40
0.0083369789
 40
0.0120824783
 40
0.0164797199
 40
0.0215114964
 40
0.0334436799
 40
0.0478241974
 40
0.0646010101
 40
0.0837203537
 40
0.1050965703
 40
0.1286158408
 40
0.1541633697
 40
0.1816258349
 40
0.2418948706
 40
0.3086508171
 40
0.3811310415
 40
0.4586162307
 40
0.5405543739
 40
0.6264362996
 40
0.7157402351
 40
0.8079752747
 40
0.9028150394
 40
1.0
 40
1.0
 40
1.0
 40
1.0
 10
23.7584557863
 20
43.63125
 30
0.0
 10
23.7588965884
 20
43.63125
 30
0.0
 10
23.7575483977
 20
43.6331297609
 30
0.0
 10
23.7563788469
 20
43.6340603269
 30
0.0
 10
23.7538805463
 20
43.6364865373
 30
0.0
 10
23.7508417613
 20
43.639119066
 30
0.0
 10
23.7451224976
 20
43.6440794629
 30
0.0
 10
23.7361334914
 20
43.6516556501
 30
0.0
 10
23.7231069157
 20
43.6626016466
 30
0.0
 10
23.7072622322
 20
43.6759241806
 30
0.0
 10
23.6886992722
 20
43.6916393918
 30
0.0
 10
23.65873035
 20
43.7172647321
 30
0.0
 10
23.6149461082
 20
43.7550912838
 30
0.0
 10
23.5548534192
 20
43.807202744
 30
0.0
 10
23.4847153505
 20
43.8679813311
 30
0.0
 10
23.4046738432
 20
43.9370500961
 30
0.0
 10
23.3150360673
 20
44.0140488092
 30
0.0
 10
23.2162477055
 20
44.0986051871
 30
0.0
 10
23.1087776767
 20
44.190295894
 30
0.0
 10
22.9495132533
 20
44.3257977467
 30
0.0
 10
22.7318106842
 20
44.5100028677
 30
0.0
 10
22.4494398358
 20
44.7464255299
 30
0.0
 10
22.141363461
 20
45.0016421711
 30
0.0
 10
21.8102714953
 20
45.2730003426
 30
0.0
 10
21.4574878023
 20
45.5568992026
 30
0.0
 10
21.0841908511
 20
45.8500580326
 30
0.0
 10
20.6923257712
 20
46.1502877032
 30
0.0
 10
20.2835699073
 20
46.4556117678
 30
0.0
 10
19.8577496506
 20
46.7622841176
 30
0.0
 10
19.5655704211
 20
46.9630666166
 30
0.0
 10
19.416202072
 20
47.0624292407
 30
0.0
  0
SPLINE
  5
2DA
100
AcDbEntity
  8
0
100
AcDbSpline
 62
7
  6
BYLAYER
 70
0
 71
3
 72
10
 73
6
 74
0
 42
0.0000001
 43
0.0000001
 44
0.0000000001
 40
0.0
 40
0.0
 40
0.0
 40
0.0
 40
0.244626295
 40
0.4932146386
 40
1.0
 40
1.0
 40
1.0
 40
1.0
 10
19.416202072
 20
47.0624292407
 30
0.0
 10
19.2887544934
 20
47.1472097576
 30
0.0
 10
19.0295614772
 20
47.3148467782
 30
0.0
 10
18.4932888355
 20
47.6374011574
 30
0.0
 10
18.0748670072
 20
47.8585684027
 30
0.0
 10
17.7888625701
 20
47.9955412172
 30
0.0
  0
SPLINE
  5
2DB
100
AcDbEntity
  8
0
100
AcDbSpline
 62
7
  6
BYLAYER
 70
0
 71
3
 72
11
 73
7
 74
0
 42
0.0000001
 43
0.0000001
 44
0.0000000001
 40
0.0
 40
0.0
 40
0.0
 40
0.0
 40
0.2163650364
 40
0.4509237197
 40
0.7140404422
 40
1.0
 40
1.0
 40
1.0
 40
1.0
 10
13.0562201415
 20
41.13125
 30
0.0
 10
13.0355824675
 20
41.13125
 30
0.0
 10
12.9920530788
 20
41.1413681346
 30
0.0
 10
12.9370718351
 20
41.1846945935
 30
0.0
 10
12.8993531244
 20
41.2511191771
 30
0.0
 10
12.8904588445
 20
41.3039741506
 30
0.0
 10
12.8904588445
 20
41.33125
 30
0.0
  0
SPLINE
  5
2DC
100
AcDbEntity
  8
0
100
AcDbSpline
 62
7
  6
BYLAYER
 70
0
 71
3
 72
11
 73
7
 74
0
 42
0.0000001
 43
0.0000001
 44
0.0000000001
 40
0.0
 40
0.0
 40
0.0
 40
0.0
 40
0.2574538349
 40
0.5044264579
 40
0.7484980978
 40
1.0
 40
1.0
 40
1.0
 40
1.0
 10
39.4991162801
 20
45.9252458318
 30
0.0
 10
39.5073773209
 20
45.9270341832
 30
0.0
 10
39.5232075071
 20
45.9327816391
 30
0.0
 10
39.5428891392
 20
45.9482844535
 30
0.0
 10
39.5556698516
 20
45.9696898781
 30
0.0
 10
39.5584557863
 20
45.9861364239
 30
0.0
 10
39.5584557863
 20
45.9943934136
 30
0.0
  0
SPLINE
  5
2DD
100
AcDbEntity
  8
0
100
AcDbSpline
 62
7
  6
BYLAYER
 70
0
 71
3
 72
18
 73
14
 74
0
 42
0.0000001
 43
0.0000001
 44
0.0000000001
 40
0.0
 40
0.0
 40
0.0
 40
0.0
 40
0.2057388678
 40
0.401494086
 40
0.5766328148
 40
0.7251745891
 40
0.8430307094
 40
0.889865372
 40
0.9283830444
 40
0.9584952578
 40
0.980246519
 40
0.993795207
 40
1.0
 40
1.0
 40
1.0
 40
1.0
 10
12.4654742595
 20
41.33125
 30
0.0
 10
12.4654742595
 20
41.3174740991
 30
0.0
 10
12.4653357303
 20
41.2905905336
 30
0.0
 10
12.4647472001
 20
41.2519843008
 30
0.0
 10
12.4638051441
 20
41.2172147231
 30
0.0
 10
12.4625880798
 20
41.1876766978
 30
0.0
 10
12.4613243763
 20
41.1667332664
 30
0.0
 10
12.4601758887
 20
41.1531831159
 30
0.0
 10
12.4593384405
 20
41.1454781067
 30
0.0
 10
12.4585281607
 20
41.1395278826
 30
0.0
 10
12.457620001
 20
41.1351231535
 30
0.0
 10
12.456949136
 20
41.1326473412
 30
0.0
 10
12.4560828202
 20
41.13125
 30
0.0
 10
12.4556673585
 20
41.13125
 30
0.0
  0
SPLINE
  5
2DE
100
AcDbEntity
  8
0
100
AcDbSpline
 62
7
  6
BYLAYER
 70
0
 71
3
 72
13
 73
9
 74
0
 42
0.0000001
 43
0.0000001
 44
0.0000000001
 40
0.0
 40
0.0
 40
0.0
 40
0.0
 40
0.0883219236
 40
0.1825386803
 40
0.2869781192
 40
0.4044727607
 40
0.6814472778
 40
1.0
 40
1.0
 40
1.0
 40
1.0
 10
14.89186145
 20
41.13125
 30
0.0
 10
14.8843511801
 20
41.13125
 30
0.0
 10
14.8687425626
 20
41.1337256496
 30
0.0
 10
14.8465217674
 20
41.1445017971
 30
0.0
 10
14.8258870615
 20
41.1621175138
 30
0.0
 10
14.7999831747
 20
41.1960324493
 30
0.0
 10
14.777129514
 20
41.2533296038
 30
0.0
 10
14.7710609377
 20
41.3041625362
 30
0.0
 10
14.7710609377
 20
41.33125
 30
0.0
  0
SPLINE
  5
2DF
100
AcDbEntity
  8
0
100
AcDbSpline
 62
7
  6
BYLAYER
 70
0
 71
3
 72
32
 73
28
 74
0
 42
0.0000001
 43
0.0000001
 44
0.0000000001
 40
0.0
 40
0.0
 40
0.0
 40
0.0
 40
0.0000761719
 40
0.0003033535
 40
0.0006813535
 40
0.0012099807
 40
0.0027183518
 40
0.0048269376
 40
0.0075342101
 40
0.0108386417
 40
0.0147387061
 40
0.0192328777
 40
0.029993311
 40
0.0430871163
 40
0.0584774295
 40
0.076127499
 40
0.095997317
 40
0.1180335384
 40
0.1683794351
 40
0.2266935414
 40
0.2924159515
 40
0.364948572
 40
0.4436129484
 40
0.5276957109
 40
0.6164028813
 40
0.804295615
 40
1.0
 40
1.0
 40
1.0
 40
1.0
 10
9.5084535657
 20
61.6312493031
 30
0.0
 10
9.5085951881
 20
61.6311900181
 30
0.0
 10
9.5092127463
 20
61.6311234172
 30
0.0
 10
9.5105353482
 20
61.630770531
 30
0.0
 10
9.5127796883
 20
61.6303208522
 30
0.0
 10
9.5175305355
 20
61.6292703088
 30
0.0
 10
9.5257033188
 20
61.6275237829
 30
0.0
 10
9.5381631595
 20
61.6248369187
 30
0.0
 10
9.5541679882
 20
61.6214109851
 30
0.0
 10
9.5737052554
 20
61.6172384331
 30
0.0
 10
9.596768717
 20
61.6123316588
 30
0.0
 10
9.6345367704
 20
61.6043233113
 30
0.0
 10
9.690446678
 20
61.5925378793
 30
0.0
 10
9.7678861067
 20
61.576411882
 30
0.0
 10
9.8589760704
 20
61.5577233377
 30
0.0
 10
9.963515046
 20
61.5366341837
 30
0.0
 10
10.0812686947
 20
61.5133149232
 30
0.0
 10
10.2638182967
 20
61.4779600992
 30
0.0
 10
10.5228073257
 20
61.4297735541
 30
0.0
 10
10.8690466437
 20
61.36924709
 30
0.0
 10
11.2601797403
 20
61.3060031975
 30
0.0
 10
11.6927650355
 20
61.2424062993
 30
0.0
 10
12.1630026278
 20
61.1808691764
 30
0.0
 10
12.6666403562
 20
61.1238509269
 30
0.0
 10
13.3904370046
 20
61.0554421761
 30
0.0
 10
14.3407268692
 20
60.9944545881
 30
0.0
 10
15.1139978353
 20
60.9776377996
 30
0.0
 10
15.5084557863
 20
60.977638097
 30
0.0
  0
SPLINE
  5
2E0
100
AcDbEntity
  8
0
100
AcDbSpline
 62
7
  6
BYLAYER
 70
0
 71
3
 72
15
 73
11
 74
0
 42
0.0000001
 43
0.0000001
 44
0.0000000001
 40
0.0
 40
0.0
 40
0.0
 40
0.0
 40
0.1854821683
 40
0.3628612185
 40
0.5234625366
 40
0.6628215631
 40
0.7784543015
 40
0.8706240126
 40
0.9420177612
 40
1.0
 40
1.0
 40
1.0
 40
1.0
 10
14.3149963014
 20
41.33125
 30
0.0
 10
14.3149963014
 20
41.3174655732
 30
0.0
 10
14.3140361277
 20
41.2904903648
 30
0.0
 10
14.309955836
 20
41.2517685299
 30
0.0
 10
14.3034104326
 20
41.2168585166
 30
0.0
 10
14.2949182851
 20
41.1871076828
 30
0.0
 10
14.2848758791
 20
41.163247755
 30
0.0
 10
14.2736526556
 20
41.1456415472
 30
0.0
 10
14.2613510779
 20
41.1342521355
 30
0.0
 10
14.2516979827
 20
41.13125
 30
0.0
 10
14.2473889327
 20
41.13125
 30
0.0
  0
SPLINE
  5
2E1
100
AcDbEntity
  8
0
100
AcDbSpline
 62
7
  6
BYLAYER
 70
0
 71
3
 72
11
 73
7
 74
0
 42
0.0000001
 43
0.0000001
 44
0.0000000001
 40
0.0
 40
0.0
 40
0.0
 40
0.0
 40
0.2501068455
 40
0.5003080765
 40
0.7502902164
 40
1.0
 40
1.0
 40
1.0
 40
1.0
 10
8.9876824512
 20
41.13125
 30
0.0
 10
8.9600299594
 20
41.13125
 30
0.0
 10
8.904266079
 20
41.1403754211
 30
0.0
 10
8.8301451767
 20
41.1814010434
 30
0.0
 10
8.7765008621
 20
41.2476390709
 30
0.0
 10
8.7630674782
 20
41.3036414084
 30
0.0
 10
8.7630674782
 20
41.33125
 30
0.0
  0
SPLINE
  5
2E2
100
AcDbEntity
  8
0
100
AcDbSpline
 62
7
  6
BYLAYER
 70
0
 71
3
 72
12
 73
8
 74
0
 42
0.0000001
 43
0.0000001
 44
0.0000000001
 40
0.0
 40
0.0
 40
0.0
 40
0.0
 40
0.2447561106
 40
0.4921258461
 40
0.6179291167
 40
0.7449525754
 40
1.0
 40
1.0
 40
1.0
 40
1.0
 10
8.4197526287
 20
41.13125
 30
0.0
 10
8.3933199471
 20
41.13125
 30
0.0
 10
8.3397361622
 20
41.1404654153
 30
0.0
 10
8.2806920254
 20
41.1749475883
 30
0.0
 10
8.2436436749
 20
41.2147357959
 30
0.0
 10
8.2148777063
 20
41.2617602049
 30
0.0
 10
8.2053294381
 20
41.3037058976
 30
0.0
 10
8.2053294381
 20
41.33125
 30
0.0
  0
SPLINE
  5
2E3
100
AcDbEntity
  8
0
100
AcDbSpline
 62
7
  6
BYLAYER
 70
0
 71
3
 72
15
 73
11
 74
0
 42
0.0000001
 43
0.0000001
 44
0.0000000001
 40
0.0
 40
0.0
 40
0.0
 40
0.0
 40
0.0579694844
 40
0.1293428191
 40
0.2215126673
 40
0.3371714318
 40
0.4766172881
 40
0.6372623142
 40
0.8145563609
 40
1.0
 40
1.0
 40
1.0
 40
1.0
 10
16.7695226434
 20
41.13125
 30
0.0
 10
16.7652145204
 20
41.13125
 30
0.0
 10
16.7555630287
 20
41.1342480158
 30
0.0
 10
16.7432626541
 20
41.1456361852
 30
0.0
 10
16.7320385066
 20
41.1632419843
 30
0.0
 10
16.7219906813
 20
41.18710921
 30
0.0
 10
16.7135007087
 20
41.2168730241
 30
0.0
 10
16.7069536031
 20
41.2517860652
 30
0.0
 10
16.7028709337
 20
41.2905020569
 30
0.0
 10
16.7019152712
 20
41.3174683696
 30
0.0
 10
16.7019152712
 20
41.33125
 30
0.0
  0
SPLINE
  5
2E4
100
AcDbEntity
  8
0
100
AcDbSpline
 62
7
  6
BYLAYER
 70
0
 71
3
 72
13
 73
9
 74
0
 42
0.0000001
 43
0.0000001
 44
0.0000000001
 40
0.0
 40
0.0
 40
0.0
 40
0.0
 40
0.3186624953
 40
0.5955207191
 40
0.7129857479
 40
0.8174213673
 40
0.9116617073
 40
1.0
 40
1.0
 40
1.0
 40
1.0
 10
16.245850635
 20
41.33125
 30
0.0
 10
16.245850635
 20
41.3041533016
 30
0.0
 10
16.2397813758
 20
41.2533201672
 30
0.0
 10
16.2169230129
 20
41.1960297361
 30
0.0
 10
16.1910295949
 20
41.1621234154
 30
0.0
 10
16.1703963812
 20
41.1445070756
 30
0.0
 10
16.1481733151
 20
41.1337294412
 30
0.0
 10
16.1325617631
 20
41.13125
 30
0.0
 10
16.125050129
 20
41.13125
 30
0.0
  0
SPLINE
  5
2E5
100
AcDbEntity
  8
0
100
AcDbSpline
 62
7
  6
BYLAYER
 70
0
 71
3
 72
18
 73
14
 74
0
 42
0.0000001
 43
0.0000001
 44
0.0000000001
 40
0.0
 40
0.0
 40
0.0
 40
0.0
 40
0.0062013266
 40
0.0197398436
 40
0.041479725
 40
0.0715844376
 40
0.1101005922
 40
0.1569340599
 40
0.2748149251
 40
0.423454003
 40
0.5986412267
 40
0.7943027287
 40
1.0
 40
1.0
 40
1.0
 40
1.0
 10
18.5612442146
 20
41.13125
 30
0.0
 10
18.5608289844
 20
41.13125
 30
0.0
 10
18.5599624849
 20
41.1326455196
 30
0.0
 10
18.5592918751
 20
41.1351202793
 30
0.0
 10
18.5583838376
 20
41.1395227608
 30
0.0
 10
18.557573787
 20
41.1454717635
 30
0.0
 10
18.5567363927
 20
41.1531760605
 30
0.0
 10
18.5555874693
 20
41.1667276916
 30
0.0
 10
18.5543231054
 20
41.1876792194
 30
0.0
 10
18.5531063835
 20
41.2172287361
 30
0.0
 10
18.5521640578
 20
41.2520018398
 30
0.0
 10
18.5515751887
 20
41.2906023156
 30
0.0
 10
18.5514373131
 20
41.3174768638
 30
0.0
 10
18.5514373131
 20
41.33125
 30
0.0
  0
SPLINE
  5
2E6
100
AcDbEntity
  8
0
100
AcDbSpline
 62
7
  6
BYLAYER
 70
0
 71
3
 72
11
 73
7
 74
0
 42
0.0000001
 43
0.0000001
 44
0.0000000001
 40
0.0
 40
0.0
 40
0.0
 40
0.0
 40
0.2860590739
 40
0.5490699567
 40
0.7835896374
 40
1.0
 40
1.0
 40
1.0
 40
1.0
 10
18.1264527281
 20
41.33125
 30
0.0
 10
18.1264527281
 20
41.3039647286
 30
0.0
 10
18.1175564528
 20
41.2511094853
 30
0.0
 10
18.0798337593
 20
41.184693935
 30
0.0
 10
18.0248631552
 20
41.1413723347
 30
0.0
 10
17.9813333841
 20
41.13125
 30
0.0
 10
17.9606914397
 20
41.13125
 30
0.0
  0
SPLINE
  5
2E7
100
AcDbEntity
  8
0
100
AcDbSpline
 62
7
  6
BYLAYER
 70
0
 71
3
 72
11
 73
7
 74
0
 42
0.0000001
 43
0.0000001
 44
0.0000000001
 40
0.0
 40
0.0
 40
0.0
 40
0.0
 40
0.2497965598
 40
0.499686242
 40
0.749841835
 40
1.0
 40
1.0
 40
1.0
 40
1.0
 10
22.2538440945
 20
41.33125
 30
0.0
 10
22.2538440945
 20
41.3036318502
 30
0.0
 10
22.2404075815
 20
41.2476287579
 30
0.0
 10
22.1867602793
 20
41.1814034754
 30
0.0
 10
22.1126518125
 20
41.1403785662
 30
0.0
 10
22.0568869841
 20
41.13125
 30
0.0
 10
22.0292288542
 20
41.13125
 30
0.0
  0
SPLINE
  5
2E8
100
AcDbEntity
  8
0
100
AcDbSpline
 62
7
  6
BYLAYER
 70
0
 71
3
 72
12
 73
8
 74
0
 42
0.0000001
 43
0.0000001
 44
0.0000000001
 40
0.0
 40
0.0
 40
0.0
 40
0.0
 40
0.2551353416
 40
0.3821255103
 40
0.507869096
 40
0.755193833
 40
1.0
 40
1.0
 40
1.0
 40
1.0
 10
22.8115821345
 20
41.33125
 30
0.0
 10
22.8115821345
 20
41.3036963997
 30
0.0
 10
22.802026456
 20
41.2617463162
 30
0.0
 10
22.7732640425
 20
41.2147199354
 30
0.0
 10
22.7362139427
 20
41.1749537866
 30
0.0
 10
22.677182656
 20
41.1404676275
 30
0.0
 10
22.6235967795
 20
41.13125
 30
0.0
 10
22.5971586889
 20
41.13125
 30
0.0
  0
SPLINE
  5
2E9
100
AcDbEntity
  8
0
100
AcDbSpline
 62
7
  6
BYLAYER
 70
0
 71
3
 72
9
 73
5
 74
0
 42
0.0000001
 43
0.0000001
 44
0.0000000001
 40
0.0
 40
0.0
 40
0.0
 40
0.0
 40
0.4960709698
 40
1.0
 40
1.0
 40
1.0
 40
1.0
 10
17.7197597464
 20
47.8667725177
 30
0.0
 10
17.3495520165
 20
48.0494929551
 30
0.0
 10
16.6104026502
 20
48.4322233148
 30
0.0
 10
15.8776939966
 20
48.8268364716
 30
0.0
 10
15.5084569677
 20
49.0257009104
 30
0.0
  0
SPLINE
  5
2EA
100
AcDbEntity
  8
0
100
AcDbSpline
 62
7
  6
BYLAYER
 70
0
 71
3
 72
26
 73
22
 74
0
 42
0.0000001
 43
0.0000001
 44
0.0000000001
 40
0.0
 40
0.0
 40
0.0
 40
0.0
 40
0.0003472013
 40
0.0013805157
 40
0.0030947068
 40
0.0054845386
 40
0.0122701804
 40
0.0216955552
 40
0.0337183766
 40
0.0482742603
 40
0.0652657153
 40
0.0845925468
 40
0.1298511629
 40
0.1832219903
 40
0.2438378251
 40
0.3108531504
 40
0.3835145754
 40
0.4611020656
 40
0.6286659615
 40
0.809373115
 40
1.0
 40
1.0
 40
1.0
 40
1.0
 10
23.5084512099
 20
43.3812522135
 30
0.0
 10
23.5079754244
 20
43.3817299934
 30
0.0
 10
23.5059553095
 20
43.3834963051
 30
0.0
 10
23.5015799129
 20
43.3876148851
 30
0.0
 10
23.4942118967
 20
43.3943430298
 30
0.0
 10
23.4786609216
 20
43.4086742643
 30
0.0
 10
23.4520488425
 20
43.4331021285
 30
0.0
 10
23.4116585309
 20
43.4701834403
 30
0.0
 10
23.3601189066
 20
43.5174338788
 30
0.0
 10
23.2977139609
 20
43.5745759173
 30
0.0
 10
23.2247817188
 20
43.6412252038
 30
0.0
 10
23.1077129196
 20
43.7479641949
 30
0.0
 10
22.9381313393
 20
43.9019680783
 30
0.0
 10
22.7085239707
 20
44.1091435399
 30
0.0
 10
22.4465671275
 20
44.3435345302
 30
0.0
 10
22.1554150058
 20
44.6014728288
 30
0.0
 10
21.8378419768
 20
44.8792821035
 30
0.0
 10
21.3703112302
 20
45.282215187
 30
0.0
 10
20.73626659
 20
45.8133422466
 30
0.0
 10
19.9159521449
 20
46.4634484981
 30
0.0
 10
19.3321132587
 20
46.8875183262
 30
0.0
 10
19.0253353425
 20
47.0947309793
 30
0.0
  0
SPLINE
  5
2EB
100
AcDbEntity
  8
0
100
AcDbSpline
 62
7
  6
BYLAYER
 70
0
 71
3
 72
9
 73
5
 74
0
 42
0.0000001
 43
0.0000001
 44
0.0000000001
 40
0.0
 40
0.0
 40
0.0
 40
0.0
 40
0.246219879
 40
1.0
 40
1.0
 40
1.0
 40
1.0
 10
19.0253353425
 20
47.0947309793
 30
0.0
 10
18.9221378228
 20
47.164435579
 30
0.0
 10
18.4999699681
 20
47.4428440173
 30
0.0
 10
18.061690972
 20
47.6981532893
 30
0.0
 10
17.7197693246
 20
47.866790473
 30
0.0
  0
SPLINE
  5
2EC
100
AcDbEntity
  8
0
100
AcDbSpline
 62
7
  6
BYLAYER
 70
0
 71
3
 72
39
 73
35
 74
0
 42
0.0000001
 43
0.0000001
 44
0.0000000001
 40
0.0
 40
0.0
 40
0.0
 40
0.0
 40
0.0000191987
 40
0.0000764902
 40
0.0001718546
 40
0.0003052718
 40
0.0006861846
 40
0.0012190683
 40
0.0019037626
 40
0.0027401071
 40
0.0037279417
 40
0.0048671058
 40
0.007598782
 40
0.0109338536
 40
0.0148709138
 40
0.0194070377
 40
0.0245382893
 40
0.0302607169
 40
0.0434633023
 40
0.0589824413
 40
0.0767755109
 40
0.0967927148
 40
0.1189840053
 40
0.1432926604
 40
0.1696538209
 40
0.2282689606
 40
0.2942486097
 40
0.3669561037
 40
0.4456937647
 40
0.5297193248
 40
0.6182436458
 40
0.7104199801
 40
0.8053787302
 40
1.0
 40
1.0
 40
1.0
 40
1.0
 10
7.5084557863
 20
59.63125
 30
0.0
 10
7.5084911666
 20
59.6312127222
 30
0.0
 10
7.5087307349
 20
59.6312516127
 30
0.0
 10
7.5091496189
 20
59.6311141164
 30
0.0
 10
7.5099268858
 20
59.6310366032
 30
0.0
 10
7.5115280522
 20
59.630767271
 30
0.0
 10
7.5143086953
 20
59.6303630216
 30
0.0
 10
7.5185349518
 20
59.6297125929
 30
0.0
 10
7.5239729393
 20
59.6288922788
 30
0.0
 10
7.5306129792
 20
59.6278867169
 30
0.0
 10
7.5384570416
 20
59.6267025525
 30
0.0
 10
7.5513180857
 20
59.62476295
 30
0.0
 10
7.5703934649
 20
59.6218929467
 30
0.0
 10
7.5968768925
 20
59.6179190518
 30
0.0
 10
7.6281390895
 20
59.6132401544
 30
0.0
 10
7.664159519
 20
59.6078687989
 30
0.0
 10
7.7049113453
 20
59.6018213106
 30
0.0
 10
7.7686193607
 20
59.5924197196
 30
0.0
 10
7.8598564459
 20
59.5790867964
 30
0.0
 10
7.9831019764
 20
59.5613241403
 30
0.0
 10
8.1244513233
 20
59.5412933561
 30
0.0
 10
8.2835468737
 20
59.5191958935
 30
0.0
 10
8.4599916992
 20
59.4952303901
 30
0.0
 10
8.6533508227
 20
59.4696208919
 30
0.0
 10
8.943511463
 20
59.4322798138
 30
0.0
 10
9.3446267739
 20
59.3831707973
 30
0.0
 10
9.8694571564
 20
59.3237704671
 30
0.0
 10
10.4484574015
 20
59.264246865
 30
0.0
 10
11.0762046499
 20
59.206875706
 30
0.0
 10
11.7468204997
 20
59.1538565962
 30
0.0
 10
12.4539748643
 20
59.1072893119
 30
0.0
 10
13.1909386113
 20
59.0689563779
 30
0.0
 10
14.2121944469
 20
59.0306100893
 30
0.0
 10
14.9874597979
 20
59.0188769414
 30
0.0
 10
15.5084557863
 20
59.0188762352
 30
0.0
  0
ELLIPSE
  5
2ED
100
AcDbEntity
  8
0
100
AcDbEllipse
 62
7
  6
BYLAYER
 10
38.8584557863
 20
52.63125
 30
0.0
 11
20.4047686873
 21
4.0147354537
 31
0.0
 40
0.2987966333
 41
7.7610062897
 42
7.7619776672
  0
ELLIPSE
  5
2EE
100
AcDbEntity
  8
0
100
AcDbEllipse
 62
7
  6
BYLAYER
 10
38.8584557863
 20
52.63125
 30
0.0
 11
20.4047686873
 21
-4.0147354537
 31
0.0
 40
0.2987966333
 41
4.8043933932
 42
4.8053643247
  0
ENDSEC
  0
SECTION
  2
OBJECTS
  0
DICTIONARY
  5
C
100
AcDbDictionary
280
0
281
1
  3
ACAD_GROUP
350
D
  3
ACAD_MLINESTYLE
350
17
  3
ACAD_LAYOUT
350
1A
  3
ACAD_PLOTSETTINGS
350
19
  3
ACAD_PLOTSTYLENAME
350
E
  0
DICTIONARY
  5
D
102
{ACAD_REACTORS
330
C
102
}
100
AcDbDictionary
280
0
281
1
  0
ACDBDICTIONARYWDFLT
  5
E
102
{ACAD_REACTORS
330
C
102
}
100
AcDbDictionary
281
1
  3
Normal
350
F
100
AcDbDictionaryWithDefault
340
F
  0
DICTIONARY
  5
17
102
{ACAD_REACTORS
330
C
102
}
100
AcDbDictionary
280
0
281
1
  3
Standard
350
18
  0
DICTIONARY
  5
19
102
{ACAD_REACTORS
330
C
102
}
100
AcDbDictionary
281
1
  0
DICTIONARY
  5
1A
102
{ACAD_REACTORS
330
C
102
}
100
AcDbDictionary
281
1
  3
Model
350
2EF
  3
Layout1
350
2F0
  0
ACDBPLACEHOLDER
  5
F
102
{ACAD_REACTORS
330
E
102
}
  0
MLINESTYLE
  5
18
102
{ACAD_REACTORS
330
17
102
}
100
AcDbMlineStyle
  2
STANDARD
 70
0
  3

 62
256
 51
90.0
 52
90.0
 71
2
 49
0.5
 62
256
  6
BYLAYER
 49
-0.5
 62
256
  6
BYLAYER
  0
LAYOUT
  5
2EF
102
{ACAD_REACTORS
330
1A
102
}
100
AcDbPlotSettings
  1

  2
none_device
  4

  6

 40
0.0
 41
0.0
 42
0.0
 43
0.0
 44
210.0
 45
297.0
 46
0.0
 47
0.0
 48
0.0
 49
0.0
140
0.0
141
0.0
142
1.0
143
1.0
 70
1024
 72
1
 73
0
 74
0
  7

 75
0
147
1.0
148
0.0
149
0.0
100
AcDbLayout
  1
Model
 70
0
 71
0
 10
0.0
 20
0.0
 11
210.0
 21
297.0
 12
0.0
 22
0.0
 32
0.0
 14
0.0
 24
0.0
 34
0.0
 15
0.0
 25
0.0
 35
0.0
146
0.0
 13
0.0
 23
0.0
 33
0.0
 16
1.0
 26
0.0
 36
0.0
 17
0.0
 27
1.0
 37
0.0
 76
0
330
210
345
0
346
0
  0
LAYOUT
  5
2F0
102
{ACAD_REACTORS
330
1A
102
}
100
AcDbPlotSettings
  1

  2
none_device
  4

  6

 40
0.0
 41
0.0
 42
0.0
 43
0.0
 44
210.0
 45
297.0
 46
0.0
 47
0.0
 48
0.0
 49
0.0
140
0.0
141
0.0
142
1.0
143
1.0
 70
0
 72
1
 73
0
 74
0
  7

 75
0
147
1.0
148
0.0
149
0.0
100
AcDbLayout
  1
Layout1
 70
0
 71
1
 10
0.0
 20
0.0
 11
210.0
 21
297.0
 12
0.0
 22
0.0
 32
0.0
 14
0.0
 24
0.0
 34
0.0
 15
0.0
 25
0.0
 35
0.0
146
0.0
 13
0.0
 23
0.0
 33
0.0
 16
1.0
 26
0.0
 36
0.0
 17
0.0
 27
1.0
 37
0.0
 76
0
330
211
345
0
346
0
  0
ENDSEC
  0
EOF
