999
DXF file: C:\Users\sesa63760\Dev\_Creo\CAD\MCADID0004322_3D-CAD\drw0001_7.dxf
999
Pro/ENGINEER 2019471 by Parametric Technology Corporation
  0
SECTION
  2
HEADER
  9
$ACADVER
  1
AC1024
  9
$DWGCODEPAGE
  3
ANSI_1252
  9
$EXTMAX
 10
80.7932801723
 20
114.264781958
 30
0.0
  9
$EXTMIN
 10
0.0
 20
0.0
 30
0.0
  9
$LIMMIN
 10
0.0
 20
0.0
  9
$LIMMAX
 10
80.7932801723
 20
114.264781958
  9
$VIEWCTR
 10
40.3966400862
 20
57.132390979
  9
$VIEWSIZE
 40
114.264781958
  9
$CLAYER
  8
0
  9
$LTSCALE
 40
7.4483709721
  9
$CELTYPE
  6
BYLAYER
  9
$DIMSCALE
 40
1.0
  9
$DIMASZ
 40
0.961824764
  9
$DIMEXO
 40
1.0
  9
$DIMDLI
 40
5.1461472171
  9
$DIMEXE
 40
1.0
  9
$DIMCEN
 40
1.2188243409
  9
$DIMLFAC
 40
1.0
  9
$DIMBLK
  1
_FILLED
  9
$DIMALT
 70
0
  9
$DIMALTF
 40
0.0393700787
  9
$DIMTXT
 40
1.3465546695
  9
$DIMTOL
 70
1
  9
$DIMLIM
 70
0
  9
$DIMTFAC
 40
1.0
  9
$DIMTP
 40
0.01
  9
$DIMTM
 40
0.01
  9
$DIMGAP
 40
0.625
  9
$DIMDSEP
 70
46
  9
$AUNITS
 70
0
  9
$PDMODE
 70
3
  9
$PDSIZE
 40
0.3125
  9
$HANDSEED
  5
2F1
  9
$TILEMODE
 70
1
  9
$MEASUREMENT
 70
1
  9
$INSUNITS
 70
4
  0
ENDSEC
  0
SECTION
  2
CLASSES
  0
CLASS
  1
ACDBDICTIONARYWDFLT
  2
AcDbDictionaryWithDefault
  3
AutoCAD 2000
 90
0
 91
1
280
0
281
0
  0
CLASS
  1
ACDBPLACEHOLDER
  2
AcDbPlaceHolder
  3
AutoCAD 2000
 90
0
 91
1
280
0
281
0
  0
CLASS
  1
LAYOUT
  2
AcDbLayout
  3
AutoCAD 2000
 90
0
 91
0
280
0
281
0
  0
ENDSEC
  0
SECTION
  2
TABLES
  0
TABLE
  2
VPORT
  5
8
100
AcDbSymbolTable
 70
2
  0
VPORT
  5
1F4
100
AcDbSymbolTableRecord
100
AcDbViewportTableRecord
  2
*ACTIVE
 70
0
 10
0.0
 20
0.0
 11
1.0
 21
1.0
 12
40.3966400862
 22
57.132390979
 13
0.0
 23
0.0
 14
1.0
 24
1.0
 15
0.0
 25
0.0
 16
0.0
 26
0.0
 36
1.0
 17
0.0
 27
0.0
 37
0.0
 40
114.264781958
 41
0.7070707071
 42
50.0
 43
0.0
 44
0.0
 50
0.0
 51
0.0
 71
0
 72
100
 73
1
 74
1
 75
0
 76
0
 77
0
 78
0
  0
ENDTAB
  0
TABLE
  2
LTYPE
  5
5
100
AcDbSymbolTable
 70
6
  0
LTYPE
  5
14
100
AcDbSymbolTableRecord
100
AcDbLinetypeTableRecord
  2
BYBLOCK
 70
0
  3

 72
65
 73
0
 40
0.0
  0
LTYPE
  5
15
100
AcDbSymbolTableRecord
100
AcDbLinetypeTableRecord
  2
BYLAYER
 70
0
  3

 72
65
 73
0
 40
0.0
  0
LTYPE
  5
16
100
AcDbSymbolTableRecord
100
AcDbLinetypeTableRecord
  2
CONTINUOUS
 70
64
  3
Solid line
 72
65
 73
0
 40
0.0
  0
LTYPE
  5
1F5
100
AcDbSymbolTableRecord
100
AcDbLinetypeTableRecord
  2
CENTER
 70
64
  3
____ _ ____ _ ____ _ ____ _ ____ _ ____ _ ____
 72
65
 73
4
 40
0.6
 49
0.375
 74
0
 49
-0.075
 74
0
 49
0.075
 74
0
 49
-0.075
 74
0
  0
LTYPE
  5
1F6
100
AcDbSymbolTableRecord
100
AcDbLinetypeTableRecord
  2
HIDDEN
 70
64
  3
- - - - - - - - - - - - - - - - - - - -
 72
65
 73
2
 40
0.2
 49
0.1
 74
0
 49
-0.1
 74
0
  0
LTYPE
  5
1F7
100
AcDbSymbolTableRecord
100
AcDbLinetypeTableRecord
  2
PHANTOM
 70
64
  3
_____ _ _ _____ _ _ _____ _ _ _____
 72
65
 73
6
 40
0.8
 49
0.45
 74
0
 49
-0.05
 74
0
 49
0.1
 74
0
 49
-0.05
 74
0
 49
0.1
 74
0
 49
-0.05
 74
0
  0
LTYPE
  5
1F8
100
AcDbSymbolTableRecord
100
AcDbLinetypeTableRecord
  2
DOT
 70
64
  3
. . . . . . . . . . . . . . . . . . . .
 72
65
 73
2
 40
0.2
 49
0.1
 74
0
 49
-0.1
 74
0
  0
LTYPE
  5
1F9
100
AcDbSymbolTableRecord
100
AcDbLinetypeTableRecord
  2
DASHED
 70
64
  3
- - - - - - - - - - - - - - - - - - - -
 72
65
 73
2
 40
0.2
 49
0.1
 74
0
 49
-0.1
 74
0
  0
ENDTAB
  0
TABLE
  2
LAYER
  5
2
100
AcDbSymbolTable
 70
36
  0
LAYER
  5
10
100
AcDbSymbolTableRecord
100
AcDbLayerTableRecord
  2
0
 70
0
 62
7
  6
CONTINUOUS
370
-3
390
F
  0
LAYER
  5
1FA
100
AcDbSymbolTableRecord
100
AcDbLayerTableRecord
  2
DEFAULT_1
 70
0
 62
7
  6
CENTER
370
-3
390
F
  0
LAYER
  5
1FB
100
AcDbSymbolTableRecord
100
AcDbLayerTableRecord
  2
DEFAULT_2
 70
0
 62
7
  6
HIDDEN
370
-3
390
F
  0
LAYER
  5
1FC
100
AcDbSymbolTableRecord
100
AcDbLayerTableRecord
  2
DEFAULT_3
 70
0
 62
7
  6
PHANTOM
370
-3
390
F
  0
LAYER
  5
1FD
100
AcDbSymbolTableRecord
100
AcDbLayerTableRecord
  2
00_COMPONENTS
 70
0
 62
7
  6
CONTINUOUS
370
-3
390
F
  0
LAYER
  5
1FE
100
AcDbSymbolTableRecord
100
AcDbLayerTableRecord
  2
01_1_DEFAULT_DATUMS
 70
0
 62
7
  6
CONTINUOUS
370
-3
390
F
  0
LAYER
  5
1FF
100
AcDbSymbolTableRecord
100
AcDbLayerTableRecord
  2
01_PLANES
 70
0
 62
7
  6
CONTINUOUS
370
-3
390
F
  0
LAYER
  5
200
100
AcDbSymbolTableRecord
100
AcDbLayerTableRecord
  2
02_COORD_SYS
 70
0
 62
7
  6
CONTINUOUS
370
-3
390
F
  0
LAYER
  5
201
100
AcDbSymbolTableRecord
100
AcDbLayerTableRecord
  2
03_AXES
 70
0
 62
7
  6
CONTINUOUS
370
-3
390
F
  0
LAYER
  5
202
100
AcDbSymbolTableRecord
100
AcDbLayerTableRecord
  2
04_POINTS
 70
0
 62
7
  6
CONTINUOUS
370
-3
390
F
  0
LAYER
  5
203
100
AcDbSymbolTableRecord
100
AcDbLayerTableRecord
  2
05_CURVES
 70
0
 62
7
  6
CONTINUOUS
370
-3
390
F
  0
LAYER
  5
204
100
AcDbSymbolTableRecord
100
AcDbLayerTableRecord
  2
06_SURFS
 70
0
 62
7
  6
CONTINUOUS
370
-3
390
F
  0
LAYER
  5
205
100
AcDbSymbolTableRecord
100
AcDbLayerTableRecord
  2
07_COSMETICS
 70
0
 62
7
  6
CONTINUOUS
370
-3
390
F
  0
LAYER
  5
206
100
AcDbSymbolTableRecord
100
AcDbLayerTableRecord
  2
10_NOTES
 70
0
 62
7
  6
CONTINUOUS
370
-3
390
F
  0
LAYER
  5
207
100
AcDbSymbolTableRecord
100
AcDbLayerTableRecord
  2
11_NOTES_PUB
 70
0
 62
7
  6
CONTINUOUS
370
-3
390
F
  0
LAYER
  5
208
100
AcDbSymbolTableRecord
100
AcDbLayerTableRecord
  2
13_REF_GTOL
 70
0
 62
7
  6
CONTINUOUS
370
-3
390
F
  0
LAYER
  5
209
100
AcDbSymbolTableRecord
100
AcDbLayerTableRecord
  2
16_MISC
 70
0
 62
7
  6
CONTINUOUS
370
-3
390
F
  0
LAYER
  5
20A
100
AcDbSymbolTableRecord
100
AcDbLayerTableRecord
  2
17_NO_PRINT
 70
0
 62
7
  6
CONTINUOUS
370
-3
390
F
  0
LAYER
  5
20B
100
AcDbSymbolTableRecord
100
AcDbLayerTableRecord
  2
18_DATUM_CAMS_JOINTS
 70
0
 62
7
  6
CONTINUOUS
370
-3
390
F
  0
LAYER
  5
20C
100
AcDbSymbolTableRecord
100
AcDbLayerTableRecord
  2
19_DATUM_FUNCTIONAL
 70
0
 62
7
  6
CONTINUOUS
370
-3
390
F
  0
LAYER
  5
20D
100
AcDbSymbolTableRecord
100
AcDbLayerTableRecord
  2
20_DATUM_KINEMATIC_SCHEME
 70
0
 62
7
  6
CONTINUOUS
370
-3
390
F
  0
LAYER
  5
20E
100
AcDbSymbolTableRecord
100
AcDbLayerTableRecord
  2
_1
 70
0
 62
7
  6
CONTINUOUS
370
-3
390
F
  0
ENDTAB
  0
TABLE
  2
STYLE
  5
3
100
AcDbSymbolTable
 70
1
  0
STYLE
  5
11
100
AcDbSymbolTableRecord
100
AcDbTextStyleTableRecord
  2
STANDARD
 70
0
 40
0.0
 41
1.0
 50
0.0
 71
0
 42
0.2
  3
ARIAL.TTF
  4

  0
STYLE
  5
20F
100
AcDbSymbolTableRecord
100
AcDbTextStyleTableRecord
  2
TEXTSTYLE_1
 70
0
 40
0.0
 41
0.8
 50
0.0
 71
0
 42
0.2
  3
gdt
  4

  0
ENDTAB
  0
TABLE
  2
VIEW
  5
6
100
AcDbSymbolTable
 70
0
  0
ENDTAB
  0
TABLE
  2
UCS
  5
7
100
AcDbSymbolTable
 70
0
  0
ENDTAB
  0
TABLE
  2
APPID
  5
9
100
AcDbSymbolTable
 70
1
  0
APPID
  5
210
100
AcDbSymbolTableRecord
100
AcDbRegAppTableRecord
  2
ACAD
 70
0
  0
ENDTAB
  0
TABLE
  2
BLOCK_RECORD
  5
1
100
AcDbSymbolTable
 70
0
  0
BLOCK_RECORD
  5
211
100
AcDbSymbolTableRecord
100
AcDbBlockTableRecord
  2
*Model_Space
  0
BLOCK_RECORD
  5
212
100
AcDbSymbolTableRecord
100
AcDbBlockTableRecord
  2
*Paper_Space
  0
BLOCK_RECORD
  5
213
100
AcDbSymbolTableRecord
100
AcDbBlockTableRecord
  2
_FILLED
  0
ENDTAB
  0
TABLE
  2
DIMSTYLE
  5
A
100
AcDbSymbolTable
 70
1
100
AcDbDimStyleTable
 71
0
  0
DIMSTYLE
105
214
100
AcDbSymbolTableRecord
100
AcDbDimStyleTableRecord
  2
STANDARD
 70
0
  3

  4

 40
1.0
 41
0.961824764
 42
1.0
 43
0.38
 44
1.0
 45
0.0
 46
0.0
 47
0.01
 48
0.01
140
1.3465546695
141
0.09
142
0.0
143
25.4
144
1.0
145
0.0
146
1.0
147
0.625
 71
1
 72
0
 73
0
 74
0
 75
0
 76
0
 77
1
 78
8
 79
2
170
0
171
1
172
0
173
0
174
0
175
0
176
0
177
0
178
0
270
2
179
2
271
2
272
2
273
2
274
2
275
0
280
0
281
0
282
0
283
1
284
8
285
0
286
0
287
3
288
0
340
11
278
46
341
213
342
213
343
213
344
213
  0
ENDTAB
  0
ENDSEC
  0
SECTION
  2
BLOCKS
  0
BLOCK
  5
20
100
AcDbEntity
  8
0
100
AcDbBlockBegin
  2
*Model_Space
 70
0
 10
0.0
 20
0.0
 30
0.0
  3
*Model_Space
  1

  0
ENDBLK
  5
21
100
AcDbEntity
  8
0
100
AcDbBlockEnd
  0
BLOCK
  5
1C
100
AcDbEntity
  8
0
100
AcDbBlockBegin
  2
*Paper_Space
 70
0
 10
0.0
 20
0.0
 30
0.0
  3
*Paper_Space
  1

  0
ENDBLK
  5
1D
100
AcDbEntity
  8
0
100
AcDbBlockEnd
  0
BLOCK
  5
215
100
AcDbEntity
  8
0
100
AcDbBlockBegin
  2
_FILLED
 70
64
 10
0.0
 20
0.0
  3
_FILLED
  1

  0
SOLID
  5
216
100
AcDbEntity
  8
0
  6
BYBLOCK
 62
0
100
AcDbTrace
 10
0.0
 20
0.0
 11
-1.0
 21
0.25
 12
-1.0
 22
-0.25
 13
-1.0
 23
-0.25
  0
ENDBLK
  5
217
100
AcDbEntity
  8
0
  6
BYBLOCK
 62
0
100
AcDbBlockEnd
  0
ENDSEC
  0
SECTION
  2
ENTITIES
  0
LINE
  5
218
100
AcDbEntity
  8
_1
100
AcDbLine
 62
7
  6
BYLAYER
 10
9.0159298579
 20
52.8859409494
 11
8.7787234455
 21
57.4121089275
  0
LINE
  5
219
100
AcDbEntity
  8
_1
100
AcDbLine
 62
7
  6
BYLAYER
 10
8.5787234455
 20
58.4957782399
 11
8.5787234455
 21
56.3284396152
  0
LINE
  5
21A
100
AcDbEntity
  8
_1
100
AcDbLine
 62
7
  6
BYLAYER
 10
8.7787234455
 20
56.0759190364
 11
8.7787234455
 21
57.3990339102
  0
LINE
  5
21B
100
AcDbEntity
  8
_1
100
AcDbLine
 62
7
  6
BYLAYER
 10
8.7787234455
 20
57.4251839448
 11
8.7787234455
 21
58.7482988186
  0
LINE
  5
21C
100
AcDbEntity
  8
_1
100
AcDbLine
 62
7
  6
BYLAYER
 10
9.0287234455
 20
53.3621089275
 11
9.0287234455
 21
61.3621089275
  0
LINE
  5
21D
100
AcDbEntity
  8
_1
100
AcDbLine
 62
7
  6
BYLAYER
 10
9.5152446252
 20
52.4121089275
 11
9.5152446252
 21
52.4715890851
  0
LINE
  5
21E
100
AcDbEntity
  8
_1
100
AcDbLine
 62
7
  6
BYLAYER
 10
9.5152446252
 20
62.3526287699
 11
9.5152446252
 21
62.4121089275
  0
LINE
  5
21F
100
AcDbEntity
  8
_1
100
AcDbLine
 62
7
  6
BYLAYER
 10
8.7787234455
 20
57.4121089275
 11
9.0159298579
 21
61.9382769056
  0
LINE
  5
220
100
AcDbEntity
  8
_1
100
AcDbLine
 62
7
  6
BYLAYER
 10
12.8287234455
 20
59.9621089275
 11
12.8287234455
 21
57.7621089275
  0
LINE
  5
221
100
AcDbEntity
  8
_1
100
AcDbLine
 62
7
  6
BYLAYER
 10
12.8287234455
 20
56.9621089275
 11
12.8287234455
 21
54.7621089275
  0
LINE
  5
222
100
AcDbEntity
  8
_1
100
AcDbLine
 62
7
  6
BYLAYER
 10
15.8287234455
 20
54.7621089275
 11
15.8287234455
 21
56.9621089275
  0
LINE
  5
223
100
AcDbEntity
  8
_1
100
AcDbLine
 62
7
  6
BYLAYER
 10
15.8287234455
 20
57.7621089275
 11
15.8287234455
 21
59.9621089275
  0
LINE
  5
224
100
AcDbEntity
  8
_1
100
AcDbLine
 62
7
  6
BYLAYER
 10
16.8287234455
 20
62.0621089275
 11
16.8287234455
 21
61.3621089275
  0
LINE
  5
225
100
AcDbEntity
  8
0
100
AcDbLine
 62
7
  6
BYLAYER
 10
16.8287234455
 20
61.3621089275
 11
16.8287234455
 21
53.3621089275
  0
LINE
  5
226
100
AcDbEntity
  8
_1
100
AcDbLine
 62
7
  6
BYLAYER
 10
16.8287234455
 20
53.3621089275
 11
16.8287234455
 21
52.6621089275
  0
LINE
  5
227
100
AcDbEntity
  8
_1
100
AcDbLine
 62
7
  6
BYLAYER
 10
17.8287234455
 20
62.0621089275
 11
17.8287234455
 21
61.8621089275
  0
LINE
  5
228
100
AcDbEntity
  8
_1
100
AcDbLine
 62
7
  6
BYLAYER
 10
17.8287234455
 20
52.8621089275
 11
17.8287234455
 21
52.6621089275
  0
LINE
  5
229
100
AcDbEntity
  8
0
100
AcDbLine
 62
7
  6
BYLAYER
 10
20.0287234455
 20
55.1121089275
 11
20.0287234455
 21
59.6121089275
  0
LINE
  5
22A
100
AcDbEntity
  8
0
100
AcDbLine
 62
7
  6
BYLAYER
 10
16.8287234455
 20
61.3621089275
 11
17.3287234455
 21
61.8621089275
  0
LINE
  5
22B
100
AcDbEntity
  8
0
100
AcDbLine
 62
7
  6
BYLAYER
 10
17.3287234455
 20
52.8621089275
 11
16.8287234455
 21
53.3621089275
  0
LINE
  5
22C
100
AcDbEntity
  8
0
100
AcDbLine
 62
7
  6
BYLAYER
 10
26.0287234455
 20
59.6121089275
 11
26.0287234455
 21
55.1121089275
  0
LINE
  5
22D
100
AcDbEntity
  8
0
100
AcDbLine
 62
7
  6
BYLAYER
 10
28.2287234455
 20
55.1121089275
 11
28.2287234455
 21
59.6121089275
  0
LINE
  5
22E
100
AcDbEntity
  8
0
100
AcDbLine
 62
7
  6
BYLAYER
 10
34.2287234455
 20
59.6121089275
 11
34.2287234455
 21
55.1121089275
  0
LINE
  5
22F
100
AcDbEntity
  8
_1
100
AcDbLine
 62
7
  6
BYLAYER
 10
70.9287234455
 20
53.9621089275
 11
72.3287234455
 21
54.1121089275
  0
LINE
  5
230
100
AcDbEntity
  8
_1
100
AcDbLine
 62
7
  6
BYLAYER
 10
64.5739308577
 20
52.5348310683
 11
66.0287234455
 21
52.6621089275
  0
LINE
  5
231
100
AcDbEntity
  8
0
100
AcDbLine
 62
7
  6
BYLAYER
 10
36.4952198313
 20
55.7208511664
 11
36.4952198313
 21
59.0033666886
  0
LINE
  5
232
100
AcDbEntity
  8
_1
100
AcDbLine
 62
7
  6
BYLAYER
 10
9.5152446252
 20
52.4121089275
 11
65.0422022657
 21
52.4121089275
  0
LINE
  5
233
100
AcDbEntity
  8
_1
100
AcDbLine
 62
7
  6
BYLAYER
 10
62.4787234455
 20
52.4715890851
 11
9.5152446252
 21
52.4715890851
  0
LINE
  5
234
100
AcDbEntity
  8
_1
100
AcDbLine
 62
7
  6
BYLAYER
 10
62.2287234455
 20
52.6621089275
 11
9.7287234455
 21
52.6621089275
  0
LINE
  5
235
100
AcDbEntity
  8
0
100
AcDbLine
 62
7
  6
BYLAYER
 10
17.3287234455
 20
52.8621089275
 11
58.5287234455
 21
52.8621089275
  0
LINE
  5
236
100
AcDbEntity
  8
_1
100
AcDbLine
 62
7
  6
BYLAYER
 10
62.4787234455
 20
52.8859409494
 11
64.641986785
 21
52.8859409494
  0
LINE
  5
237
100
AcDbEntity
  8
0
100
AcDbLine
 62
7
  6
BYLAYER
 10
37.0769314429
 20
59.0033666886
 11
37.0769314429
 21
57.673740148
  0
LINE
  5
238
100
AcDbEntity
  8
0
100
AcDbLine
 62
7
  6
BYLAYER
 10
37.0769314429
 20
57.050477707
 11
37.0769314429
 21
55.7208511664
  0
LINE
  5
239
100
AcDbEntity
  8
0
100
AcDbLine
 62
7
  6
BYLAYER
 10
37.824846372
 20
57.9853713684
 11
37.824846372
 21
58.2762271742
  0
LINE
  5
23A
100
AcDbEntity
  8
_1
100
AcDbLine
 62
7
  6
BYLAYER
 10
67.2737234455
 20
53.4121089275
 11
67.2837234455
 21
53.4121089275
  0
LINE
  5
23B
100
AcDbEntity
  8
_1
100
AcDbLine
 62
7
  6
BYLAYER
 10
68.2737234455
 20
53.4121089275
 11
68.2837234455
 21
53.4121089275
  0
LINE
  5
23C
100
AcDbEntity
  8
_1
100
AcDbLine
 62
7
  6
BYLAYER
 10
69.2737234455
 20
53.4121089275
 11
69.2837234455
 21
53.4121089275
  0
LINE
  5
23D
100
AcDbEntity
  8
_1
100
AcDbLine
 62
7
  6
BYLAYER
 10
66.0287234455
 20
53.9621089275
 11
67.0287234455
 21
53.9621089275
  0
LINE
  5
23E
100
AcDbEntity
  8
_1
100
AcDbLine
 62
7
  6
BYLAYER
 10
70.5287234455
 20
53.9621089275
 11
70.9287234455
 21
53.9621089275
  0
LINE
  5
23F
100
AcDbEntity
  8
_1
100
AcDbLine
 62
7
  6
BYLAYER
 10
69.7287234455
 20
54.1121089275
 11
70.5287234455
 21
54.1121089275
  0
LINE
  5
240
100
AcDbEntity
  8
0
100
AcDbLine
 62
7
  6
BYLAYER
 10
33.4787234455
 20
54.3621089275
 11
28.9787234455
 21
54.3621089275
  0
LINE
  5
241
100
AcDbEntity
  8
0
100
AcDbLine
 62
7
  6
BYLAYER
 10
25.2787234455
 20
54.3621089275
 11
20.7787234455
 21
54.3621089275
  0
LINE
  5
242
100
AcDbEntity
  8
_1
100
AcDbLine
 62
7
  6
BYLAYER
 10
12.8287234455
 20
54.7621089275
 11
15.8287234455
 21
54.7621089275
  0
LINE
  5
243
100
AcDbEntity
  8
0
100
AcDbLine
 62
7
  6
BYLAYER
 10
48.4203078677
 20
55.1183641402
 11
47.298435474
 21
55.1183641402
  0
LINE
  5
244
100
AcDbEntity
  8
0
100
AcDbLine
 62
7
  6
BYLAYER
 10
38.8220662775
 20
58.2762271742
 11
38.8220662775
 21
57.9853713684
  0
LINE
  5
245
100
AcDbEntity
  8
0
100
AcDbLine
 62
7
  6
BYLAYER
 10
38.8220662775
 20
57.673740148
 11
38.8220662775
 21
57.050477707
  0
LINE
  5
246
100
AcDbEntity
  8
0
100
AcDbLine
 62
7
  6
BYLAYER
 10
40.4009977945
 20
55.7000757517
 11
40.4009977945
 21
58.9825912739
  0
LINE
  5
247
100
AcDbEntity
  8
0
100
AcDbLine
 62
7
  6
BYLAYER
 10
40.982709406
 20
55.7000757517
 11
40.4009977945
 21
55.7000757517
  0
LINE
  5
248
100
AcDbEntity
  8
0
100
AcDbLine
 62
7
  6
BYLAYER
 10
37.0769314429
 20
55.7208511664
 11
36.4952198313
 21
55.7208511664
  0
LINE
  5
249
100
AcDbEntity
  8
_1
100
AcDbLine
 62
7
  6
BYLAYER
 10
8.8487501903
 20
56.0759190364
 11
8.7787234455
 21
56.0759190364
  0
LINE
  5
24A
100
AcDbEntity
  8
0
100
AcDbLine
 62
7
  6
BYLAYER
 10
49.8219941663
 20
56.8634989748
 11
49.0506919701
 21
56.8634989748
  0
LINE
  5
24B
100
AcDbEntity
  8
_1
100
AcDbLine
 62
7
  6
BYLAYER
 10
15.8287234455
 20
56.9621089275
 11
12.8287234455
 21
56.9621089275
  0
LINE
  5
24C
100
AcDbEntity
  8
0
100
AcDbLine
 62
7
  6
BYLAYER
 10
42.7278442406
 20
57.0297022923
 11
40.982709406
 21
57.0297022923
  0
LINE
  5
24D
100
AcDbEntity
  8
0
100
AcDbLine
 62
7
  6
BYLAYER
 10
38.8220662775
 20
57.050477707
 11
37.0769314429
 21
57.050477707
  0
LINE
  5
24E
100
AcDbEntity
  8
_1
100
AcDbLine
 62
7
  6
BYLAYER
 10
62.4787234455
 20
57.4121089275
 11
64.1968734769
 21
57.4121089275
  0
LINE
  5
24F
100
AcDbEntity
  8
0
100
AcDbLine
 62
7
  6
BYLAYER
 10
40.982709406
 20
57.6529647333
 11
42.7278442406
 21
57.6529647333
  0
LINE
  5
250
100
AcDbEntity
  8
0
100
AcDbLine
 62
7
  6
BYLAYER
 10
37.0769314429
 20
57.673740148
 11
38.8220662775
 21
57.673740148
  0
LINE
  5
251
100
AcDbEntity
  8
0
100
AcDbLine
 62
7
  6
BYLAYER
 10
40.982709406
 20
58.9825912739
 11
40.982709406
 21
57.6529647333
  0
LINE
  5
252
100
AcDbEntity
  8
0
100
AcDbLine
 62
7
  6
BYLAYER
 10
40.982709406
 20
57.0297022923
 11
40.982709406
 21
55.7000757517
  0
LINE
  5
253
100
AcDbEntity
  8
0
100
AcDbLine
 62
7
  6
BYLAYER
 10
41.6475226763
 20
58.7332862975
 11
41.6475226763
 21
59.0241421033
  0
LINE
  5
254
100
AcDbEntity
  8
0
100
AcDbLine
 62
7
  6
BYLAYER
 10
41.6890735057
 20
58.1100238566
 11
41.6890735057
 21
58.4008796624
  0
LINE
  5
255
100
AcDbEntity
  8
0
100
AcDbLine
 62
7
  6
BYLAYER
 10
42.6447425818
 20
59.0241421033
 11
42.6447425818
 21
58.7332862975
  0
LINE
  5
256
100
AcDbEntity
  8
0
100
AcDbLine
 62
7
  6
BYLAYER
 10
42.6862934112
 20
58.4008796624
 11
42.6862934112
 21
58.1100238566
  0
LINE
  5
257
100
AcDbEntity
  8
0
100
AcDbLine
 62
7
  6
BYLAYER
 10
42.7278442406
 20
57.6529647333
 11
42.7278442406
 21
57.0297022923
  0
LINE
  5
258
100
AcDbEntity
  8
_1
100
AcDbLine
 62
7
  6
BYLAYER
 10
12.8287234455
 20
57.7621089275
 11
15.8287234455
 21
57.7621089275
  0
LINE
  5
259
100
AcDbEntity
  8
0
100
AcDbLine
 62
7
  6
BYLAYER
 10
49.0506919701
 20
57.8607188802
 11
49.8219941663
 21
57.8607188802
  0
LINE
  5
25A
100
AcDbEntity
  8
0
100
AcDbLine
 62
7
  6
BYLAYER
 10
38.8220662775
 20
57.9853713684
 11
37.824846372
 21
57.9853713684
  0
LINE
  5
25B
100
AcDbEntity
  8
0
100
AcDbLine
 62
7
  6
BYLAYER
 10
42.6862934112
 20
58.1100238566
 11
41.6890735057
 21
58.1100238566
  0
LINE
  5
25C
100
AcDbEntity
  8
0
100
AcDbLine
 62
7
  6
BYLAYER
 10
37.824846372
 20
58.2762271742
 11
38.8220662775
 21
58.2762271742
  0
LINE
  5
25D
100
AcDbEntity
  8
0
100
AcDbLine
 62
7
  6
BYLAYER
 10
41.6890735057
 20
58.4008796624
 11
42.6862934112
 21
58.4008796624
  0
LINE
  5
25E
100
AcDbEntity
  8
0
100
AcDbLine
 62
7
  6
BYLAYER
 10
42.6447425818
 20
58.7332862975
 11
41.6475226763
 21
58.7332862975
  0
LINE
  5
25F
100
AcDbEntity
  8
_1
100
AcDbLine
 62
7
  6
BYLAYER
 10
8.8487501903
 20
58.7482988186
 11
8.7787234455
 21
58.7482988186
  0
LINE
  5
260
100
AcDbEntity
  8
0
100
AcDbLine
 62
7
  6
BYLAYER
 10
40.4009977945
 20
58.9825912739
 11
40.982709406
 21
58.9825912739
  0
LINE
  5
261
100
AcDbEntity
  8
0
100
AcDbLine
 62
7
  6
BYLAYER
 10
36.4952198313
 20
59.0033666886
 11
37.0769314429
 21
59.0033666886
  0
LINE
  5
262
100
AcDbEntity
  8
0
100
AcDbLine
 62
7
  6
BYLAYER
 10
41.6475226763
 20
59.0241421033
 11
42.6447425818
 21
59.0241421033
  0
LINE
  5
263
100
AcDbEntity
  8
0
100
AcDbLine
 62
7
  6
BYLAYER
 10
46.8244693411
 20
59.6058537148
 11
48.4203078677
 21
59.6058537148
  0
LINE
  5
264
100
AcDbEntity
  8
_1
100
AcDbLine
 62
7
  6
BYLAYER
 10
15.8287234455
 20
59.9621089275
 11
12.8287234455
 21
59.9621089275
  0
LINE
  5
265
100
AcDbEntity
  8
0
100
AcDbLine
 62
7
  6
BYLAYER
 10
20.7787234455
 20
60.3621089275
 11
25.2787234455
 21
60.3621089275
  0
LINE
  5
266
100
AcDbEntity
  8
0
100
AcDbLine
 62
7
  6
BYLAYER
 10
28.9787234455
 20
60.3621089275
 11
33.4787234455
 21
60.3621089275
  0
LINE
  5
267
100
AcDbEntity
  8
_1
100
AcDbLine
 62
7
  6
BYLAYER
 10
69.7287234455
 20
60.7121089275
 11
70.5287234455
 21
60.7121089275
  0
LINE
  5
268
100
AcDbEntity
  8
_1
100
AcDbLine
 62
7
  6
BYLAYER
 10
66.0287234455
 20
60.8621089275
 11
67.0287234455
 21
60.8621089275
  0
LINE
  5
269
100
AcDbEntity
  8
_1
100
AcDbLine
 62
7
  6
BYLAYER
 10
70.5287234455
 20
60.8621089275
 11
70.9287234455
 21
60.8621089275
  0
LINE
  5
26A
100
AcDbEntity
  8
_1
100
AcDbLine
 62
7
  6
BYLAYER
 10
67.7737234455
 20
61.4121089275
 11
67.7837234455
 21
61.4121089275
  0
LINE
  5
26B
100
AcDbEntity
  8
_1
100
AcDbLine
 62
7
  6
BYLAYER
 10
68.7737234455
 20
61.4121089275
 11
68.7837234455
 21
61.4121089275
  0
LINE
  5
26C
100
AcDbEntity
  8
0
100
AcDbLine
 62
7
  6
BYLAYER
 10
58.5287234455
 20
61.8621089275
 11
17.3287234455
 21
61.8621089275
  0
LINE
  5
26D
100
AcDbEntity
  8
_1
100
AcDbLine
 62
7
  6
BYLAYER
 10
62.4787234455
 20
61.9382769056
 11
64.641986785
 21
61.9382769056
  0
LINE
  5
26E
100
AcDbEntity
  8
0
100
AcDbLine
 62
7
  6
BYLAYER
 10
45.9485552258
 20
56.1010622967
 11
45.5533006394
 21
55.4092199459
  0
LINE
  5
26F
100
AcDbEntity
  8
_1
100
AcDbLine
 62
7
  6
BYLAYER
 10
9.7287234455
 20
62.0621089275
 11
62.2287234455
 21
62.0621089275
  0
LINE
  5
270
100
AcDbEntity
  8
_1
100
AcDbLine
 62
7
  6
BYLAYER
 10
9.5152446252
 20
62.3526287699
 11
62.4787234455
 21
62.3526287699
  0
LINE
  5
271
100
AcDbEntity
  8
_1
100
AcDbLine
 62
7
  6
BYLAYER
 10
9.5152446252
 20
62.4121089275
 11
65.0422022657
 21
62.4121089275
  0
LINE
  5
272
100
AcDbEntity
  8
_1
100
AcDbLine
 62
7
  6
BYLAYER
 10
70.9287234455
 20
60.8621089275
 11
72.3287234455
 21
60.7121089275
  0
LINE
  5
273
100
AcDbEntity
  8
0
100
AcDbLine
 62
7
  6
BYLAYER
 10
47.298435474
 20
55.1183641402
 11
47.298435474
 21
58.6709600534
  0
LINE
  5
274
100
AcDbEntity
  8
_1
100
AcDbLine
 62
7
  6
BYLAYER
 10
67.7667012886
 20
61.408588326
 11
67.7737234455
 21
61.4121089275
  0
LINE
  5
275
100
AcDbEntity
  8
_1
100
AcDbLine
 62
7
  6
BYLAYER
 10
64.5739308577
 20
62.2893867867
 11
66.0287234455
 21
62.1621089275
  0
LINE
  5
276
100
AcDbEntity
  8
_1
100
AcDbLine
 62
7
  6
BYLAYER
 10
68.2667012886
 20
53.415629529
 11
68.2737234455
 21
53.4121089275
  0
LINE
  5
277
100
AcDbEntity
  8
_1
100
AcDbLine
 62
7
  6
BYLAYER
 10
67.2667052056
 20
53.4156295362
 11
67.2737234455
 21
53.4121089275
  0
LINE
  5
278
100
AcDbEntity
  8
0
100
AcDbLine
 62
7
  6
BYLAYER
 10
49.8219941663
 20
57.8607188802
 11
49.8219941663
 21
56.8634989748
  0
LINE
  5
279
100
AcDbEntity
  8
_1
100
AcDbLine
 62
7
  6
BYLAYER
 10
68.7667012886
 20
61.408588326
 11
68.7737234455
 21
61.4121089275
  0
LINE
  5
27A
100
AcDbEntity
  8
_1
100
AcDbLine
 62
7
  6
BYLAYER
 10
69.2667012886
 20
53.415629529
 11
69.2737234455
 21
53.4121089275
  0
LINE
  5
27B
100
AcDbEntity
  8
_1
100
AcDbLine
 62
7
  6
BYLAYER
 10
67.7667410961
 20
61.4085882563
 11
67.2786519721
 21
60.9160654128
  0
LINE
  5
27C
100
AcDbEntity
  8
_1
100
AcDbLine
 62
7
  6
BYLAYER
 10
68.7667410961
 20
61.4085882563
 11
68.2786519722
 21
60.9160654129
  0
LINE
  5
27D
100
AcDbEntity
  8
0
100
AcDbLine
 62
7
  6
BYLAYER
 10
59.0287234455
 20
53.3621089275
 11
58.5287234455
 21
52.8621089275
  0
LINE
  5
27E
100
AcDbEntity
  8
_1
100
AcDbLine
 62
7
  6
BYLAYER
 10
69.2907455138
 20
53.4156295295
 11
69.2837234455
 21
53.4121089275
  0
LINE
  5
27F
100
AcDbEntity
  8
_1
100
AcDbLine
 62
7
  6
BYLAYER
 10
67.2907456027
 20
53.4156295293
 11
67.2837234455
 21
53.4121089275
  0
LINE
  5
280
100
AcDbEntity
  8
_1
100
AcDbLine
 62
7
  6
BYLAYER
 10
68.2907456027
 20
53.4156295293
 11
68.2837234455
 21
53.4121089275
  0
LINE
  5
281
100
AcDbEntity
  8
_1
100
AcDbLine
 62
7
  6
BYLAYER
 10
67.7907456027
 20
61.4085883257
 11
67.7837234455
 21
61.4121089275
  0
LINE
  5
282
100
AcDbEntity
  8
_1
100
AcDbLine
 62
7
  6
BYLAYER
 10
68.7907456027
 20
61.4085883257
 11
68.7837234455
 21
61.4121089275
  0
LINE
  5
283
100
AcDbEntity
  8
0
100
AcDbLine
 62
7
  6
BYLAYER
 10
58.5287234455
 20
61.8621089275
 11
59.0287234455
 21
61.3621089275
  0
LINE
  5
284
100
AcDbEntity
  8
_1
100
AcDbLine
 62
7
  6
BYLAYER
 10
67.0287234455
 20
53.6558257306
 11
67.2667410954
 21
53.415629599
  0
LINE
  5
285
100
AcDbEntity
  8
_1
100
AcDbLine
 62
7
  6
BYLAYER
 10
67.7707334802
 20
53.9161420877
 11
68.2667410961
 21
53.4156295987
  0
LINE
  5
286
100
AcDbEntity
  8
_1
100
AcDbLine
 62
7
  6
BYLAYER
 10
58.2287234455
 20
62.0621089275
 11
58.2287234455
 21
61.8621089275
  0
LINE
  5
287
100
AcDbEntity
  8
_1
100
AcDbLine
 62
7
  6
BYLAYER
 10
58.2287234455
 20
52.8621089275
 11
58.2287234455
 21
52.6621089275
  0
LINE
  5
288
100
AcDbEntity
  8
0
100
AcDbLine
 62
7
  6
BYLAYER
 10
59.0287234455
 20
53.3621089275
 11
59.0287234455
 21
61.3621089275
  0
LINE
  5
289
100
AcDbEntity
  8
_1
100
AcDbLine
 62
7
  6
BYLAYER
 10
59.2287234455
 20
62.0621089275
 11
59.2287234455
 21
52.6621089275
  0
LINE
  5
28A
100
AcDbEntity
  8
_1
100
AcDbLine
 62
7
  6
BYLAYER
 10
69.7287234455
 20
61.3702208126
 11
69.2786519722
 21
60.9160654129
  0
LINE
  5
28B
100
AcDbEntity
  8
_1
100
AcDbLine
 62
7
  6
BYLAYER
 10
68.7707334802
 20
53.9161420877
 11
69.2667410961
 21
53.4156295987
  0
LINE
  5
28C
100
AcDbEntity
  8
_1
100
AcDbLine
 62
7
  6
BYLAYER
 10
62.2287234455
 20
62.0621089275
 11
62.2287234455
 21
52.6621089275
  0
LINE
  5
28D
100
AcDbEntity
  8
_1
100
AcDbLine
 62
7
  6
BYLAYER
 10
67.2907057951
 20
53.415629599
 11
67.7787949151
 21
53.9081524421
  0
LINE
  5
28E
100
AcDbEntity
  8
_1
100
AcDbLine
 62
7
  6
BYLAYER
 10
67.2867134102
 20
60.9080757676
 11
67.0287234455
 21
61.1683921238
  0
LINE
  5
28F
100
AcDbEntity
  8
_1
100
AcDbLine
 62
7
  6
BYLAYER
 10
62.4787234455
 20
52.4715890851
 11
62.4787234455
 21
62.3526287699
  0
LINE
  5
290
100
AcDbEntity
  8
_1
100
AcDbLine
 62
7
  6
BYLAYER
 10
62.7787234455
 20
62.4121089275
 11
62.7787234455
 21
52.4121089275
  0
LINE
  5
291
100
AcDbEntity
  8
_1
100
AcDbLine
 62
7
  6
BYLAYER
 10
68.2907057951
 20
53.415629599
 11
68.7787949151
 21
53.9081524421
  0
LINE
  5
292
100
AcDbEntity
  8
_1
100
AcDbLine
 62
7
  6
BYLAYER
 10
69.2907057951
 20
53.415629599
 11
69.7287234455
 21
53.8576327578
  0
LINE
  5
293
100
AcDbEntity
  8
_1
100
AcDbLine
 62
7
  6
BYLAYER
 10
68.2867134104
 20
60.9080757677
 11
67.7907057951
 21
61.408588256
  0
LINE
  5
294
100
AcDbEntity
  8
_1
100
AcDbLine
 62
7
  6
BYLAYER
 10
69.2867134104
 20
60.9080757677
 11
68.7907057951
 21
61.408588256
  0
LINE
  5
295
100
AcDbEntity
  8
_1
100
AcDbLine
 62
7
  6
BYLAYER
 10
64.5386176525
 20
61.9382769056
 11
64.6037441485
 21
60.6935420366
  0
LINE
  5
296
100
AcDbEntity
  8
_1
100
AcDbLine
 62
7
  6
BYLAYER
 10
66.0287234455
 20
62.1621089275
 11
66.0287234455
 21
52.6621089275
  0
LINE
  5
297
100
AcDbEntity
  8
_1
100
AcDbLine
 62
7
  6
BYLAYER
 10
64.6037441485
 20
54.1306758184
 11
64.5386176525
 21
52.8859409494
  0
LINE
  5
298
100
AcDbEntity
  8
_1
100
AcDbLine
 62
7
  6
BYLAYER
 10
67.0388726583
 20
57.275279746
 11
67.0287234455
 21
57.5493139982
  0
LINE
  5
299
100
AcDbEntity
  8
_1
100
AcDbLine
 62
7
  6
BYLAYER
 10
67.0387816895
 20
57.2749329937
 11
67.0286641771
 21
57.5493125768
  0
LINE
  5
29A
100
AcDbEntity
  8
_1
100
AcDbLine
 62
7
  6
BYLAYER
 10
67.0287234455
 20
53.6558714568
 11
67.0287234455
 21
61.1683597427
  0
LINE
  5
29B
100
AcDbEntity
  8
_1
100
AcDbLine
 62
7
  6
BYLAYER
 10
69.7287234455
 20
61.370337146
 11
69.7287234455
 21
53.8578445652
  0
LINE
  5
29C
100
AcDbEntity
  8
_1
100
AcDbLine
 62
7
  6
BYLAYER
 10
70.5287234455
 20
53.9621089275
 11
70.5287234455
 21
60.8621089275
  0
LINE
  5
29D
100
AcDbEntity
  8
_1
100
AcDbLine
 62
7
  6
BYLAYER
 10
70.9287234455
 20
60.8621089275
 11
70.9287234455
 21
53.9621089275
  0
LINE
  5
29E
100
AcDbEntity
  8
_1
100
AcDbLine
 62
7
  6
BYLAYER
 10
72.3287234455
 20
60.7121089275
 11
72.3287234455
 21
54.1121089275
  0
LINE
  5
29F
100
AcDbEntity
  8
_1
100
AcDbLine
 62
7
  6
BYLAYER
 10
72.4942746754
 20
59.1621089275
 11
72.4942746754
 21
59.0621089275
  0
LINE
  5
2A0
100
AcDbEntity
  8
_1
100
AcDbLine
 62
7
  6
BYLAYER
 10
72.4942746754
 20
58.4621089275
 11
72.4942746754
 21
58.3621089275
  0
LINE
  5
2A1
100
AcDbEntity
  8
_1
100
AcDbLine
 62
7
  6
BYLAYER
 10
72.4942746754
 20
56.4621089275
 11
72.4942746754
 21
56.3621089275
  0
LINE
  5
2A2
100
AcDbEntity
  8
_1
100
AcDbLine
 62
7
  6
BYLAYER
 10
72.4942746754
 20
55.7621089275
 11
72.4942746754
 21
55.6621089275
  0
CIRCLE
  5
2A3
100
AcDbEntity
  8
0
100
AcDbCircle
 62
7
  6
BYLAYER
 10
23.0287234455
 20
57.3621089275
 40
2.4672914738
  0
CIRCLE
  5
2A4
100
AcDbEntity
  8
0
100
AcDbCircle
 62
7
  6
BYLAYER
 10
31.2287234455
 20
57.3621089275
 40
2.4672914738
  0
CIRCLE
  5
2A5
100
AcDbEntity
  8
0
100
AcDbCircle
 62
7
  6
BYLAYER
 10
23.0287234455
 20
57.3621089275
 40
1.5187442145
  0
CIRCLE
  5
2A6
100
AcDbEntity
  8
0
100
AcDbCircle
 62
7
  6
BYLAYER
 10
31.2287234455
 20
57.3621089275
 40
1.5187442145
  0
ARC
  5
2A7
100
AcDbEntity
  8
0
100
AcDbCircle
 62
7
  6
BYLAYER
 10
20.7787234455
 20
55.1121089275
 40
0.75
100
AcDbArc
 50
180.0
 51
270.0
  0
ARC
  5
2A8
100
AcDbEntity
  8
0
100
AcDbCircle
 62
7
  6
BYLAYER
 10
25.2787234455
 20
55.1121089275
 40
0.75
100
AcDbArc
 50
270.0
 51
360.0
  0
ARC
  5
2A9
100
AcDbEntity
  8
0
100
AcDbCircle
 62
7
  6
BYLAYER
 10
28.9787234455
 20
55.1121089275
 40
0.75
100
AcDbArc
 50
180.0
 51
270.0
  0
ARC
  5
2AA
100
AcDbEntity
  8
0
100
AcDbCircle
 62
7
  6
BYLAYER
 10
33.4787234455
 20
55.1121089275
 40
0.75
100
AcDbArc
 50
270.0
 51
360.0
  0
ARC
  5
2AB
100
AcDbEntity
  8
_1
100
AcDbCircle
 62
7
  6
BYLAYER
 10
9.7287234455
 20
53.3621089275
 40
0.7
100
AcDbArc
 50
180.0
 51
270.0
  0
ARC
  5
2AC
100
AcDbEntity
  8
_1
100
AcDbCircle
 62
7
  6
BYLAYER
 10
9.5152446252
 20
52.9121089275
 40
0.5
100
AcDbArc
 50
183.0
 51
270.0
  0
ARC
  5
2AD
100
AcDbEntity
  8
_1
100
AcDbCircle
 62
7
  6
BYLAYER
 10
9.5152446252
 20
52.9121089275
 40
0.4405198424
100
AcDbArc
 50
184.6102174454
 51
270.0
  0
ARC
  5
2AE
100
AcDbEntity
  8
0
100
AcDbCircle
 62
7
  6
BYLAYER
 10
20.7787234455
 20
59.6121089275
 40
0.75
100
AcDbArc
 50
90.0
 51
180.0
  0
ARC
  5
2AF
100
AcDbEntity
  8
0
100
AcDbCircle
 62
7
  6
BYLAYER
 10
25.2787234455
 20
59.6121089275
 40
0.75
100
AcDbArc
 50
0.0
 51
90.0
  0
ARC
  5
2B0
100
AcDbEntity
  8
0
100
AcDbCircle
 62
7
  6
BYLAYER
 10
33.4787234455
 20
59.6121089275
 40
0.75
100
AcDbArc
 50
0.0
 51
90.0
  0
ARC
  5
2B1
100
AcDbEntity
  8
0
100
AcDbCircle
 62
7
  6
BYLAYER
 10
28.9787234455
 20
59.6121089275
 40
0.75
100
AcDbArc
 50
90.0
 51
180.0
  0
ARC
  5
2B2
100
AcDbEntity
  8
_1
100
AcDbCircle
 62
7
  6
BYLAYER
 10
9.7287234455
 20
61.3621089275
 40
0.7
100
AcDbArc
 50
90.0
 51
180.0
  0
ARC
  5
2B3
100
AcDbEntity
  8
_1
100
AcDbCircle
 62
7
  6
BYLAYER
 10
9.5152446252
 20
61.9121089275
 40
0.5
100
AcDbArc
 50
90.0
 51
177.0
  0
ARC
  5
2B4
100
AcDbEntity
  8
_1
100
AcDbCircle
 62
7
  6
BYLAYER
 10
9.5152446252
 20
61.9121089275
 40
0.4405198424
100
AcDbArc
 50
90.0
 51
175.3897825546
  0
ARC
  5
2B5
100
AcDbEntity
  8
0
100
AcDbCircle
 62
7
  6
BYLAYER
 10
46.6690003734
 20
57.3621089275
 40
2.2491245565
100
AcDbArc
 50
86.0363134577
 51
240.2603568979
  0
ARC
  5
2B6
100
AcDbEntity
  8
0
100
AcDbCircle
 62
7
  6
BYLAYER
 10
48.4203078677
 20
57.3621089275
 40
2.2437447873
100
AcDbArc
 50
270.0
 51
90.0
  0
ARC
  5
2B7
100
AcDbEntity
  8
0
100
AcDbCircle
 62
7
  6
BYLAYER
 10
46.6690003734
 20
57.3621089275
 40
1.4523359859
100
AcDbArc
 50
64.316793229
 51
240.2603568979
  0
ARC
  5
2B8
100
AcDbEntity
  8
0
100
AcDbCircle
 62
7
  6
BYLAYER
 10
48.4203078677
 20
57.3621089275
 40
0.8037387645
100
AcDbArc
 50
38.3426621893
 51
321.6573378107
  0
ARC
  5
2B9
100
AcDbEntity
  8
_1
100
AcDbCircle
 62
7
  6
BYLAYER
 10
65.0422022657
 20
52.9121089275
 40
0.5
100
AcDbArc
 50
270.0
 51
328.5035971067
  0
ARC
  5
2BA
100
AcDbEntity
  8
_1
100
AcDbCircle
 62
7
  6
BYLAYER
 10
72.0442746754
 20
55.7621089275
 40
0.45
100
AcDbArc
 50
0.0
 51
40.6966677067
  0
ARC
  5
2BB
100
AcDbEntity
  8
_1
100
AcDbCircle
 62
7
  6
BYLAYER
 10
72.0442746754
 20
55.6621089275
 40
0.45
100
AcDbArc
 50
306.0104113432
 51
360.0
  0
ARC
  5
2BC
100
AcDbEntity
  8
_1
100
AcDbCircle
 62
7
  6
BYLAYER
 10
72.0442746754
 20
56.4621089275
 40
0.45
100
AcDbArc
 50
0.0
 51
53.9895886568
  0
ARC
  5
2BD
100
AcDbEntity
  8
_1
100
AcDbCircle
 62
7
  6
BYLAYER
 10
72.0442746754
 20
56.3621089275
 40
0.45
100
AcDbArc
 50
306.0104113432
 51
360.0
  0
ARC
  5
2BE
100
AcDbEntity
  8
_1
100
AcDbCircle
 62
7
  6
BYLAYER
 10
69.2837246243
 20
53.4190603418
 40
0.0069514144
100
AcDbArc
 50
264.1987397656
 51
269.9902835074
  0
ARC
  5
2BF
100
AcDbEntity
  8
_1
100
AcDbCircle
 62
7
  6
BYLAYER
 10
68.2837246243
 20
53.4190603418
 40
0.0069514144
100
AcDbArc
 50
264.1987397656
 51
269.9902835076
  0
ARC
  5
2C0
100
AcDbEntity
  8
_1
100
AcDbCircle
 62
7
  6
BYLAYER
 10
65.0422022657
 20
61.9121089275
 40
0.5
100
AcDbArc
 50
31.4964028933
 51
90.0
  0
ARC
  5
2C1
100
AcDbEntity
  8
_1
100
AcDbCircle
 62
7
  6
BYLAYER
 10
72.0442746754
 20
58.4621089275
 40
0.45
100
AcDbArc
 50
0.0
 51
53.9895886568
  0
ARC
  5
2C2
100
AcDbEntity
  8
_1
100
AcDbCircle
 62
7
  6
BYLAYER
 10
72.0442746754
 20
59.1621089275
 40
0.45
100
AcDbArc
 50
0.0
 51
53.9895886568
  0
ARC
  5
2C3
100
AcDbEntity
  8
_1
100
AcDbCircle
 62
7
  6
BYLAYER
 10
72.0442746754
 20
59.0621089275
 40
0.45
100
AcDbArc
 50
319.3033322933
 51
360.0
  0
ARC
  5
2C4
100
AcDbEntity
  8
_1
100
AcDbCircle
 62
7
  6
BYLAYER
 10
72.0442746754
 20
58.3621089275
 40
0.45
100
AcDbArc
 50
306.0104113432
 51
360.0
  0
ARC
  5
2C5
100
AcDbEntity
  8
_1
100
AcDbCircle
 62
7
  6
BYLAYER
 10
68.7737222666
 20
61.4051575132
 40
0.0069514144
100
AcDbArc
 50
84.198739765
 51
89.9902835095
  0
ARC
  5
2C6
100
AcDbEntity
  8
_1
100
AcDbCircle
 62
7
  6
BYLAYER
 10
67.7737222666
 20
61.4051575132
 40
0.0069514144
100
AcDbArc
 50
84.198739765
 51
89.9902835095
  0
LINE
  5
2C7
100
AcDbEntity
  8
_1
100
AcDbLine
 62
7
  6
BYLAYER
 10
68.7744249029
 20
61.4120733258
 11
68.7758195347
 21
61.4117912078
  0
SPLINE
  5
2C8
100
AcDbEntity
  8
_1
100
AcDbSpline
 62
7
  6
BYLAYER
 70
0
 71
3
 72
52
 73
48
 74
0
 42
0.0000001
 43
0.0000001
 44
0.0000000001
 40
0.0
 40
0.0
 40
0.0
 40
0.0
 40
0.0005980259
 40
0.0013950979
 40
0.0024406671
 40
0.0037552822
 40
0.0072220416
 40
0.0118175322
 40
0.0175287215
 40
0.0243300313
 40
0.0321658917
 40
0.0409681018
 40
0.0613120144
 40
0.0853408992
 40
0.1133603559
 40
0.145497918
 40
0.1813952214
 40
0.220652873
 40
0.2627689147
 40
0.3071315775
 40
0.35306934
 40
0.3999324212
 40
0.4469100897
 40
0.4934584621
 40
0.5399357466
 40
0.5867906763
 40
0.6337850175
 40
0.6800666637
 40
0.7249674884
 40
0.7678202086
 40
0.8079875943
 40
0.8449277672
 40
0.8782253126
 40
0.9074901189
 40
0.9326610961
 40
0.9438325898
 40
0.9540906971
 40
0.9634396171
 40
0.9718587894
 40
0.97928385
 40
0.9856484234
 40
0.9909101176
 40
0.9950492402
 40
0.9966955867
 40
0.9980625949
 40
0.9991582193
 40
1.0
 40
1.0
 40
1.0
 40
1.0
 10
68.7758195347
 20
61.4117912078
 30
0.0
 10
68.7773501385
 20
61.4113273804
 30
0.0
 10
68.7805592074
 20
61.4091600313
 30
0.0
 10
68.784580474
 20
61.4039764564
 30
0.0
 10
68.7886061937
 20
61.3965225752
 30
0.0
 10
68.7945023954
 20
61.3820801676
 30
0.0
 10
68.8014312436
 20
61.3579231365
 30
0.0
 10
68.8092187555
 20
61.3219156555
 30
0.0
 10
68.8169496211
 20
61.2768068547
 30
0.0
 10
68.8245883556
 20
61.2229230276
 30
0.0
 10
68.8320760909
 20
61.1606823578
 30
0.0
 10
68.8422784322
 20
61.0623033812
 30
0.0
 10
68.8541154062
 20
60.9205764907
 30
0.0
 10
68.8676807696
 20
60.7274481136
 30
0.0
 10
68.881909524
 20
60.5027531361
 30
0.0
 10
68.8971230501
 20
60.2463193601
 30
0.0
 10
68.9128729915
 20
59.9598119419
 30
0.0
 10
68.9290363654
 20
59.6466030436
 30
0.0
 10
68.9453803291
 20
59.3107353432
 30
0.0
 10
68.961659507
 20
58.956979608
 30
0.0
 10
68.9776278425
 20
58.5905019924
 30
0.0
 10
68.9931275993
 20
58.2170047003
 30
0.0
 10
69.0078601091
 20
57.841841974
 30
0.0
 10
69.0216944444
 20
57.4676777803
 30
0.0
 10
69.0354081445
 20
57.0938377366
 30
0.0
 10
69.0498303834
 20
56.718830439
 30
0.0
 10
69.0651542184
 20
56.3443825851
 30
0.0
 10
69.0809934833
 20
55.9751869514
 30
0.0
 10
69.0972058183
 20
55.61709461
 30
0.0
 10
69.1135547536
 20
55.2753780356
 30
0.0
 10
69.1298000074
 20
54.9549717892
 30
0.0
 10
69.1456865038
 20
54.6601355078
 30
0.0
 10
69.1610900458
 20
54.3944748936
 30
0.0
 10
69.1756429084
 20
54.1602955689
 30
0.0
 10
69.1874632703
 20
53.9852340431
 30
0.0
 10
69.1969600701
 20
53.8609685883
 30
0.0
 10
69.2038872456
 20
53.7789464488
 30
0.0
 10
69.2110120887
 20
53.7043316941
 30
0.0
 10
69.2183815804
 20
53.6373571865
 30
0.0
 10
69.2259371468
 20
53.5784419523
 30
0.0
 10
69.2336172756
 20
53.5280652398
 30
0.0
 10
69.2413862652
 20
53.4866189755
 30
0.0
 10
69.2482771005
 20
53.4578579437
 30
0.0
 10
69.2540696287
 20
53.4396197549
 30
0.0
 10
69.2580842611
 20
53.4293746448
 30
0.0
 10
69.2620901217
 20
53.4214863093
 30
0.0
 10
69.2651466458
 20
53.4172387239
 30
0.0
 10
69.2667311952
 20
53.4156395908
 30
0.0
  0
SPLINE
  5
2C9
100
AcDbEntity
  8
_1
100
AcDbSpline
 62
7
  6
BYLAYER
 70
0
 71
3
 72
40
 73
36
 74
0
 42
0.0000001
 43
0.0000001
 44
0.0000000001
 40
0.0
 40
0.0
 40
0.0
 40
0.0
 40
0.0152168296
 40
0.0335506564
 40
0.0549487349
 40
0.0795871827
 40
0.1077174832
 40
0.1391650225
 40
0.1736295004
 40
0.2107950423
 40
0.2915204869
 40
0.3340925966
 40
0.3774782402
 40
0.4210828019
 40
0.4643361785
 40
0.5073895039
 40
0.5506062571
 40
0.6376312918
 40
0.7217314737
 40
0.761392755
 40
0.7988091143
 40
0.8335612963
 40
0.8653264633
 40
0.8938049367
 40
0.9187886491
 40
0.9405007067
 40
0.9591416289
 40
0.9746852413
 40
0.9811982827
 40
0.9868089749
 40
0.9914947771
 40
0.9952449305
 40
0.9980626654
 40
0.9991351751
 40
1.0
 40
1.0
 40
1.0
 40
1.0
 10
69.7287041638
 20
54.0734133137
 30
0.0
 10
69.7234949537
 20
54.1077892336
 30
0.0
 10
69.7138073717
 20
54.1838536247
 30
0.0
 10
69.7013491083
 20
54.308790432
 30
0.0
 10
69.6890988256
 20
54.4553609661
 30
0.0
 10
69.6764947502
 20
54.6243533662
 30
0.0
 10
69.6630681106
 20
54.8163076853
 30
0.0
 10
69.6490346536
 20
55.0307234408
 30
0.0
 10
69.6346081598
 20
55.2657998361
 30
0.0
 10
69.6144330001
 20
55.6133265625
 30
0.0
 10
69.5948387413
 20
55.9794410215
 30
0.0
 10
69.5758710206
 20
56.3598168622
 30
0.0
 10
69.561778548
 20
56.6555136324
 30
0.0
 10
69.5482520118
 20
56.9527951298
 30
0.0
 10
69.5355397894
 20
57.2493524585
 30
0.0
 10
69.523160193
 20
57.5450367307
 30
0.0
 10
69.5062758057
 20
57.9406324113
 30
0.0
 10
69.4835602647
 20
58.4298491986
 30
0.0
 10
69.4591937936
 20
58.910852653
 30
0.0
 10
69.439041832
 20
59.2785706216
 30
0.0
 10
69.4243115368
 20
59.5336619072
 30
0.0
 10
69.4098494513
 20
59.7706959227
 30
0.0
 10
69.3957731062
 20
59.9872921567
 30
0.0
 10
69.3822648741
 20
60.1815565092
 30
0.0
 10
69.369594647
 20
60.3528521607
 30
0.0
 10
69.357330883
 20
60.5016364277
 30
0.0
 10
69.3449225617
 20
60.6287546041
 30
0.0
 10
69.3334817075
 20
60.7210570451
 30
0.0
 10
69.3236825609
 20
60.7835159022
 30
0.0
 10
69.316673154
 20
60.8212827879
 30
0.0
 10
69.3096106988
 20
60.8526084329
 30
0.0
 10
69.3025167145
 20
60.8773285472
 30
0.0
 10
69.296191708
 20
60.8936761832
 30
0.0
 10
69.2908272825
 20
60.9031431833
 30
0.0
 10
69.2881044287
 20
60.9066723186
 30
0.0
 10
69.2867134104
 20
60.9080757677
 30
0.0
  0
SPLINE
  5
2CA
100
AcDbEntity
  8
_1
100
AcDbSpline
 62
7
  6
BYLAYER
 70
0
 71
3
 72
46
 73
42
 74
0
 42
0.0000001
 43
0.0000001
 44
0.0000000001
 40
0.0
 40
0.0
 40
0.0
 40
0.0
 40
0.0009306337
 40
0.0021044511
 40
0.0052391008
 40
0.0094594879
 40
0.0147641767
 40
0.0211361786
 40
0.0285341825
 40
0.0368947886
 40
0.0461571578
 40
0.0673382241
 40
0.0921591988
 40
0.1209639363
 40
0.1537080123
 40
0.2093893562
 40
0.2716300177
 40
0.338470783
 40
0.4077632888
 40
0.4425507404
 40
0.4770710552
 40
0.5459174074
 40
0.6154697074
 40
0.684187643
 40
0.7497350431
 40
0.8099843278
 40
0.8375355685
 40
0.8631346375
 40
0.8866217738
 40
0.9078421515
 40
0.926810077
 40
0.9436981022
 40
0.9585857403
 40
0.9714670982
 40
0.9821825995
 40
0.9866639276
 40
0.9905417194
 40
0.993809464
 40
0.9964647743
 40
0.9985165452
 40
1.0
 40
1.0
 40
1.0
 40
1.0
 10
67.7707334802
 20
53.9161420877
 30
0.0
 10
67.7692007936
 20
53.9176884711
 30
0.0
 10
67.7662142284
 20
53.9216520421
 30
0.0
 10
67.76034561
 20
53.9324334679
 30
0.0
 10
67.753473377
 20
53.9512547024
 30
0.0
 10
67.7457717827
 20
53.9798559213
 30
0.0
 10
67.7381129665
 20
54.016270744
 30
0.0
 10
67.7305286116
 20
54.0602515574
 30
0.0
 10
67.7230775127
 20
54.111493399
 30
0.0
 10
67.7158079598
 20
54.1695805838
 30
0.0
 10
67.7059938648
 20
54.2598352622
 30
0.0
 10
67.6944183998
 20
54.3886177688
 30
0.0
 10
67.6809121357
 20
54.5631100115
 30
0.0
 10
67.6665785817
 20
54.7646675209
 30
0.0
 10
67.6483934244
 20
55.0383292361
 30
0.0
 10
67.627079919
 20
55.3901756666
 30
0.0
 10
67.6030718619
 20
55.8217693006
 30
0.0
 10
67.5793453621
 20
56.2852670508
 30
0.0
 10
67.5603509529
 20
56.6846920756
 30
0.0
 10
67.5458459943
 20
57.0086282978
 30
0.0
 10
67.5320418763
 20
57.331550295
 30
0.0
 10
67.5152746062
 20
57.7357533892
 30
0.0
 10
67.4934650505
 20
58.2198206825
 30
0.0
 10
67.470267806
 20
58.6960962633
 30
0.0
 10
67.4463617944
 20
59.1505435062
 30
0.0
 10
67.4258802379
 20
59.5087233919
 30
0.0
 10
67.4096210119
 20
59.7735276981
 30
0.0
 10
67.3980534236
 20
59.9524507589
 30
0.0
 10
67.3868316644
 20
60.1165527992
 30
0.0
 10
67.3761521332
 20
60.2651409079
 30
0.0
 10
67.3659349323
 20
60.3982826772
 30
0.0
 10
67.3558714101
 20
60.5165735418
 30
0.0
 10
67.3456550395
 20
60.6205554171
 30
0.0
 10
67.3349579751
 20
60.7099602289
 30
0.0
 10
67.3252728996
 20
60.7749511871
 30
0.0
 10
67.317098373
 20
60.8188264734
 30
0.0
 10
67.3112857914
 20
60.8454071881
 30
0.0
 10
67.3054451193
 20
60.8675851434
 30
0.0
 10
67.2995853082
 20
60.8853299303
 30
0.0
 10
67.2937438239
 20
60.8985842882
 30
0.0
 10
67.2891565535
 20
60.9056107913
 30
0.0
 10
67.2867134103
 20
60.9080757675
 30
0.0
  0
LINE
  5
2CB
100
AcDbEntity
  8
_1
100
AcDbLine
 62
7
  6
BYLAYER
 10
69.283021988
 20
53.4121445292
 11
69.2816273564
 21
53.4124266472
  0
SPLINE
  5
2CC
100
AcDbEntity
  8
_1
100
AcDbSpline
 62
7
  6
BYLAYER
 70
0
 71
3
 72
52
 73
48
 74
0
 42
0.0000001
 43
0.0000001
 44
0.0000000001
 40
0.0
 40
0.0
 40
0.0
 40
0.0
 40
0.0005980259
 40
0.0013950979
 40
0.0024406671
 40
0.0037552822
 40
0.0072220415
 40
0.0118175321
 40
0.0175287214
 40
0.0243300312
 40
0.0321658916
 40
0.0409681016
 40
0.0613120142
 40
0.085340899
 40
0.1133603557
 40
0.1454979176
 40
0.1813952211
 40
0.2206528726
 40
0.2627689142
 40
0.307131577
 40
0.3530693395
 40
0.3999324207
 40
0.4469100891
 40
0.4934584615
 40
0.539935746
 40
0.5867906757
 40
0.6337850168
 40
0.6800666631
 40
0.7249674878
 40
0.767820208
 40
0.8079875938
 40
0.8449277666
 40
0.8782253121
 40
0.9074901185
 40
0.9326610957
 40
0.9438325895
 40
0.9540906968
 40
0.9634396168
 40
0.9718587892
 40
0.9792838498
 40
0.9856484232
 40
0.9909101175
 40
0.9950492401
 40
0.9966955866
 40
0.9980625949
 40
0.9991582193
 40
1.0
 40
1.0
 40
1.0
 40
1.0
 10
69.2816273564
 20
53.4124266472
 30
0.0
 10
69.2800967526
 20
53.4128904745
 30
0.0
 10
69.2768876836
 20
53.4150578236
 30
0.0
 10
69.2728664171
 20
53.4202413984
 30
0.0
 10
69.2688406974
 20
53.4276952796
 30
0.0
 10
69.2629444957
 20
53.4421376871
 30
0.0
 10
69.2560156474
 20
53.4662947181
 30
0.0
 10
69.2482281356
 20
53.5023021989
 30
0.0
 10
69.24049727
 20
53.5474109995
 30
0.0
 10
69.2328585355
 20
53.6012948265
 30
0.0
 10
69.2253708002
 20
53.6635354961
 30
0.0
 10
69.2151684589
 20
53.7619144726
 30
0.0
 10
69.2033314849
 20
53.9036413628
 30
0.0
 10
69.1897661215
 20
54.0967697395
 30
0.0
 10
69.1755373671
 20
54.3214647166
 30
0.0
 10
69.160323841
 20
54.5778984923
 30
0.0
 10
69.1445738996
 20
54.86440591
 30
0.0
 10
69.1284105258
 20
55.1776148079
 30
0.0
 10
69.112066562
 20
55.513482508
 30
0.0
 10
69.0957873841
 20
55.8672382428
 30
0.0
 10
69.0798190486
 20
56.2337158582
 30
0.0
 10
69.0643192918
 20
56.6072131501
 30
0.0
 10
69.0495867821
 20
56.9823758763
 30
0.0
 10
69.0357524467
 20
57.3565400698
 30
0.0
 10
69.0220387466
 20
57.7303801133
 30
0.0
 10
69.0076165077
 20
58.1053874107
 30
0.0
 10
68.9922926728
 20
58.4798352645
 30
0.0
 10
68.9764534079
 20
58.8490308982
 30
0.0
 10
68.9602410729
 20
59.2071232397
 30
0.0
 10
68.9438921376
 20
59.5488398142
 30
0.0
 10
68.9276468838
 20
59.8692460609
 30
0.0
 10
68.9117603874
 20
60.1640823426
 30
0.0
 10
68.8963568454
 20
60.4297429572
 30
0.0
 10
68.8818039828
 20
60.6639222823
 30
0.0
 10
68.8699836209
 20
60.8389838085
 30
0.0
 10
68.8604868211
 20
60.9632492637
 30
0.0
 10
68.8535596456
 20
61.0452714034
 30
0.0
 10
68.8464348025
 20
61.1198861583
 30
0.0
 10
68.8390653108
 20
61.1868606661
 30
0.0
 10
68.8315097444
 20
61.2457759006
 30
0.0
 10
68.8238296157
 20
61.2961526134
 30
0.0
 10
68.816060626
 20
61.3375988781
 30
0.0
 10
68.8091697908
 20
61.3663599102
 30
0.0
 10
68.8033772626
 20
61.3845980992
 30
0.0
 10
68.7993626302
 20
61.3948432095
 30
0.0
 10
68.7953567696
 20
61.4027315452
 30
0.0
 10
68.7923002455
 20
61.4069791307
 30
0.0
 10
68.7907156961
 20
61.4085782639
 30
0.0
  0
SPLINE
  5
2CD
100
AcDbEntity
  8
_1
100
AcDbSpline
 62
7
  6
BYLAYER
 70
0
 71
3
 72
46
 73
42
 74
0
 42
0.0000001
 43
0.0000001
 44
0.0000000001
 40
0.0
 40
0.0
 40
0.0
 40
0.0
 40
0.0009306337
 40
0.0021044511
 40
0.0052391008
 40
0.0094594879
 40
0.0147641767
 40
0.0211361785
 40
0.0285341825
 40
0.0368947885
 40
0.0461571578
 40
0.0673382241
 40
0.0921591988
 40
0.1209639363
 40
0.1537080123
 40
0.2093893562
 40
0.2716300177
 40
0.338470783
 40
0.4077632887
 40
0.4425507403
 40
0.4770710552
 40
0.5459174073
 40
0.6154697074
 40
0.684187643
 40
0.7497350431
 40
0.8099843278
 40
0.8375355685
 40
0.8631346375
 40
0.8866217738
 40
0.9078421515
 40
0.9268100769
 40
0.9436981022
 40
0.9585857403
 40
0.9714670981
 40
0.9821825994
 40
0.9866639276
 40
0.9905417193
 40
0.9938094639
 40
0.9964647742
 40
0.9985165452
 40
1.0
 40
1.0
 40
1.0
 40
1.0
 10
68.7707334802
 20
53.9161420877
 30
0.0
 10
68.7692007936
 20
53.9176884711
 30
0.0
 10
68.7662142284
 20
53.9216520421
 30
0.0
 10
68.76034561
 20
53.9324334679
 30
0.0
 10
68.753473377
 20
53.9512547024
 30
0.0
 10
68.7457717827
 20
53.9798559213
 30
0.0
 10
68.7381129665
 20
54.016270744
 30
0.0
 10
68.7305286116
 20
54.0602515574
 30
0.0
 10
68.7230775127
 20
54.111493399
 30
0.0
 10
68.7158079598
 20
54.1695805838
 30
0.0
 10
68.7059938648
 20
54.2598352621
 30
0.0
 10
68.6944183998
 20
54.3886177688
 30
0.0
 10
68.6809121357
 20
54.5631100115
 30
0.0
 10
68.6665785817
 20
54.7646675208
 30
0.0
 10
68.6483934245
 20
55.038329236
 30
0.0
 10
68.627079919
 20
55.3901756665
 30
0.0
 10
68.6030718619
 20
55.8217693004
 30
0.0
 10
68.5793453621
 20
56.2852670506
 30
0.0
 10
68.5603509529
 20
56.6846920753
 30
0.0
 10
68.5458459944
 20
57.0086282976
 30
0.0
 10
68.5320418763
 20
57.3315502948
 30
0.0
 10
68.5152746063
 20
57.7357533889
 30
0.0
 10
68.4934650505
 20
58.2198206823
 30
0.0
 10
68.470267806
 20
58.696096263
 30
0.0
 10
68.4463617945
 20
59.1505435059
 30
0.0
 10
68.4258802379
 20
59.5087233916
 30
0.0
 10
68.4096210119
 20
59.7735276978
 30
0.0
 10
68.3980534236
 20
59.9524507587
 30
0.0
 10
68.3868316644
 20
60.116552799
 30
0.0
 10
68.3761521333
 20
60.2651409077
 30
0.0
 10
68.3659349323
 20
60.398282677
 30
0.0
 10
68.3558714101
 20
60.5165735416
 30
0.0
 10
68.3456550395
 20
60.6205554169
 30
0.0
 10
68.3349579752
 20
60.7099602287
 30
0.0
 10
68.3252728996
 20
60.774951187
 30
0.0
 10
68.3170983731
 20
60.8188264733
 30
0.0
 10
68.3112857914
 20
60.845407188
 30
0.0
 10
68.3054451192
 20
60.8675851433
 30
0.0
 10
68.2995853082
 20
60.8853299303
 30
0.0
 10
68.293743824
 20
60.8985842883
 30
0.0
 10
68.2891565536
 20
60.9056107914
 30
0.0
 10
68.2867134104
 20
60.9080757677
 30
0.0
  0
SPLINE
  5
2CE
100
AcDbEntity
  8
_1
100
AcDbSpline
 62
7
  6
BYLAYER
 70
0
 71
3
 72
30
 73
26
 74
0
 42
0.0000001
 43
0.0000001
 44
0.0000000001
 40
0.0
 40
0.0
 40
0.0
 40
0.0
 40
0.0935201828
 40
0.1878311848
 40
0.2816433944
 40
0.3735061008
 40
0.462172576
 40
0.5464126765
 40
0.6250840824
 40
0.6972353607
 40
0.7621209644
 40
0.8190424341
 40
0.8681401762
 40
0.8899797568
 40
0.9100493077
 40
0.9283540713
 40
0.9448305455
 40
0.9593521831
 40
0.9717974392
 40
0.982096215
 40
0.9902138265
 40
0.9934515346
 40
0.996148184
 40
0.9983196236
 40
1.0
 40
1.0
 40
1.0
 40
1.0
 10
67.0287746234
 20
57.2749052966
 30
0.0
 10
67.0332294391
 20
57.1543054331
 30
0.0
 10
67.0422794151
 20
56.9120895658
 30
0.0
 10
67.0566980356
 20
56.5489316713
 30
0.0
 10
67.0717806087
 20
56.1879415648
 30
0.0
 10
67.0872953319
 20
55.8342605167
 30
0.0
 10
67.1030484829
 20
55.4929548611
 30
0.0
 10
67.1188653327
 20
55.1686938748
 30
0.0
 10
67.1345135346
 20
54.8657630923
 30
0.0
 10
67.1497712421
 20
54.587822482
 30
0.0
 10
67.1645334159
 20
54.3379659286
 30
0.0
 10
67.1784008338
 20
54.1178597693
 30
0.0
 10
67.1897755636
 20
53.9532555588
 30
0.0
 10
67.1989829053
 20
53.836177204
 30
0.0
 10
67.2057314221
 20
53.7587671613
 30
0.0
 10
67.212689183
 20
53.6883264185
 30
0.0
 10
67.2198681603
 20
53.6251073601
 30
0.0
 10
67.2272120329
 20
53.569526099
 30
0.0
 10
67.2346669558
 20
53.5220098816
 30
0.0
 10
67.2422002968
 20
53.4828978946
 30
0.0
 10
67.2488773441
 20
53.455733344
 30
0.0
 10
67.2544829429
 20
53.4384804146
 30
0.0
 10
67.2583717285
 20
53.4287553053
 30
0.0
 10
67.2622534827
 20
53.4212377807
 30
0.0
 10
67.2652049276
 20
53.4171799052
 30
0.0
 10
67.2667311949
 20
53.4156395907
 30
0.0
  0
LINE
  5
2CF
100
AcDbEntity
  8
_1
100
AcDbLine
 62
7
  6
BYLAYER
 10
67.2837234455
 20
53.4121089275
 11
67.2813393822
 21
53.4125199011
  0
SPLINE
  5
2D0
100
AcDbEntity
  8
_1
100
AcDbSpline
 62
7
  6
BYLAYER
 70
0
 71
3
 72
9
 73
5
 74
0
 42
0.0000001
 43
0.0000001
 44
0.0000000001
 40
0.0
 40
0.0
 40
0.0
 40
0.0
 40
0.2330595685
 40
1.0
 40
1.0
 40
1.0
 40
1.0
 10
67.2813393822
 20
53.4125199011
 30
0.0
 10
67.2810693062
 20
53.4126129741
 30
0.0
 10
67.2799312737
 20
53.4130730559
 30
0.0
 10
67.2788924816
 20
53.4137564044
 30
0.0
 10
67.2781596023
 20
53.414345111
 30
0.0
  0
SPLINE
  5
2D1
100
AcDbEntity
  8
_1
100
AcDbSpline
 62
7
  6
BYLAYER
 70
0
 71
3
 72
30
 73
26
 74
0
 42
0.0000001
 43
0.0000001
 44
0.0000000001
 40
0.0
 40
0.0
 40
0.0
 40
0.0
 40
0.0015285829
 40
0.003532751
 40
0.0060587274
 40
0.009127381
 40
0.0169219609
 40
0.0269251716
 40
0.0391045909
 40
0.0533978987
 40
0.0696859553
 40
0.0878388156
 40
0.1077777464
 40
0.1295047409
 40
0.1784175152
 40
0.2351970813
 40
0.3000496351
 40
0.3722802063
 40
0.4511292478
 40
0.5356502803
 40
0.6246881163
 40
0.7169609961
 40
0.8112324923
 40
0.906025751
 40
1.0
 40
1.0
 40
1.0
 40
1.0
 10
67.2781596023
 20
53.414345111
 30
0.0
 10
67.2766209945
 20
53.4155810426
 30
0.0
 10
67.2736204891
 20
53.4191024287
 30
0.0
 10
67.2697191479
 20
53.4258965195
 30
0.0
 10
67.2658075583
 20
53.4349127976
 30
0.0
 10
67.2601418756
 20
53.4512539607
 30
0.0
 10
67.2534166639
 20
53.4773780776
 30
0.0
 10
67.2458363622
 20
53.5153374751
 30
0.0
 10
67.2383276217
 20
53.5618383771
 30
0.0
 10
67.2309234061
 20
53.6165510176
 30
0.0
 10
67.2236780537
 20
53.6790559098
 30
0.0
 10
67.2166485022
 20
53.7489143314
 30
0.0
 10
67.2098401337
 20
53.8258463747
 30
0.0
 10
67.2005640618
 20
53.9424240634
 30
0.0
 10
67.189139776
 20
54.1065395011
 30
0.0
 10
67.1752475792
 20
54.3262895878
 30
0.0
 10
67.1604349381
 20
54.5761454968
 30
0.0
 10
67.1451095258
 20
54.8545120513
 30
0.0
 10
67.1293890324
 20
55.158287172
 30
0.0
 10
67.1134829202
 20
55.4837799918
 30
0.0
 10
67.0976195723
 20
55.826625733
 30
0.0
 10
67.0820248267
 20
56.1820850043
 30
0.0
 10
67.0668603006
 20
56.5450001875
 30
0.0
 10
67.0523475042
 20
56.9101405056
 30
0.0
 10
67.0432628907
 20
57.15368675
 30
0.0
 10
67.0387816895
 20
57.2749329937
 30
0.0
  0
LINE
  5
2D2
100
AcDbEntity
  8
_1
100
AcDbLine
 62
7
  6
BYLAYER
 10
68.283021988
 20
53.4121445292
 11
68.2816273564
 21
53.4124266472
  0
SPLINE
  5
2D3
100
AcDbEntity
  8
_1
100
AcDbSpline
 62
7
  6
BYLAYER
 70
0
 71
3
 72
31
 73
27
 74
0
 42
0.0000001
 43
0.0000001
 44
0.0000000001
 40
0.0
 40
0.0
 40
0.0
 40
0.0
 40
0.0011357757
 40
0.0027665232
 40
0.0049978236
 40
0.0078661895
 40
0.0113843345
 40
0.0155523839
 40
0.0258160039
 40
0.0385850767
 40
0.0536943984
 40
0.0709588739
 40
0.0903199586
 40
0.1117938717
 40
0.1354767404
 40
0.189989366
 40
0.2535822247
 40
0.3251136341
 40
0.4031669149
 40
0.485937994
 40
0.5715167863
 40
0.6577481431
 40
0.7431196638
 40
0.8286744059
 40
0.9149846151
 40
1.0
 40
1.0
 40
1.0
 40
1.0
 10
68.2816273564
 20
53.4124266472
 30
0.0
 10
68.2796397959
 20
53.4130289487
 30
0.0
 10
68.2754770911
 20
53.4163471578
 30
0.0
 10
68.2705560981
 20
53.4240624155
 30
0.0
 10
68.2655409253
 20
53.4353498155
 30
0.0
 10
68.2605620781
 20
53.4503094805
 30
0.0
 10
68.2555699143
 20
53.4689620785
 30
0.0
 10
68.248442094
 20
53.5010070327
 30
0.0
 10
68.2399622444
 20
53.5500399146
 30
0.0
 10
68.2304775073
 20
53.6191421532
 30
0.0
 10
68.2212393518
 20
53.7011764379
 30
0.0
 10
68.2123575192
 20
53.7953613905
 30
0.0
 10
68.2037487291
 20
53.9012514637
 30
0.0
 10
68.195189326
 20
54.0189152001
 30
0.0
 10
68.1830343582
 20
54.200759887
 30
0.0
 10
68.1671121275
 20
54.4595383839
 30
0.0
 10
68.1476032698
 20
54.805749805
 30
0.0
 10
68.1274544906
 20
55.195034332
 30
0.0
 10
68.1070082643
 20
55.6194155701
 30
0.0
 10
68.0867942587
 20
56.0695215763
 30
0.0
 10
68.0671958446
 20
56.5346222886
 30
0.0
 10
68.0486665097
 20
57.0045258151
 30
0.0
 10
68.0314663896
 20
57.4744352238
 30
0.0
 10
68.0140261809
 20
57.944480289
 30
0.0
 10
67.9951185751
 20
58.4138172809
 30
0.0
 10
67.9817267656
 20
58.7268076753
 30
0.0
 10
67.9748471503
 20
58.8821097322
 30
0.0
  0
LINE
  5
2D4
100
AcDbEntity
  8
_1
100
AcDbLine
 62
7
  6
BYLAYER
 10
67.9748471503
 20
58.8821097322
 11
67.9732525099
 21
58.9180119631
  0
SPLINE
  5
2D5
100
AcDbEntity
  8
_1
100
AcDbSpline
 62
7
  6
BYLAYER
 70
0
 71
3
 72
9
 73
5
 74
0
 42
0.0000001
 43
0.0000001
 44
0.0000000001
 40
0.0
 40
0.0
 40
0.0
 40
0.0
 40
0.5401040565
 40
1.0
 40
1.0
 40
1.0
 40
1.0
 10
67.9732525099
 20
58.9180119631
 30
0.0
 10
67.9617972285
 20
59.1752328428
 30
0.0
 10
67.9393846742
 20
59.6514231175
 30
0.0
 10
67.9139803757
 20
60.1274671869
 30
0.0
 10
67.9011366653
 20
60.346330055
 30
0.0
  0
SPLINE
  5
2D6
100
AcDbEntity
  8
_1
100
AcDbSpline
 62
7
  6
BYLAYER
 70
0
 71
3
 72
21
 73
17
 74
0
 42
0.0000001
 43
0.0000001
 44
0.0000000001
 40
0.0
 40
0.0
 40
0.0
 40
0.0
 40
0.2134235006
 40
0.4004087787
 40
0.56251744
 40
0.7013280429
 40
0.7620373616
 40
0.8166284057
 40
0.864701517
 40
0.9059021844
 40
0.9400529785
 40
0.9670547082
 40
0.9778704796
 40
0.9869210624
 40
0.9942602092
 40
1.0
 40
1.0
 40
1.0
 40
1.0
 10
67.9011366653
 20
60.346330055
 30
0.0
 10
67.8966716512
 20
60.4224159961
 30
0.0
 10
67.8880218508
 20
60.5651465677
 30
0.0
 10
67.8751001417
 20
60.7656154558
 30
0.0
 10
67.8626155304
 20
60.939407281
 30
0.0
 10
67.8516789495
 20
61.0680955588
 30
0.0
 10
67.8423069627
 20
61.1583599785
 30
0.0
 10
67.8354125008
 20
61.216297277
 30
0.0
 10
67.828381162
 20
61.2671935123
 30
0.0
 10
67.8212561061
 20
61.310698808
 30
0.0
 10
67.8140662237
 20
61.3465426014
 30
0.0
 10
67.8076998035
 20
61.3714718082
 30
0.0
 10
67.8023655127
 20
61.3873440379
 30
0.0
 10
67.7986593938
 20
61.3963383631
 30
0.0
 10
67.7949580352
 20
61.4033323477
 30
0.0
 10
67.7921584465
 20
61.4071222347
 30
0.0
 10
67.7907156961
 20
61.4085782639
 30
0.0
  0
LINE
  5
2D7
100
AcDbEntity
  8
_1
100
AcDbLine
 62
7
  6
BYLAYER
 10
67.7744249029
 20
61.4120733258
 11
67.7758195347
 21
61.4117912078
  0
SPLINE
  5
2D8
100
AcDbEntity
  8
_1
100
AcDbSpline
 62
7
  6
BYLAYER
 70
0
 71
3
 72
20
 73
16
 74
0
 42
0.0000001
 43
0.0000001
 44
0.0000000001
 40
0.0
 40
0.0
 40
0.0
 40
0.0
 40
0.0042403822
 40
0.0098217687
 40
0.0170849974
 40
0.0261761934
 40
0.0500666987
 40
0.0816767403
 40
0.120934884
 40
0.1676954477
 40
0.2823203493
 40
0.4225598721
 40
0.5878271436
 40
0.7796958477
 40
1.0
 40
1.0
 40
1.0
 40
1.0
 10
67.7758195347
 20
61.4117912078
 30
0.0
 10
67.7772797491
 20
61.4113487109
 30
0.0
 10
67.7803388998
 20
61.4093394118
 30
0.0
 10
67.7842097498
 20
61.4045201465
 30
0.0
 10
67.7880762342
 20
61.3976091107
 30
0.0
 10
67.7937324235
 20
61.384260871
 30
0.0
 10
67.800391004
 20
61.3619387161
 30
0.0
 10
67.8078767076
 20
61.3286689391
 30
0.0
 10
67.8153178911
 20
61.2869891918
 30
0.0
 10
67.8258597239
 20
61.2155612608
 30
0.0
 10
67.838087612
 20
61.1076937298
 30
0.0
 10
67.8512768999
 20
60.9570913399
 30
0.0
 10
67.8642372248
 20
60.7785894961
 30
0.0
 10
67.8776538727
 20
60.5712462477
 30
0.0
 10
67.8866280603
 20
60.4232081041
 30
0.0
 10
67.8912690458
 20
60.3440735155
 30
0.0
  0
SPLINE
  5
2D9
100
AcDbEntity
  8
_1
100
AcDbSpline
 62
7
  6
BYLAYER
 70
0
 71
3
 72
9
 73
5
 74
0
 42
0.0000001
 43
0.0000001
 44
0.0000000001
 40
0.0
 40
0.0
 40
0.0
 40
0.0
 40
0.4600140212
 40
1.0
 40
1.0
 40
1.0
 40
1.0
 10
67.8912690458
 20
60.3440735155
 30
0.0
 10
67.9040904742
 20
60.1254521755
 30
0.0
 10
67.9294504355
 20
59.6500560524
 30
0.0
 10
67.9518297616
 20
59.1745142872
 30
0.0
 10
67.9632664069
 20
58.9176999076
 30
0.0
  0
LINE
  5
2DA
100
AcDbEntity
  8
_1
100
AcDbLine
 62
7
  6
BYLAYER
 10
67.9632664069
 20
58.9176999076
 11
67.9649926815
 21
58.878823683
  0
SPLINE
  5
2DB
100
AcDbEntity
  8
_1
100
AcDbSpline
 62
7
  6
BYLAYER
 70
0
 71
3
 72
31
 73
27
 74
0
 42
0.0000001
 43
0.0000001
 44
0.0000000001
 40
0.0
 40
0.0
 40
0.0
 40
0.0
 40
0.0838584676
 40
0.1689953505
 40
0.253410123
 40
0.3375952923
 40
0.4226148426
 40
0.507164888
 40
0.5891428812
 40
0.6667250517
 40
0.7381573161
 40
0.8020328296
 40
0.8572411389
 40
0.881353643
 40
0.9032680149
 40
0.9231119581
 40
0.9409155086
 40
0.9566670738
 40
0.9702217203
 40
0.9813987623
 40
0.9860603867
 40
0.9900946741
 40
0.9934973672
 40
0.9962694326
 40
0.9984244627
 40
1.0
 40
1.0
 40
1.0
 40
1.0
 10
67.9649926815
 20
58.878823683
 30
0.0
 10
67.9717641036
 20
58.7258899861
 30
0.0
 10
67.9849520043
 20
58.4176708078
 30
0.0
 10
68.0035945801
 20
57.9554460357
 30
0.0
 10
68.0208070753
 20
57.4925693454
 30
0.0
 10
68.0377214742
 20
57.029896274
 30
0.0
 10
68.0558769377
 20
56.5670224759
 30
0.0
 10
68.0751255457
 20
56.1082257568
 30
0.0
 10
68.0949936722
 20
55.6630453565
 30
0.0
 10
68.1151319472
 20
55.2418493362
 30
0.0
 10
68.1350470802
 20
54.8537286467
 30
0.0
 10
68.154355325
 20
54.5064768502
 30
0.0
 10
68.1702307369
 20
54.2455531803
 30
0.0
 10
68.1822978226
 20
54.0611424512
 30
0.0
 10
68.1907541149
 20
53.9411923511
 30
0.0
 10
68.199191234
 20
53.8327886534
 30
0.0
 10
68.2078147905
 20
53.7356882872
 30
0.0
 10
68.2167897087
 20
53.6501535448
 30
0.0
 10
68.2260529513
 20
53.5768291013
 30
0.0
 10
68.2343261643
 20
53.5237972921
 30
0.0
 10
68.24124744
 20
53.4881815826
 30
0.0
 10
68.2461472351
 20
53.4666398436
 30
0.0
 10
68.251059775
 20
53.4486575845
 30
0.0
 10
68.2559822503
 20
53.4342456527
 30
0.0
 10
68.2608819777
 20
53.4234289541
 30
0.0
 10
68.2647067935
 20
53.4176826245
 30
0.0
 10
68.2667311952
 20
53.4156395908
 30
0.0
  0
SPLINE
  5
2DC
100
AcDbEntity
  8
_1
100
AcDbSpline
 62
7
  6
BYLAYER
 70
0
 71
3
 72
12
 73
8
 74
0
 42
0.0000001
 43
0.0000001
 44
0.0000000001
 40
0.0
 40
0.0
 40
0.0
 40
0.0
 40
0.2289738638
 40
0.4647420379
 40
0.7171644348
 40
0.8551203454
 40
1.0
 40
1.0
 40
1.0
 40
1.0
 10
8.5787234455
 20
56.3284396152
 30
0.0
 10
8.5787234455
 20
56.3013446684
 30
0.0
 10
8.5858417522
 20
56.2460643148
 30
0.0
 10
8.6191760665
 20
56.1669074065
 30
0.0
 10
8.6705927657
 20
56.1102593524
 30
0.0
 10
8.7279032389
 20
56.0816269442
 30
0.0
 10
8.7615795389
 20
56.0759190364
 30
0.0
 10
8.7787234455
 20
56.0759190364
 30
0.0
  0
SPLINE
  5
2DD
100
AcDbEntity
  8
_1
100
AcDbSpline
 62
7
  6
BYLAYER
 70
0
 71
3
 72
13
 73
9
 74
0
 42
0.0000001
 43
0.0000001
 44
0.0000000001
 40
0.0
 40
0.0
 40
0.0
 40
0.0
 40
0.2292054712
 40
0.4644888432
 40
0.5877861803
 40
0.7175593241
 40
0.8553328548
 40
1.0
 40
1.0
 40
1.0
 40
1.0
 10
8.5787234455
 20
58.4957782399
 30
0.0
 10
8.5787234455
 20
58.5229397389
 30
0.0
 10
8.5857550914
 20
58.5782145696
 30
0.0
 10
8.6133118075
 20
58.6434234598
 30
0.0
 10
8.6485359706
 20
58.6897056053
 30
0.0
 10
8.6836980905
 20
58.7204804793
 30
0.0
 10
8.7279013689
 20
58.7426125948
 30
0.0
 10
8.761579978
 20
58.7482988186
 30
0.0
 10
8.7787234455
 20
58.7482988186
 30
0.0
  0
SPLINE
  5
2DE
100
AcDbEntity
  8
_1
100
AcDbSpline
 62
7
  6
BYLAYER
 70
0
 71
3
 72
11
 73
7
 74
0
 42
0.0000001
 43
0.0000001
 44
0.0000000001
 40
0.0
 40
0.0
 40
0.0
 40
0.0
 40
0.0952451855
 40
0.2863307034
 40
0.5874745497
 40
1.0
 40
1.0
 40
1.0
 40
1.0
 10
9.0159298579
 20
61.9382769056
 30
0.0
 10
9.0159773436
 20
61.9391829868
 30
0.0
 10
9.018622433
 20
61.9411110332
 30
0.0
 10
9.0237606522
 20
61.9424785995
 30
0.0
 10
9.0323752488
 20
61.9441547276
 30
0.0
 10
9.0390909464
 20
61.9448977743
 30
0.0
 10
9.0430011268
 20
61.9452899675
 30
0.0
  0
SPLINE
  5
2DF
100
AcDbEntity
  8
_1
100
AcDbSpline
 62
7
  6
BYLAYER
 70
0
 71
3
 72
9
 73
5
 74
0
 42
0.0000001
 43
0.0000001
 44
0.0000000001
 40
0.0
 40
0.0
 40
0.0
 40
0.0
 40
0.2149402589
 40
1.0
 40
1.0
 40
1.0
 40
1.0
 10
9.0430011268
 20
61.9452899675
 30
0.0
 10
9.0453697833
 20
61.945527545
 30
0.0
 10
9.0564017879
 20
61.9465137897
 30
0.0
 10
9.0674638472
 20
61.9471295968
 30
0.0
 10
9.076150058
 20
61.9475164485
 30
0.0
  0
SPLINE
  5
2E0
100
AcDbEntity
  8
_1
100
AcDbSpline
 62
7
  6
BYLAYER
 70
0
 71
3
 72
12
 73
8
 74
0
 42
0.0000001
 43
0.0000001
 44
0.0000000001
 40
0.0
 40
0.0
 40
0.0
 40
0.0
 40
0.4197684087
 40
0.7264836123
 40
0.9168798002
 40
0.9697549002
 40
1.0
 40
1.0
 40
1.0
 40
1.0
 10
9.076150058
 20
52.8767014066
 30
0.0
 10
9.0675053486
 20
52.8770864099
 30
0.0
 10
9.0525274736
 20
52.8779359347
 30
0.0
 10
9.0337799332
 20
52.8797836393
 30
0.0
 10
9.022485302
 20
52.8818847648
 30
0.0
 10
9.0172952008
 20
52.8838820151
 30
0.0
 10
9.0159624885
 20
52.8853183189
 30
0.0
 10
9.0159298579
 20
52.8859409494
 30
0.0
  0
SPLINE
  5
2E1
100
AcDbEntity
  8
_1
100
AcDbSpline
 62
7
  6
BYLAYER
 70
0
 71
3
 72
9
 73
5
 74
0
 42
0.0000001
 43
0.0000001
 44
0.0000000001
 40
0.0
 40
0.0
 40
0.0
 40
0.0
 40
0.4998998757
 40
1.0
 40
1.0
 40
1.0
 40
1.0
 10
65.0351898463
 20
62.4121089275
 30
0.0
 10
65.1110370616
 20
62.4121089275
 30
0.0
 10
65.2648586082
 20
62.3764818682
 30
0.0
 10
65.3862560418
 20
62.275563681
 30
0.0
 10
65.4322109341
 20
62.2151852268
 30
0.0
  0
SPLINE
  5
2E2
100
AcDbEntity
  8
_1
100
AcDbSpline
 62
7
  6
BYLAYER
 70
0
 71
3
 72
9
 73
5
 74
0
 42
0.0000001
 43
0.0000001
 44
0.0000000001
 40
0.0
 40
0.0
 40
0.0
 40
0.0
 40
0.5001001243
 40
1.0
 40
1.0
 40
1.0
 40
1.0
 10
65.4322109341
 20
52.6090326282
 30
0.0
 10
65.3862560418
 20
52.548654174
 30
0.0
 10
65.2648586082
 20
52.4477359868
 30
0.0
 10
65.1110370616
 20
52.4121089275
 30
0.0
 10
65.0351898463
 20
52.4121089275
 30
0.0
  0
SPLINE
  5
2E3
100
AcDbEntity
  8
_1
100
AcDbSpline
 62
7
  6
BYLAYER
 70
0
 71
3
 72
22
 73
18
 74
0
 42
0.0000001
 43
0.0000001
 44
0.0000000001
 40
0.0
 40
0.0
 40
0.0
 40
0.0
 40
0.216739707
 40
0.4090896174
 40
0.5783344211
 40
0.6541124368
 40
0.723510894
 40
0.7860023848
 40
0.8409533943
 40
0.8876591755
 40
0.9254260887
 40
0.9537418693
 40
0.9643256351
 40
0.97266791
 40
0.9791985742
 40
0.9849571192
 40
1.0
 40
1.0
 40
1.0
 40
1.0
 10
64.641986785
 20
52.8859409494
 30
0.0
 10
64.6444611867
 20
52.8593598562
 30
0.0
 10
64.6456780555
 20
52.8087792269
 30
0.0
 10
64.637418785
 20
52.7378223962
 30
0.0
 10
64.6243444402
 20
52.6854133166
 30
0.0
 10
64.6117460855
 20
52.6487782852
 30
0.0
 10
64.6023131163
 20
52.6249940105
 30
0.0
 10
64.5930460411
 20
52.603924812
 30
0.0
 10
64.5844570336
 20
52.5856216229
 30
0.0
 10
64.5770315848
 20
52.5701343754
 30
0.0
 10
64.5712716954
 20
52.5574977552
 30
0.0
 10
64.5678302325
 20
52.5486773614
 30
0.0
 10
64.5664888802
 20
52.5429981827
 30
0.0
 10
64.5662564556
 20
52.5398581453
 30
0.0
 10
64.5667863244
 20
52.5372953767
 30
0.0
 10
64.5691673404
 20
52.5346727503
 30
0.0
 10
64.5720850639
 20
52.5346695823
 30
0.0
 10
64.5739308577
 20
52.5348310683
 30
0.0
  0
SPLINE
  5
2E4
100
AcDbEntity
  8
_1
100
AcDbSpline
 62
7
  6
BYLAYER
 70
0
 71
3
 72
22
 73
18
 74
0
 42
0.0000001
 43
0.0000001
 44
0.0000000001
 40
0.0
 40
0.0
 40
0.0
 40
0.0
 40
0.0149826378
 40
0.0207571492
 40
0.0273778943
 40
0.035858763
 40
0.0466010965
 40
0.0752148207
 40
0.1131487062
 40
0.1598033248
 40
0.2145261448
 40
0.2766960179
 40
0.3457629058
 40
0.4212804454
 40
0.5904336882
 40
0.7830433101
 40
1.0
 40
1.0
 40
1.0
 40
1.0
 10
64.5739308577
 20
62.2893867867
 30
0.0
 10
64.5720932448
 20
62.289547557
 30
0.0
 10
64.569162078
 20
62.2895303104
 30
0.0
 10
64.5668449942
 20
62.2868393068
 30
0.0
 10
64.5663661283
 20
62.2842396791
 30
0.0
 10
64.5666410125
 20
62.2810577565
 30
0.0
 10
64.5680447138
 20
62.2753211891
 30
0.0
 10
64.571542936
 20
62.2664468468
 30
0.0
 10
64.5773388451
 20
62.2537768736
 30
0.0
 10
64.5847481176
 20
62.2383056816
 30
0.0
 10
64.5932783935
 20
62.2200660706
 30
0.0
 10
64.6024602317
 20
62.1990887255
 30
0.0
 10
64.6118018325
 20
62.1754011142
 30
0.0
 10
64.6243029244
 20
62.1388395867
 30
0.0
 10
64.6373362921
 20
62.0864596962
 30
0.0
 10
64.6456450289
 20
62.0154940816
 30
0.0
 10
64.644462601
 20
61.9648731915
 30
0.0
 10
64.641986785
 20
61.9382769056
 30
0.0
  0
SPLINE
  5
2E5
100
AcDbEntity
  8
_1
100
AcDbSpline
 62
7
  6
BYLAYER
 70
0
 71
3
 72
16
 73
12
 74
0
 42
0.0000001
 43
0.0000001
 44
0.0000000001
 40
0.0
 40
0.0
 40
0.0
 40
0.0
 40
0.1055048883
 40
0.2186287553
 40
0.338263992
 40
0.4634720928
 40
0.5932655525
 40
0.7266842412
 40
0.7944440943
 40
0.8627536168
 40
1.0
 40
1.0
 40
1.0
 40
1.0
 10
64.6037441485
 20
54.1306758184
 30
0.0
 10
64.6037700121
 20
54.2473433055
 30
0.0
 10
64.5861584556
 20
54.4891099979
 30
0.0
 10
64.5270795261
 20
54.8586310968
 30
0.0
 10
64.4469575107
 20
55.2463425833
 30
0.0
 10
64.3576722585
 20
55.6508677609
 30
0.0
 10
64.2729674215
 20
56.0720101573
 30
0.0
 10
64.2185209436
 20
56.4342169116
 30
0.0
 10
64.1916342825
 20
56.7311046538
 30
0.0
 10
64.178344794
 20
57.0331121332
 30
0.0
 10
64.1846274939
 20
57.2608365032
 30
0.0
 10
64.1968734769
 20
57.4121089275
 30
0.0
  0
SPLINE
  5
2E6
100
AcDbEntity
  8
_1
100
AcDbSpline
 62
7
  6
BYLAYER
 70
0
 71
3
 72
11
 73
7
 74
0
 42
0.0000001
 43
0.0000001
 44
0.0000000001
 40
0.0
 40
0.0
 40
0.0
 40
0.0
 40
0.2498452983
 40
0.4997372774
 40
0.7497814263
 40
1.0
 40
1.0
 40
1.0
 40
1.0
 10
64.0401241404
 20
52.4121089275
 30
0.0
 10
64.1029202776
 20
52.4121089275
 30
0.0
 10
64.2298210357
 20
52.436404596
 30
0.0
 10
64.3920597012
 20
52.5407238185
 30
0.0
 10
64.5044996527
 20
52.69754749
 30
0.0
 10
64.5353316453
 20
52.8231368988
 30
0.0
 10
64.5386176525
 20
52.8859409494
 30
0.0
  0
SPLINE
  5
2E7
100
AcDbEntity
  8
_1
100
AcDbSpline
 62
7
  6
BYLAYER
 70
0
 71
3
 72
16
 73
12
 74
0
 42
0.0000001
 43
0.0000001
 44
0.0000000001
 40
0.0
 40
0.0
 40
0.0
 40
0.0
 40
0.137253021
 40
0.205561713
 40
0.2733159877
 40
0.4067227759
 40
0.5365113121
 40
0.6617273913
 40
0.7813812555
 40
0.8945038763
 40
1.0
 40
1.0
 40
1.0
 40
1.0
 10
64.1968734769
 20
57.4121089275
 30
0.0
 10
64.1846268216
 20
57.5633896571
 30
0.0
 10
64.1782209372
 20
57.7911145824
 30
0.0
 10
64.1914120077
 20
58.0931313103
 30
0.0
 10
64.2183612245
 20
58.3899975231
 30
0.0
 10
64.2730691826
 20
58.7521422653
 30
0.0
 10
64.3578080636
 20
59.1732665369
 30
0.0
 10
64.4469926064
 20
59.5778418545
 30
0.0
 10
64.5270546283
 20
59.9655963703
 30
0.0
 10
64.5861396684
 20
60.3351271144
 30
0.0
 10
64.6037700101
 20
60.5768834787
 30
0.0
 10
64.6037441485
 20
60.6935420366
 30
0.0
  0
SPLINE
  5
2E8
100
AcDbEntity
  8
_1
100
AcDbSpline
 62
7
  6
BYLAYER
 70
0
 71
3
 72
11
 73
7
 74
0
 42
0.0000001
 43
0.0000001
 44
0.0000000001
 40
0.0
 40
0.0
 40
0.0
 40
0.0
 40
0.2502185737
 40
0.5002627226
 40
0.7501547017
 40
1.0
 40
1.0
 40
1.0
 40
1.0
 10
64.5386176525
 20
61.9382769056
 30
0.0
 10
64.5353316453
 20
62.0010809562
 30
0.0
 10
64.5044996527
 20
62.126670365
 30
0.0
 10
64.3920597012
 20
62.2834940365
 30
0.0
 10
64.2298210357
 20
62.387813259
 30
0.0
 10
64.1029202776
 20
62.4121089275
 30
0.0
 10
64.0401241404
 20
62.4121089275
 30
0.0
  0
ELLIPSE
  5
2E9
100
AcDbEntity
  8
_1
100
AcDbEllipse
 62
7
  6
BYLAYER
 10
9.2787234455
 20
57.3990159667
 30
0.0
 11
0.5006842948
 21
9.5536254669
 31
0.0
 40
0.0522644277
 41
1.1510088935
 42
1.5707963268
  0
ELLIPSE
  5
2EA
100
AcDbEntity
  8
_1
100
AcDbEllipse
 62
7
  6
BYLAYER
 10
9.2787234455
 20
57.3990159667
 30
0.0
 11
0.5006842948
 21
9.5536254669
 31
0.0
 40
0.0522644277
 41
1.0773206304
 42
1.1441916634
  0
ELLIPSE
  5
2EB
100
AcDbEntity
  8
_1
100
AcDbEllipse
 62
7
  6
BYLAYER
 10
9.2787234455
 20
57.4252018883
 30
0.0
 11
0.5006842948
 21
-9.5536254669
 31
0.0
 40
0.0522644277
 41
-1.5707963268
 42
-1.1512983441
  0
ELLIPSE
  5
2EC
100
AcDbEntity
  8
_1
100
AcDbEllipse
 62
7
  6
BYLAYER
 10
9.2787234455
 20
57.4252018883
 30
0.0
 11
0.5006842948
 21
-9.5536254669
 31
0.0
 40
0.0522644277
 41
-1.1291064797
 42
-1.0773206304
  0
ELLIPSE
  5
2ED
100
AcDbEntity
  8
_1
100
AcDbEllipse
 62
7
  6
BYLAYER
 10
64.9804427333
 20
57.3898726823
 30
0.0
 11
0.2550020926
 21
4.8416295499
 31
0.0
 40
0.0572670648
 41
-3.9709017133
 42
-3.51428746
  0
ELLIPSE
  5
2EE
100
AcDbEntity
  8
_1
100
AcDbEllipse
 62
7
  6
BYLAYER
 10
64.9804427333
 20
57.4343451727
 30
0.0
 11
-0.2550020926
 21
4.8416295499
 31
0.0
 40
0.0572670648
 41
0.3726948064
 42
0.8293090597
  0
ENDSEC
  0
SECTION
  2
OBJECTS
  0
DICTIONARY
  5
C
100
AcDbDictionary
280
0
281
1
  3
ACAD_GROUP
350
D
  3
ACAD_MLINESTYLE
350
17
  3
ACAD_LAYOUT
350
1A
  3
ACAD_PLOTSETTINGS
350
19
  3
ACAD_PLOTSTYLENAME
350
E
  0
DICTIONARY
  5
D
102
{ACAD_REACTORS
330
C
102
}
100
AcDbDictionary
280
0
281
1
  0
ACDBDICTIONARYWDFLT
  5
E
102
{ACAD_REACTORS
330
C
102
}
100
AcDbDictionary
281
1
  3
Normal
350
F
100
AcDbDictionaryWithDefault
340
F
  0
DICTIONARY
  5
17
102
{ACAD_REACTORS
330
C
102
}
100
AcDbDictionary
280
0
281
1
  3
Standard
350
18
  0
DICTIONARY
  5
19
102
{ACAD_REACTORS
330
C
102
}
100
AcDbDictionary
281
1
  0
DICTIONARY
  5
1A
102
{ACAD_REACTORS
330
C
102
}
100
AcDbDictionary
281
1
  3
Model
350
2EF
  3
Layout1
350
2F0
  0
ACDBPLACEHOLDER
  5
F
102
{ACAD_REACTORS
330
E
102
}
  0
MLINESTYLE
  5
18
102
{ACAD_REACTORS
330
17
102
}
100
AcDbMlineStyle
  2
STANDARD
 70
0
  3

 62
256
 51
90.0
 52
90.0
 71
2
 49
0.5
 62
256
  6
BYLAYER
 49
-0.5
 62
256
  6
BYLAYER
  0
LAYOUT
  5
2EF
102
{ACAD_REACTORS
330
1A
102
}
100
AcDbPlotSettings
  1

  2
none_device
  4

  6

 40
0.0
 41
0.0
 42
0.0
 43
0.0
 44
210.0
 45
297.0
 46
0.0
 47
0.0
 48
0.0
 49
0.0
140
0.0
141
0.0
142
1.0
143
1.0
 70
1024
 72
1
 73
0
 74
0
  7

 75
0
147
1.0
148
0.0
149
0.0
100
AcDbLayout
  1
Model
 70
0
 71
0
 10
0.0
 20
0.0
 11
210.0
 21
297.0
 12
0.0
 22
0.0
 32
0.0
 14
0.0
 24
0.0
 34
0.0
 15
0.0
 25
0.0
 35
0.0
146
0.0
 13
0.0
 23
0.0
 33
0.0
 16
1.0
 26
0.0
 36
0.0
 17
0.0
 27
1.0
 37
0.0
 76
0
330
211
345
0
346
0
  0
LAYOUT
  5
2F0
102
{ACAD_REACTORS
330
1A
102
}
100
AcDbPlotSettings
  1

  2
none_device
  4

  6

 40
0.0
 41
0.0
 42
0.0
 43
0.0
 44
210.0
 45
297.0
 46
0.0
 47
0.0
 48
0.0
 49
0.0
140
0.0
141
0.0
142
1.0
143
1.0
 70
0
 72
1
 73
0
 74
0
  7

 75
0
147
1.0
148
0.0
149
0.0
100
AcDbLayout
  1
Layout1
 70
0
 71
1
 10
0.0
 20
0.0
 11
210.0
 21
297.0
 12
0.0
 22
0.0
 32
0.0
 14
0.0
 24
0.0
 34
0.0
 15
0.0
 25
0.0
 35
0.0
146
0.0
 13
0.0
 23
0.0
 33
0.0
 16
1.0
 26
0.0
 36
0.0
 17
0.0
 27
1.0
 37
0.0
 76
0
330
212
345
0
346
0
  0
ENDSEC
  0
EOF
