999
DXF file: C:\Users\sesa63760\Dev\_Creo\CAD\MCADID0004660_3D-CAD\drw0001_1.dxf
999
Pro/ENGINEER 2019471 by Parametric Technology Corporation
  0
SECTION
  2
HEADER
  9
$ACADVER
  1
AC1024
  9
$DWGCODEPAGE
  3
ANSI_1252
  9
$EXTMAX
 10
64.2932931352
 20
90.9290860055
 30
0.0
  9
$EXTMIN
 10
0.0
 20
0.0
 30
0.0
  9
$LIMMIN
 10
0.0
 20
0.0
  9
$LIMMAX
 10
64.2932931352
 20
90.9290860055
  9
$VIEWCTR
 10
32.1466465676
 20
45.4645430028
  9
$VIEWSIZE
 40
90.9290860055
  9
$CLAYER
  8
0
  9
$LTSCALE
 40
5.92722931
  9
$CELTYPE
  6
BYLAYER
  9
$DIMSCALE
 40
1.0
  9
$DIMASZ
 40
0.7653963468
  9
$DIMEXO
 40
1.0
  9
$DIMDLI
 40
4.0951766142
  9
$DIMEXE
 40
1.0
  9
$DIMCEN
 40
0.9699102507
  9
$DIMLFAC
 40
1.0
  9
$DIMBLK
  1
_FILLED
  9
$DIMALT
 70
0
  9
$DIMALTF
 40
0.0393700787
  9
$DIMTXT
 40
1.0715548856
  9
$DIMTOL
 70
1
  9
$DIMLIM
 70
0
  9
$DIMTFAC
 40
1.0
  9
$DIMTP
 40
0.01
  9
$DIMTM
 40
0.01
  9
$DIMGAP
 40
0.625
  9
$DIMDSEP
 70
46
  9
$AUNITS
 70
0
  9
$PDMODE
 70
3
  9
$PDSIZE
 40
0.3125
  9
$HANDSEED
  5
2A6
  9
$TILEMODE
 70
1
  9
$MEASUREMENT
 70
1
  9
$INSUNITS
 70
4
  0
ENDSEC
  0
SECTION
  2
CLASSES
  0
CLASS
  1
ACDBDICTIONARYWDFLT
  2
AcDbDictionaryWithDefault
  3
AutoCAD 2000
 90
0
 91
1
280
0
281
0
  0
CLASS
  1
ACDBPLACEHOLDER
  2
AcDbPlaceHolder
  3
AutoCAD 2000
 90
0
 91
1
280
0
281
0
  0
CLASS
  1
LAYOUT
  2
AcDbLayout
  3
AutoCAD 2000
 90
0
 91
0
280
0
281
0
  0
ENDSEC
  0
SECTION
  2
TABLES
  0
TABLE
  2
VPORT
  5
8
100
AcDbSymbolTable
 70
2
  0
VPORT
  5
1F4
100
AcDbSymbolTableRecord
100
AcDbViewportTableRecord
  2
*ACTIVE
 70
0
 10
0.0
 20
0.0
 11
1.0
 21
1.0
 12
32.1466465676
 22
45.4645430028
 13
0.0
 23
0.0
 14
1.0
 24
1.0
 15
0.0
 25
0.0
 16
0.0
 26
0.0
 36
1.0
 17
0.0
 27
0.0
 37
0.0
 40
90.9290860055
 41
0.7070707071
 42
50.0
 43
0.0
 44
0.0
 50
0.0
 51
0.0
 71
0
 72
100
 73
1
 74
1
 75
0
 76
0
 77
0
 78
0
  0
ENDTAB
  0
TABLE
  2
LTYPE
  5
5
100
AcDbSymbolTable
 70
6
  0
LTYPE
  5
14
100
AcDbSymbolTableRecord
100
AcDbLinetypeTableRecord
  2
BYBLOCK
 70
0
  3

 72
65
 73
0
 40
0.0
  0
LTYPE
  5
15
100
AcDbSymbolTableRecord
100
AcDbLinetypeTableRecord
  2
BYLAYER
 70
0
  3

 72
65
 73
0
 40
0.0
  0
LTYPE
  5
16
100
AcDbSymbolTableRecord
100
AcDbLinetypeTableRecord
  2
CONTINUOUS
 70
64
  3
Solid line
 72
65
 73
0
 40
0.0
  0
LTYPE
  5
1F5
100
AcDbSymbolTableRecord
100
AcDbLinetypeTableRecord
  2
CENTER
 70
64
  3
____ _ ____ _ ____ _ ____ _ ____ _ ____ _ ____
 72
65
 73
4
 40
0.6
 49
0.375
 74
0
 49
-0.075
 74
0
 49
0.075
 74
0
 49
-0.075
 74
0
  0
LTYPE
  5
1F6
100
AcDbSymbolTableRecord
100
AcDbLinetypeTableRecord
  2
HIDDEN
 70
64
  3
- - - - - - - - - - - - - - - - - - - -
 72
65
 73
2
 40
0.2
 49
0.1
 74
0
 49
-0.1
 74
0
  0
LTYPE
  5
1F7
100
AcDbSymbolTableRecord
100
AcDbLinetypeTableRecord
  2
PHANTOM
 70
64
  3
_____ _ _ _____ _ _ _____ _ _ _____
 72
65
 73
6
 40
0.8
 49
0.45
 74
0
 49
-0.05
 74
0
 49
0.1
 74
0
 49
-0.05
 74
0
 49
0.1
 74
0
 49
-0.05
 74
0
  0
LTYPE
  5
1F8
100
AcDbSymbolTableRecord
100
AcDbLinetypeTableRecord
  2
DOT
 70
64
  3
. . . . . . . . . . . . . . . . . . . .
 72
65
 73
2
 40
0.2
 49
0.1
 74
0
 49
-0.1
 74
0
  0
LTYPE
  5
1F9
100
AcDbSymbolTableRecord
100
AcDbLinetypeTableRecord
  2
DASHED
 70
64
  3
- - - - - - - - - - - - - - - - - - - -
 72
65
 73
2
 40
0.2
 49
0.1
 74
0
 49
-0.1
 74
0
  0
ENDTAB
  0
TABLE
  2
LAYER
  5
2
100
AcDbSymbolTable
 70
36
  0
LAYER
  5
10
100
AcDbSymbolTableRecord
100
AcDbLayerTableRecord
  2
0
 70
0
 62
7
  6
CONTINUOUS
370
-3
390
F
  0
LAYER
  5
1FA
100
AcDbSymbolTableRecord
100
AcDbLayerTableRecord
  2
DEFAULT_1
 70
0
 62
7
  6
CENTER
370
-3
390
F
  0
LAYER
  5
1FB
100
AcDbSymbolTableRecord
100
AcDbLayerTableRecord
  2
DEFAULT_2
 70
0
 62
7
  6
HIDDEN
370
-3
390
F
  0
LAYER
  5
1FC
100
AcDbSymbolTableRecord
100
AcDbLayerTableRecord
  2
DEFAULT_3
 70
0
 62
7
  6
PHANTOM
370
-3
390
F
  0
LAYER
  5
1FD
100
AcDbSymbolTableRecord
100
AcDbLayerTableRecord
  2
00_COMPONENTS
 70
0
 62
7
  6
CONTINUOUS
370
-3
390
F
  0
LAYER
  5
1FE
100
AcDbSymbolTableRecord
100
AcDbLayerTableRecord
  2
01_1_DEFAULT_DATUMS
 70
0
 62
7
  6
CONTINUOUS
370
-3
390
F
  0
LAYER
  5
1FF
100
AcDbSymbolTableRecord
100
AcDbLayerTableRecord
  2
01_PLANES
 70
0
 62
7
  6
CONTINUOUS
370
-3
390
F
  0
LAYER
  5
200
100
AcDbSymbolTableRecord
100
AcDbLayerTableRecord
  2
02_COORD_SYS
 70
0
 62
7
  6
CONTINUOUS
370
-3
390
F
  0
LAYER
  5
201
100
AcDbSymbolTableRecord
100
AcDbLayerTableRecord
  2
03_AXES
 70
0
 62
7
  6
CONTINUOUS
370
-3
390
F
  0
LAYER
  5
202
100
AcDbSymbolTableRecord
100
AcDbLayerTableRecord
  2
04_POINTS
 70
0
 62
7
  6
CONTINUOUS
370
-3
390
F
  0
LAYER
  5
203
100
AcDbSymbolTableRecord
100
AcDbLayerTableRecord
  2
05_CURVES
 70
0
 62
7
  6
CONTINUOUS
370
-3
390
F
  0
LAYER
  5
204
100
AcDbSymbolTableRecord
100
AcDbLayerTableRecord
  2
06_SURFS
 70
0
 62
7
  6
CONTINUOUS
370
-3
390
F
  0
LAYER
  5
205
100
AcDbSymbolTableRecord
100
AcDbLayerTableRecord
  2
07_COSMETICS
 70
0
 62
7
  6
CONTINUOUS
370
-3
390
F
  0
LAYER
  5
206
100
AcDbSymbolTableRecord
100
AcDbLayerTableRecord
  2
10_NOTES
 70
0
 62
7
  6
CONTINUOUS
370
-3
390
F
  0
LAYER
  5
207
100
AcDbSymbolTableRecord
100
AcDbLayerTableRecord
  2
11_NOTES_PUB
 70
0
 62
7
  6
CONTINUOUS
370
-3
390
F
  0
LAYER
  5
208
100
AcDbSymbolTableRecord
100
AcDbLayerTableRecord
  2
13_REF_GTOL
 70
0
 62
7
  6
CONTINUOUS
370
-3
390
F
  0
LAYER
  5
209
100
AcDbSymbolTableRecord
100
AcDbLayerTableRecord
  2
16_MISC
 70
0
 62
7
  6
CONTINUOUS
370
-3
390
F
  0
LAYER
  5
20A
100
AcDbSymbolTableRecord
100
AcDbLayerTableRecord
  2
17_NO_PRINT
 70
0
 62
7
  6
CONTINUOUS
370
-3
390
F
  0
LAYER
  5
20B
100
AcDbSymbolTableRecord
100
AcDbLayerTableRecord
  2
18_DATUM_CAMS_JOINTS
 70
0
 62
7
  6
CONTINUOUS
370
-3
390
F
  0
LAYER
  5
20C
100
AcDbSymbolTableRecord
100
AcDbLayerTableRecord
  2
19_DATUM_FUNCTIONAL
 70
0
 62
7
  6
CONTINUOUS
370
-3
390
F
  0
LAYER
  5
20D
100
AcDbSymbolTableRecord
100
AcDbLayerTableRecord
  2
20_DATUM_KINEMATIC_SCHEME
 70
0
 62
7
  6
CONTINUOUS
370
-3
390
F
  0
ENDTAB
  0
TABLE
  2
STYLE
  5
3
100
AcDbSymbolTable
 70
1
  0
STYLE
  5
11
100
AcDbSymbolTableRecord
100
AcDbTextStyleTableRecord
  2
STANDARD
 70
0
 40
0.0
 41
1.0
 50
0.0
 71
0
 42
0.2
  3
ARIAL.TTF
  4

  0
STYLE
  5
20E
100
AcDbSymbolTableRecord
100
AcDbTextStyleTableRecord
  2
TEXTSTYLE_1
 70
0
 40
0.0
 41
0.8
 50
0.0
 71
0
 42
0.2
  3
gdt
  4

  0
ENDTAB
  0
TABLE
  2
VIEW
  5
6
100
AcDbSymbolTable
 70
0
  0
ENDTAB
  0
TABLE
  2
UCS
  5
7
100
AcDbSymbolTable
 70
0
  0
ENDTAB
  0
TABLE
  2
APPID
  5
9
100
AcDbSymbolTable
 70
1
  0
APPID
  5
20F
100
AcDbSymbolTableRecord
100
AcDbRegAppTableRecord
  2
ACAD
 70
0
  0
ENDTAB
  0
TABLE
  2
BLOCK_RECORD
  5
1
100
AcDbSymbolTable
 70
0
  0
BLOCK_RECORD
  5
210
100
AcDbSymbolTableRecord
100
AcDbBlockTableRecord
  2
*Model_Space
  0
BLOCK_RECORD
  5
211
100
AcDbSymbolTableRecord
100
AcDbBlockTableRecord
  2
*Paper_Space
  0
BLOCK_RECORD
  5
212
100
AcDbSymbolTableRecord
100
AcDbBlockTableRecord
  2
_FILLED
  0
ENDTAB
  0
TABLE
  2
DIMSTYLE
  5
A
100
AcDbSymbolTable
 70
1
100
AcDbDimStyleTable
 71
0
  0
DIMSTYLE
105
213
100
AcDbSymbolTableRecord
100
AcDbDimStyleTableRecord
  2
STANDARD
 70
0
  3

  4

 40
1.0
 41
0.7653963468
 42
1.0
 43
0.38
 44
1.0
 45
0.0
 46
0.0
 47
0.01
 48
0.01
140
1.0715548856
141
0.09
142
0.0
143
25.4
144
1.0
145
0.0
146
1.0
147
0.625
 71
1
 72
0
 73
0
 74
0
 75
0
 76
0
 77
1
 78
8
 79
2
170
0
171
1
172
0
173
0
174
0
175
0
176
0
177
0
178
0
270
2
179
2
271
2
272
2
273
2
274
2
275
0
280
0
281
0
282
0
283
1
284
8
285
0
286
0
287
3
288
0
340
11
278
46
341
212
342
212
343
212
344
212
  0
ENDTAB
  0
ENDSEC
  0
SECTION
  2
BLOCKS
  0
BLOCK
  5
20
100
AcDbEntity
  8
0
100
AcDbBlockBegin
  2
*Model_Space
 70
0
 10
0.0
 20
0.0
 30
0.0
  3
*Model_Space
  1

  0
ENDBLK
  5
21
100
AcDbEntity
  8
0
100
AcDbBlockEnd
  0
BLOCK
  5
1C
100
AcDbEntity
  8
0
100
AcDbBlockBegin
  2
*Paper_Space
 70
0
 10
0.0
 20
0.0
 30
0.0
  3
*Paper_Space
  1

  0
ENDBLK
  5
1D
100
AcDbEntity
  8
0
100
AcDbBlockEnd
  0
BLOCK
  5
214
100
AcDbEntity
  8
0
100
AcDbBlockBegin
  2
_FILLED
 70
64
 10
0.0
 20
0.0
  3
_FILLED
  1

  0
SOLID
  5
215
100
AcDbEntity
  8
0
  6
BYBLOCK
 62
0
100
AcDbTrace
 10
0.0
 20
0.0
 11
-1.0
 21
0.25
 12
-1.0
 22
-0.25
 13
-1.0
 23
-0.25
  0
ENDBLK
  5
216
100
AcDbEntity
  8
0
  6
BYBLOCK
 62
0
100
AcDbBlockEnd
  0
ENDSEC
  0
SECTION
  2
ENTITIES
  0
LINE
  5
217
100
AcDbEntity
  8
0
100
AcDbLine
 62
7
  6
BYLAYER
 10
36.3033455238
 20
66.0724863557
 11
36.2956039801
 21
66.0680168001
  0
LINE
  5
218
100
AcDbEntity
  8
0
100
AcDbLine
 62
7
  6
BYLAYER
 10
45.0426187553
 20
68.891484165
 11
45.0285817314
 21
68.8833799339
  0
LINE
  5
219
100
AcDbEntity
  8
0
100
AcDbLine
 62
7
  6
BYLAYER
 10
39.7760970689
 20
65.8508746017
 11
39.762060045
 21
65.8427703705
  0
LINE
  5
21A
100
AcDbEntity
  8
0
100
AcDbLine
 62
7
  6
BYLAYER
 10
34.3066792068
 20
55.5059920595
 11
34.6610944632
 21
55.7106125817
  0
LINE
  5
21B
100
AcDbEntity
  8
0
100
AcDbLine
 62
7
  6
BYLAYER
 10
40.2017167356
 20
58.8364774154
 11
44.6029620647
 21
61.3775224229
  0
LINE
  5
21C
100
AcDbEntity
  8
0
100
AcDbLine
 62
7
  6
BYLAYER
 10
36.7608665335
 20
54.0890984002
 11
37.0450282795
 21
54.2531582814
  0
LINE
  5
21D
100
AcDbEntity
  8
0
100
AcDbLine
 62
7
  6
BYLAYER
 10
39.8694825159
 20
54.2696203667
 11
43.8745316967
 21
56.5819227867
  0
LWPOLYLINE
  5
21E
100
AcDbEntity
  8
0
100
AcDbPolyline
 62
7
  6
BYLAYER
 90
3
 70
0
 10
34.1132359119
 20
48.1109098289
 10
33.5774402753
 20
47.5067157535
 10
33.398593614
 20
46.7299717004
  0
LWPOLYLINE
  5
21F
100
AcDbEntity
  8
0
100
AcDbPolyline
 62
7
  6
BYLAYER
 90
3
 70
0
 10
28.1033252992
 20
70.8817790648
 10
28.4126144971
 20
69.2398737479
 10
28.7021536346
 20
68.9052685321
  0
LINE
  5
220
100
AcDbEntity
  8
0
100
AcDbLine
 62
7
  6
BYLAYER
 10
33.2373557437
 20
56.1233522822
 11
32.6363179136
 21
65.7013871561
  0
LINE
  5
221
100
AcDbEntity
  8
0
100
AcDbLine
 62
7
  6
BYLAYER
 10
33.6655676812
 20
65.7226344104
 11
34.3066792068
 21
55.5059920595
  0
LINE
  5
222
100
AcDbEntity
  8
0
100
AcDbLine
 62
7
  6
BYLAYER
 10
34.6610944632
 20
55.7106125817
 11
34.0970884153
 21
64.6985153792
  0
LINE
  5
223
100
AcDbEntity
  8
0
100
AcDbLine
 62
7
  6
BYLAYER
 10
33.3985913981
 20
46.3217204917
 11
33.3985913981
 21
46.7299717003
  0
LINE
  5
224
100
AcDbEntity
  8
0
100
AcDbLine
 62
7
  6
BYLAYER
 10
33.8415706184
 20
55.3672517731
 11
33.8415706184
 21
55.7745165534
  0
LINE
  5
225
100
AcDbEntity
  8
0
100
AcDbLine
 62
7
  6
BYLAYER
 10
34.1132359119
 20
46.750383738
 11
34.1132359119
 21
53.8878996686
  0
LINE
  5
226
100
AcDbEntity
  8
0
100
AcDbLine
 62
7
  6
BYLAYER
 10
34.2834051776
 20
44.1055994078
 11
33.5936211805
 21
45.5112239783
  0
LINE
  5
227
100
AcDbEntity
  8
0
100
AcDbLine
 62
7
  6
BYLAYER
 10
32.2120778152
 20
57.3121668436
 11
30.8188877376
 21
65.8806402909
  0
LINE
  5
228
100
AcDbEntity
  8
0
100
AcDbLine
 62
7
  6
BYLAYER
 10
31.0222145427
 20
66.0586693535
 11
32.5020850789
 21
56.9570890319
  0
LINE
  5
229
100
AcDbEntity
  8
0
100
AcDbLine
 62
7
  6
BYLAYER
 10
35.7090715443
 20
54.6963387828
 11
35.0460433082
 21
65.2622420398
  0
LINE
  5
22A
100
AcDbEntity
  8
0
100
AcDbLine
 62
7
  6
BYLAYER
 10
36.0978382974
 20
64.6550016573
 11
36.7608665335
 21
54.0890984002
  0
LINE
  5
22B
100
AcDbEntity
  8
0
100
AcDbLine
 62
7
  6
BYLAYER
 10
37.0450282795
 20
54.2531582814
 11
36.3033455238
 21
66.0724863557
  0
LINE
  5
22C
100
AcDbEntity
  8
0
100
AcDbLine
 62
7
  6
BYLAYER
 10
36.1632359119
 20
42.591872696
 11
36.1632359119
 21
8.3747701329
  0
LINE
  5
22D
100
AcDbEntity
  8
0
100
AcDbLine
 62
7
  6
BYLAYER
 10
36.4674147518
 20
54.2585190325
 11
36.4674147518
 21
53.8512542523
  0
LINE
  5
22E
100
AcDbEntity
  8
0
100
AcDbLine
 62
7
  6
BYLAYER
 10
37.3164441545
 20
54.1435343633
 11
37.6376954013
 21
58.693257831
  0
LINE
  5
22F
100
AcDbEntity
  8
0
100
AcDbLine
 62
7
  6
BYLAYER
 10
43.543343303
 20
56.0626146405
 11
43.1849182407
 21
55.3672742318
  0
LINE
  5
230
100
AcDbEntity
  8
0
100
AcDbLine
 62
7
  6
BYLAYER
 10
34.1735354176
 20
53.6797855602
 11
33.5113665314
 21
55.965155659
  0
LINE
  5
231
100
AcDbEntity
  8
0
100
AcDbLine
 62
7
  6
BYLAYER
 10
37.6376954013
 20
58.693257831
 11
37.1972936561
 21
65.7114238465
  0
LINE
  5
232
100
AcDbEntity
  8
0
100
AcDbLine
 62
7
  6
BYLAYER
 10
39.762060045
 20
65.8427703705
 11
40.2017167356
 21
58.8364774154
  0
LINE
  5
233
100
AcDbEntity
  8
0
100
AcDbLine
 62
7
  6
BYLAYER
 10
40.559095972
 20
53.8512640874
 11
40.559095972
 21
54.6677665046
  0
LINE
  5
234
100
AcDbEntity
  8
0
100
AcDbLine
 62
7
  6
BYLAYER
 10
40.8632359119
 20
42.5737635255
 11
40.8632359119
 21
8.3747701329
  0
LINE
  5
235
100
AcDbEntity
  8
0
100
AcDbLine
 62
7
  6
BYLAYER
 10
40.1915059957
 20
58.8302805905
 11
39.8694825159
 21
54.2696203667
  0
LINE
  5
236
100
AcDbEntity
  8
0
100
AcDbLine
 62
7
  6
BYLAYER
 10
42.8529364061
 20
53.6797855602
 11
43.543343303
 21
56.0626146405
  0
LINE
  5
237
100
AcDbEntity
  8
0
100
AcDbLine
 62
7
  6
BYLAYER
 10
44.2905844654
 20
56.9342512711
 11
44.4479990362
 21
57.2908285295
  0
LINE
  5
238
100
AcDbEntity
  8
0
100
AcDbLine
 62
7
  6
BYLAYER
 10
42.9132359119
 20
46.750383738
 11
42.9132359119
 21
53.8878996686
  0
LINE
  5
239
100
AcDbEntity
  8
0
100
AcDbLine
 62
7
  6
BYLAYER
 10
43.1849182407
 20
56.1837766489
 11
43.1849182407
 21
55.3672742318
  0
LINE
  5
23A
100
AcDbEntity
  8
0
100
AcDbLine
 62
7
  6
BYLAYER
 10
43.6985913981
 20
46.3217204917
 11
43.6985913981
 21
46.7299717003
  0
LINE
  5
23B
100
AcDbEntity
  8
0
100
AcDbLine
 62
7
  6
BYLAYER
 10
44.6029620647
 20
61.3775224229
 11
45.0426187553
 21
68.891484165
  0
LINE
  5
23C
100
AcDbEntity
  8
0
100
AcDbLine
 62
7
  6
BYLAYER
 10
45.1810965768
 20
62.0554215713
 11
45.187703505
 21
62.1177830387
  0
LINE
  5
23D
100
AcDbEntity
  8
0
100
AcDbLine
 62
7
  6
BYLAYER
 10
43.8745316967
 20
56.5819227867
 11
44.6130996652
 21
61.3830736477
  0
LINE
  5
23E
100
AcDbEntity
  8
0
100
AcDbLine
 62
7
  6
BYLAYER
 10
44.4481513678
 20
57.290820835
 11
45.1810964638
 21
62.0554195299
  0
LINE
  5
23F
100
AcDbEntity
  8
0
100
AcDbLine
 62
7
  6
BYLAYER
 10
43.6985913981
 20
46.3217204917
 11
43.5035616158
 21
45.5112239783
  0
LINE
  5
240
100
AcDbEntity
  8
0
100
AcDbLine
 62
7
  6
BYLAYER
 10
42.8137776186
 20
44.1055994078
 11
43.5035616158
 21
45.5112239783
  0
LINE
  5
241
100
AcDbEntity
  8
0
100
AcDbLine
 62
7
  6
BYLAYER
 10
37.3164441545
 20
54.1435343633
 11
37.0450282795
 21
54.2531582814
  0
LINE
  5
242
100
AcDbEntity
  8
0
100
AcDbLine
 62
7
  6
BYLAYER
 10
36.7608665335
 20
54.0890984002
 11
35.7090715443
 21
54.6963387828
  0
LINE
  5
243
100
AcDbEntity
  8
0
100
AcDbLine
 62
7
  6
BYLAYER
 10
34.3066792068
 20
55.5059920595
 11
33.2373557437
 21
56.1233522822
  0
LINE
  5
244
100
AcDbEntity
  8
0
100
AcDbLine
 62
7
  6
BYLAYER
 10
35.6824258491
 20
55.1209599709
 11
34.6610944632
 21
55.7106125817
  0
LINE
  5
245
100
AcDbEntity
  8
0
100
AcDbLine
 62
7
  6
BYLAYER
 10
32.5020850789
 20
56.9570890319
 11
33.2107100486
 21
56.5479734703
  0
LINE
  5
246
100
AcDbEntity
  8
0
100
AcDbLine
 62
7
  6
BYLAYER
 10
45.6297008891
 20
69.6717484506
 11
45.1877042951
 21
62.1177965417
  0
LINE
  5
247
100
AcDbEntity
  8
0
100
AcDbLine
 62
7
  6
BYLAYER
 10
21.1703223364
 20
71.2536291648
 11
27.8878647253
 21
67.3753419969
  0
LWPOLYLINE
  5
248
100
AcDbEntity
  8
0
100
AcDbPolyline
 62
7
  6
BYLAYER
 90
5
 70
0
 10
30.4526554198
 20
66.4719399244
 10
30.4906059961
 20
66.4467656824
 10
30.5742134177
 20
66.373860646
 10
30.7751248428
 20
66.0499904936
 10
30.8187373137
 20
65.8815692668
  0
LINE
  5
249
100
AcDbEntity
  8
0
100
AcDbLine
 62
7
  6
BYLAYER
 10
31.0222145427
 20
66.0586693535
 11
32.673730429
 21
65.1051877826
  0
LINE
  5
24A
100
AcDbEntity
  8
0
100
AcDbLine
 62
7
  6
BYLAYER
 10
30.1885250996
 20
66.6244321629
 11
30.4525942728
 21
66.4719752037
  0
LINE
  5
24B
100
AcDbEntity
  8
0
100
AcDbLine
 62
7
  6
BYLAYER
 10
30.9105255016
 20
66.3807447727
 11
32.6408607447
 21
65.3817578545
  0
LINE
  5
24C
100
AcDbEntity
  8
0
100
AcDbLine
 62
7
  6
BYLAYER
 10
35.0460433082
 20
65.2622420398
 11
36.0978382974
 21
64.6550016573
  0
LINE
  5
24D
100
AcDbEntity
  8
0
100
AcDbLine
 62
7
  6
BYLAYER
 10
36.3033455238
 20
66.0724863557
 11
37.1972936561
 21
65.7114238465
  0
LINE
  5
24E
100
AcDbEntity
  8
0
100
AcDbLine
 62
7
  6
BYLAYER
 10
37.2147315668
 20
65.7214915689
 11
36.1509479686
 21
66.1515320979
  0
LINE
  5
24F
100
AcDbEntity
  8
0
100
AcDbLine
 62
7
  6
BYLAYER
 10
36.2956039801
 20
66.0680168001
 11
36.1509479686
 21
66.1515320979
  0
LINE
  5
250
100
AcDbEntity
  8
0
100
AcDbLine
 62
7
  6
BYLAYER
 10
44.4076542418
 20
72.7211043472
 11
40.9892107757
 21
75.8293155283
  0
LWPOLYLINE
  5
251
100
AcDbEntity
  8
0
100
AcDbPolyline
 62
7
  6
BYLAYER
 90
7
 70
0
 10
34.2982459901
 20
78.4489896065
 10
33.793228395
 20
78.5468338693
 10
32.2221675837
 20
78.0006195943
 10
30.6454147281
 20
76.7288375947
 10
29.3108381624
 20
74.9295499345
 10
28.4197228411
 20
72.8793204497
 10
28.1033252992
 20
70.8817790648
  0
LINE
  5
252
100
AcDbEntity
  8
0
100
AcDbLine
 62
7
  6
BYLAYER
 10
36.9384105721
 20
78.3158412357
 11
40.0232168287
 21
76.534867804
  0
LINE
  5
253
100
AcDbEntity
  8
0
100
AcDbLine
 62
7
  6
BYLAYER
 10
35.1378345406
 20
79.9327277779
 11
28.4202921517
 21
83.8110149459
  0
ARC
  5
254
100
AcDbEntity
  8
0
100
AcDbCircle
 62
7
  6
BYLAYER
 10
37.227276176
 20
71.6927944044
 40
5.5913289065
100
AcDbArc
 50
47.7152329182
 51
59.9967318125
  0
ARC
  5
255
100
AcDbEntity
  8
0
100
AcDbCircle
 62
7
  6
BYLAYER
 10
37.6071186877
 20
46.7975393705
 40
4.3909841129
100
AcDbArc
 50
240.0350538714
 51
242.8794759859
  0
ARC
  5
256
100
AcDbEntity
  8
0
100
AcDbCircle
 62
7
  6
BYLAYER
 10
37.6554126255
 20
46.4092934782
 40
4.1647749226
100
AcDbArc
 50
236.6528756123
 51
240.0112984994
  0
ARC
  5
257
100
AcDbEntity
  8
0
100
AcDbCircle
 62
7
  6
BYLAYER
 10
34.7005366219
 20
67.0835404113
 40
2.6717650701
100
AcDbArc
 50
213.8066149117
 51
219.5648127728
  0
ARC
  5
258
100
AcDbEntity
  8
0
100
AcDbCircle
 62
7
  6
BYLAYER
 10
33.9499706998
 20
67.6518292001
 40
2.6204947936
100
AcDbArc
 50
240.0287323373
 51
240.4347177366
  0
ARC
  5
259
100
AcDbEntity
  8
0
100
AcDbCircle
 62
7
  6
BYLAYER
 10
35.2163205768
 20
46.7463757069
 40
1.8192029269
100
AcDbArc
 50
193.2843047341
 51
195.0133441982
  0
ARC
  5
25A
100
AcDbEntity
  8
0
100
AcDbCircle
 62
7
  6
BYLAYER
 10
41.9492551033
 20
46.7320666073
 40
1.7493170443
100
AcDbArc
 50
347.0104109749
 51
359.9313849949
  0
ARC
  5
25B
100
AcDbEntity
  8
0
100
AcDbCircle
 62
7
  6
BYLAYER
 10
44.9464966775
 20
69.6997570688
 40
0.6678498338
100
AcDbArc
 50
358.0953575689
 51
0.0089521357
  0
ARC
  5
25C
100
AcDbEntity
  8
0
100
AcDbCircle
 62
7
  6
BYLAYER
 10
32.3423350232
 20
65.1348147671
 40
0.3874257505
100
AcDbArc
 50
34.9414766413
 51
39.5978600951
  0
SPLINE
  5
25D
100
AcDbEntity
  8
0
100
AcDbSpline
 62
7
  6
BYLAYER
 70
0
 71
3
 72
33
 73
29
 74
0
 42
0.0000001
 43
0.0000001
 44
0.0000000001
 40
0.0
 40
0.0
 40
0.0
 40
0.0
 40
0.0225189782
 40
0.0454848166
 40
0.0692543748
 40
0.0941483449
 40
0.1204141122
 40
0.1482029197
 40
0.1775922834
 40
0.208588677
 40
0.241145251
 40
0.2751599797
 40
0.3469357906
 40
0.4224861524
 40
0.5000022356
 40
0.5775178628
 40
0.6530669451
 40
0.7248411622
 40
0.7588552172
 40
0.7914112111
 40
0.8224072423
 40
0.8517963941
 40
0.8795851172
 40
0.9058508191
 40
0.9307448496
 40
0.9545147234
 40
0.9774809036
 40
1.0
 40
1.0
 40
1.0
 40
1.0
 10
21.1703223364
 20
71.2536291648
 30
0.0
 10
21.0515171768
 20
71.3222233168
 30
0.0
 10
20.8230505127
 20
71.4817772134
 30
0.0
 10
20.5209613783
 20
71.7788577342
 30
0.0
 10
20.2612567912
 20
72.1316695633
 30
0.0
 10
20.0462025929
 20
72.5359506917
 30
0.0
 10
19.877601118
 20
72.9877052548
 30
0.0
 10
19.7564784775
 20
73.4824720557
 30
0.0
 10
19.6840510016
 20
74.0156136696
 30
0.0
 10
19.660594182
 20
74.5820734361
 30
0.0
 10
19.6864511573
 20
75.1765535603
 30
0.0
 10
19.7878685475
 20
76.0139313899
 30
0.0
 10
20.0389849675
 20
77.0934697332
 30
0.0
 10
20.5129361509
 20
78.3818597023
 30
0.0
 10
21.147356241
 20
79.6385253894
 30
0.0
 10
21.9184404874
 20
80.816279407
 30
0.0
 10
22.7972248853
 20
81.8709171113
 30
0.0
 10
23.6065548952
 20
82.6281484087
 30
0.0
 10
24.2810198016
 20
83.1346609445
 30
0.0
 10
24.7829167354
 20
83.4542903519
 30
0.0
 10
25.2852064397
 20
83.717204731
 30
0.0
 10
25.783130511
 20
83.921050505
 30
0.0
 10
26.2721705312
 20
84.0635371987
 30
0.0
 10
26.7477017676
 20
84.143401193
 30
0.0
 10
27.2053487869
 20
84.1592948888
 30
0.0
 10
27.6407489656
 20
84.1107833294
 30
0.0
 10
28.0490747125
 20
83.9976958599
 30
0.0
 10
28.3014863688
 20
83.8796094578
 30
0.0
 10
28.4202921517
 20
83.8110149459
 30
0.0
  0
SPLINE
  5
25E
100
AcDbEntity
  8
0
100
AcDbSpline
 62
7
  6
BYLAYER
 70
0
 71
3
 72
11
 73
7
 74
0
 42
0.0000001
 43
0.0000001
 44
0.0000000001
 40
0.0
 40
0.0
 40
0.0
 40
0.0
 40
0.237847902
 40
0.4810323056
 40
0.7338348668
 40
1.0
 40
1.0
 40
1.0
 40
1.0
 10
27.8878647253
 20
67.3753419969
 30
0.0
 10
28.0150247688
 20
67.3019240124
 30
0.0
 10
28.2865115525
 20
67.1769134576
 30
0.0
 10
28.7272892466
 20
67.0631345226
 30
0.0
 10
29.1981261491
 20
67.0234967834
 30
0.0
 10
29.5190363679
 20
67.0456026403
 30
0.0
 10
29.681853611
 20
67.0677315147
 30
0.0
  0
SPLINE
  5
25F
100
AcDbEntity
  8
0
100
AcDbSpline
 62
7
  6
BYLAYER
 70
0
 71
3
 72
11
 73
7
 74
0
 42
0.0000001
 43
0.0000001
 44
0.0000000001
 40
0.0
 40
0.0
 40
0.0
 40
0.0
 40
0.2665194325
 40
0.5193915552
 40
0.7624247964
 40
1.0
 40
1.0
 40
1.0
 40
1.0
 10
36.3110914143
 20
78.5084652613
 30
0.0
 10
36.2489720786
 20
78.663337125
 30
0.0
 10
36.1074910626
 20
78.957610495
 30
0.0
 10
35.8358965329
 20
79.3526717748
 30
0.0
 10
35.5137230964
 20
79.6831192411
 30
0.0
 10
35.2666495285
 20
79.8583542835
 30
0.0
 10
35.1378345406
 20
79.9327277779
 30
0.0
  0
SPLINE
  5
260
100
AcDbEntity
  8
0
100
AcDbSpline
 62
7
  6
BYLAYER
 70
0
 71
3
 72
9
 73
5
 74
0
 42
0.0000001
 43
0.0000001
 44
0.0000000001
 40
0.0
 40
0.0
 40
0.0
 40
0.0
 40
0.2480293636
 40
1.0
 40
1.0
 40
1.0
 40
1.0
 10
43.6083840846
 20
56.4200922656
 30
0.0
 10
43.6061165192
 20
56.3901074104
 30
0.0
 10
43.5937952239
 20
56.2694711652
 30
0.0
 10
43.5687118621
 20
56.1501814448
 30
0.0
 10
43.543345437
 20
56.0626144345
 30
0.0
  0
SPLINE
  5
261
100
AcDbEntity
  8
0
100
AcDbSpline
 62
7
  6
BYLAYER
 70
0
 71
3
 72
12
 73
8
 74
0
 42
0.0000001
 43
0.0000001
 44
0.0000000001
 40
0.0
 40
0.0
 40
0.0
 40
0.0
 40
0.1081687214
 40
0.218372326
 40
0.451329124
 40
0.7105247451
 40
1.0
 40
1.0
 40
1.0
 40
1.0
 10
40.8632251069
 20
8.3747701598
 30
0.0
 10
40.863219028
 20
8.330280045
 30
0.0
 10
40.8554326674
 20
8.2402820083
 30
0.0
 10
40.8087357583
 20
8.0598590685
 30
0.0
 10
40.6887194671
 20
7.8385623261
 30
0.0
 10
40.465127356
 20
7.6038505862
 30
0.0
 10
40.2780546614
 20
7.4749351077
 30
0.0
 10
40.174943766
 20
7.4154043598
 30
0.0
  0
SPLINE
  5
262
100
AcDbEntity
  8
0
100
AcDbSpline
 62
7
  6
BYLAYER
 70
0
 71
3
 72
10
 73
6
 74
0
 42
0.0000001
 43
0.0000001
 44
0.0000000001
 40
0.0
 40
0.0
 40
0.0
 40
0.0
 40
0.5094381349
 40
0.7561958963
 40
1.0
 40
1.0
 40
1.0
 40
1.0
 10
35.3659939383
 20
42.9302257538
 30
0.0
 10
35.1370798211
 20
43.0810526404
 30
0.0
 10
34.818066928
 20
43.3419829197
 30
0.0
 10
34.4769473724
 20
43.7599015964
 30
0.0
 10
34.341202157
 20
43.9878221694
 30
0.0
 10
34.2834051776
 20
44.1055994078
 30
0.0
  0
SPLINE
  5
263
100
AcDbEntity
  8
0
100
AcDbSpline
 62
7
  6
BYLAYER
 70
0
 71
3
 72
17
 73
13
 74
0
 42
0.0000001
 43
0.0000001
 44
0.0000000001
 40
0.0
 40
0.0
 40
0.0
 40
0.0
 40
0.0545065928
 40
0.1097733122
 40
0.1664116775
 40
0.2247907135
 40
0.3473434595
 40
0.4773829916
 40
0.6119466085
 40
0.7466420922
 40
0.8769992705
 40
1.0
 40
1.0
 40
1.0
 40
1.0
 10
42.8137776186
 20
44.1055994078
 30
0.0
 10
42.7493955543
 20
43.9744032479
 30
0.0
 10
42.5956039472
 20
43.7214355869
 30
0.0
 10
42.3040564196
 20
43.3815448864
 30
0.0
 10
41.9591525081
 20
43.0802125586
 30
0.0
 10
41.4290777381
 20
42.7245078077
 30
0.0
 10
40.6620221887
 20
42.3816943075
 30
0.0
 10
39.6490760356
 20
42.1348451317
 30
0.0
 10
38.5776430873
 20
42.0487989434
 30
0.0
 10
37.5046766615
 20
42.1261492987
 30
0.0
 10
36.4873551597
 20
42.3642541921
 30
0.0
 10
35.8593420852
 20
42.6371912666
 30
0.0
 10
35.5737364514
 20
42.8020820258
 30
0.0
  0
SPLINE
  5
264
100
AcDbEntity
  8
0
100
AcDbSpline
 62
7
  6
BYLAYER
 70
0
 71
3
 72
9
 73
5
 74
0
 42
0.0000001
 43
0.0000001
 44
0.0000000001
 40
0.0
 40
0.0
 40
0.0
 40
0.0
 40
0.5089710499
 40
1.0
 40
1.0
 40
1.0
 40
1.0
 10
33.5936564256
 20
45.5112297429
 30
0.0
 10
33.5309405009
 20
45.6390425974
 30
0.0
 10
33.4327471668
 20
45.9036795334
 30
0.0
 10
33.3986190496
 20
46.1843686146
 30
0.0
 10
33.3986038059
 20
46.3217204922
 30
0.0
  0
SPLINE
  5
265
100
AcDbEntity
  8
0
100
AcDbSpline
 62
7
  6
BYLAYER
 70
0
 71
3
 72
11
 73
7
 74
0
 42
0.0000001
 43
0.0000001
 44
0.0000000001
 40
0.0
 40
0.0
 40
0.0
 40
0.0
 40
0.2309121218
 40
0.4702666472
 40
0.7250120515
 40
1.0
 40
1.0
 40
1.0
 40
1.0
 10
43.6985708933
 20
46.7299716996
 30
0.0
 10
43.6985571978
 20
46.867311352
 30
0.0
 10
43.6643898439
 20
47.1480787936
 30
0.0
 10
43.5132454522
 20
47.5555675662
 30
0.0
 10
43.2673168542
 20
47.9446210408
 30
0.0
 10
43.0527266947
 20
48.1776090206
 30
0.0
 10
42.93338754
 20
48.2894494745
 30
0.0
  0
SPLINE
  5
266
100
AcDbEntity
  8
0
100
AcDbSpline
 62
7
  6
BYLAYER
 70
0
 71
3
 72
12
 73
8
 74
0
 42
0.0000001
 43
0.0000001
 44
0.0000000001
 40
0.0
 40
0.0
 40
0.0
 40
0.0
 40
0.2493763908
 40
0.3738758289
 40
0.4985330544
 40
0.7481824659
 40
1.0
 40
1.0
 40
1.0
 40
1.0
 10
44.4076542418
 20
72.7211043472
 30
0.0
 10
44.568294446
 20
72.5750426428
 30
0.0
 10
44.7881189299
 20
72.3313390798
 30
0.0
 10
45.0304280917
 20
71.9707428716
 30
0.0
 10
45.2395310697
 20
71.5894862503
 30
0.0
 10
45.4382666755
 20
71.079020131
 30
0.0
 10
45.5311195767
 20
70.6505676021
 30
0.0
 10
45.5626564668
 20
70.433606475
 30
0.0
  0
SPLINE
  5
267
100
AcDbEntity
  8
0
100
AcDbSpline
 62
7
  6
BYLAYER
 70
0
 71
3
 72
9
 73
5
 74
0
 42
0.0000001
 43
0.0000001
 44
0.0000000001
 40
0.0
 40
0.0
 40
0.0
 40
0.0
 40
0.2480812963
 40
1.0
 40
1.0
 40
1.0
 40
1.0
 10
45.5626564668
 20
70.433606475
 30
0.0
 10
45.5714104681
 20
70.373382465
 30
0.0
 10
45.6020220412
 20
70.1299564826
 30
0.0
 10
45.6143622811
 20
69.8843148949
 30
0.0
 10
45.6143622811
 20
69.6998614429
 30
0.0
  0
SPLINE
  5
268
100
AcDbEntity
  8
0
100
AcDbSpline
 62
7
  6
BYLAYER
 70
0
 71
3
 72
9
 73
5
 74
0
 42
0.0000001
 43
0.0000001
 44
0.0000000001
 40
0.0
 40
0.0
 40
0.0
 40
0.0
 40
0.2398646133
 40
1.0
 40
1.0
 40
1.0
 40
1.0
 10
35.0357591893
 20
65.4972107735
 30
0.0
 10
35.0357591893
 20
65.5489756929
 30
0.0
 10
35.0416880474
 20
65.7647719066
 30
0.0
 10
35.07004588
 20
65.9797170827
 30
0.0
 10
35.1015875545
 20
66.140700162
 30
0.0
  0
SPLINE
  5
269
100
AcDbEntity
  8
0
100
AcDbSpline
 62
7
  6
BYLAYER
 70
0
 71
3
 72
9
 73
5
 74
0
 42
0.0000001
 43
0.0000001
 44
0.0000000001
 40
0.0
 40
0.0
 40
0.0
 40
0.0
 40
0.2451870601
 40
1.0
 40
1.0
 40
1.0
 40
1.0
 10
35.0460433082
 20
65.2622420398
 30
0.0
 10
35.0443192751
 20
65.2813904091
 30
0.0
 10
35.0382173068
 20
65.3595694099
 30
0.0
 10
35.0357591893
 20
65.4380237132
 30
0.0
 10
35.0357591893
 20
65.4972107735
 30
0.0
  0
SPLINE
  5
26A
100
AcDbEntity
  8
0
100
AcDbSpline
 62
7
  6
BYLAYER
 70
0
 71
3
 72
14
 73
10
 74
0
 42
0.0000001
 43
0.0000001
 44
0.0000000001
 40
0.0
 40
0.0
 40
0.0
 40
0.0
 40
0.1185246646
 40
0.2373359327
 40
0.3574377352
 40
0.4793296654
 40
0.6038474721
 40
0.7317936537
 40
1.0
 40
1.0
 40
1.0
 40
1.0
 10
30.1885250996
 20
66.6244321629
 30
0.0
 10
30.0493162175
 20
66.7048026302
 30
0.0
 10
29.7833826972
 20
66.889216735
 30
0.0
 10
29.4340694147
 20
67.2281545703
 30
0.0
 10
29.1385671054
 20
67.6205350034
 30
0.0
 10
28.8995620869
 20
68.0581763877
 30
0.0
 10
28.7166645304
 20
68.5332806533
 30
0.0
 10
28.5432073031
 20
69.2190664235
 30
0.0
 10
28.4976207719
 20
69.7589902095
 30
0.0
 10
28.4976207719
 20
70.1227328145
 30
0.0
  0
SPLINE
  5
26B
100
AcDbEntity
  8
0
100
AcDbSpline
 62
7
  6
BYLAYER
 70
0
 71
3
 72
15
 73
11
 74
0
 42
0.0000001
 43
0.0000001
 44
0.0000000001
 40
0.0
 40
0.0
 40
0.0
 40
0.0
 40
0.1150433512
 40
0.2360314862
 40
0.3618069027
 40
0.4908522869
 40
0.6212017678
 40
0.7507926725
 40
0.8776278408
 40
1.0
 40
1.0
 40
1.0
 40
1.0
 10
28.4976207719
 20
70.1227328145
 30
0.0
 10
28.4976207719
 20
70.4401819579
 30
0.0
 10
28.545796792
 20
71.0920435806
 30
0.0
 10
28.7425515905
 20
72.0729687237
 30
0.0
 10
29.0587185733
 20
73.0627038072
 30
0.0
 10
29.4848688558
 20
74.0382912017
 30
0.0
 10
30.0101737374
 20
74.9762920456
 30
0.0
 10
30.6213918885
 20
75.8533798535
 30
0.0
 10
31.3037904958
 20
76.647469543
 30
0.0
 10
31.8071044633
 20
77.1186629163
 30
0.0
 10
32.067331588
 20
77.3338473314
 30
0.0
  0
SPLINE
  5
26C
100
AcDbEntity
  8
0
100
AcDbSpline
 62
7
  6
BYLAYER
 70
0
 71
3
 72
9
 73
5
 74
0
 42
0.0000001
 43
0.0000001
 44
0.0000000001
 40
0.0
 40
0.0
 40
0.0
 40
0.0
 40
0.2586249103
 40
1.0
 40
1.0
 40
1.0
 40
1.0
 10
32.067331588
 20
77.3338473314
 30
0.0
 10
32.173278858
 20
77.4214561899
 30
0.0
 10
32.5912952237
 20
77.7497791366
 30
0.0
 10
33.0444452309
 20
78.0348340587
 30
0.0
 10
33.3972433868
 20
78.2104579234
 30
0.0
  0
SPLINE
  5
26D
100
AcDbEntity
  8
0
100
AcDbSpline
 62
7
  6
BYLAYER
 70
0
 71
3
 72
13
 73
9
 74
0
 42
0.0000001
 43
0.0000001
 44
0.0000000001
 40
0.0
 40
0.0
 40
0.0
 40
0.0
 40
0.2654867759
 40
0.5171160839
 40
0.6396072529
 40
0.7604688885
 40
0.8802341898
 40
1.0
 40
1.0
 40
1.0
 40
1.0
 10
33.3972433868
 20
78.2104579234
 30
0.0
 10
33.6894733516
 20
78.3559307806
 30
0.0
 10
34.2838878818
 20
78.5928879612
 30
0.0
 10
35.066297583
 20
78.7282968682
 30
0.0
 10
35.6763978375
 20
78.7165197232
 30
0.0
 10
36.1191019711
 20
78.6480270419
 30
0.0
 10
36.544188075
 20
78.5175551885
 30
0.0
 10
36.8108778608
 20
78.3894706152
 30
0.0
 10
36.9384105721
 20
78.3158412357
 30
0.0
  0
SPLINE
  5
26E
100
AcDbEntity
  8
0
100
AcDbSpline
 62
7
  6
BYLAYER
 70
0
 71
3
 72
19
 73
15
 74
0
 42
0.0000001
 43
0.0000001
 44
0.0000000001
 40
0.0
 40
0.0
 40
0.0
 40
0.0
 40
0.0623913713
 40
0.1288320668
 40
0.2703532864
 40
0.4174438321
 40
0.5617188966
 40
0.6953267151
 40
0.7563201856
 40
0.81280034
 40
0.8647386834
 40
0.912551973
 40
0.957158712
 40
1.0
 40
1.0
 40
1.0
 40
1.0
 10
40.174943766
 20
7.4154043598
 30
0.0
 10
40.0905669365
 20
7.3666896654
 30
0.0
 10
39.9095796228
 20
7.2775253867
 30
0.0
 10
39.5120848203
 20
7.1334020636
 30
0.0
 10
38.9649783516
 20
7.0240088857
 30
0.0
 10
38.2862260463
 20
7.0052794843
 30
0.0
 10
37.6259633315
 20
7.0979753901
 30
0.0
 10
37.1200426987
 20
7.2669650788
 30
0.0
 10
36.7747443015
 20
7.4546579728
 30
0.0
 10
36.5603993535
 20
7.6112944565
 30
0.0
 10
36.3874442394
 20
7.7850087879
 30
0.0
 10
36.2597776663
 20
7.9727007964
 30
0.0
 10
36.1811805134
 20
8.1707375897
 30
0.0
 10
36.1632375758
 20
8.3078695225
 30
0.0
 10
36.1632467168
 20
8.3747701061
 30
0.0
  0
SPLINE
  5
26F
100
AcDbEntity
  8
0
100
AcDbSpline
 62
7
  6
BYLAYER
 70
0
 71
3
 72
9
 73
5
 74
0
 42
0.0000001
 43
0.0000001
 44
0.0000000001
 40
0.0
 40
0.0
 40
0.0
 40
0.0
 40
0.2526499732
 40
1.0
 40
1.0
 40
1.0
 40
1.0
 10
45.6099465394
 20
69.8773365322
 30
0.0
 10
45.6142091773
 20
69.8604339954
 30
0.0
 10
45.628615693
 20
69.7929365558
 30
0.0
 10
45.6326929171
 20
69.7232250906
 30
0.0
 10
45.6296918342
 20
69.6717486012
 30
0.0
  0
SPLINE
  5
270
100
AcDbEntity
  8
0
100
AcDbSpline
 62
7
  6
BYLAYER
 70
0
 71
3
 72
9
 73
5
 74
0
 42
0.0000001
 43
0.0000001
 44
0.0000000001
 40
0.0
 40
0.0
 40
0.0
 40
0.0
 40
0.5093025704
 40
1.0
 40
1.0
 40
1.0
 40
1.0
 10
32.9398300002
 20
65.6518782533
 30
0.0
 10
33.0637961963
 20
65.652536192
 30
0.0
 10
33.307227922
 20
65.6619292614
 30
0.0
 10
33.5491368924
 20
65.6959956875
 30
0.0
 10
33.6655676812
 20
65.7226344104
 30
0.0
  0
SPLINE
  5
271
100
AcDbEntity
  8
0
100
AcDbSpline
 62
7
  6
BYLAYER
 70
0
 71
3
 72
9
 73
5
 74
0
 42
0.0000001
 43
0.0000001
 44
0.0000000001
 40
0.0
 40
0.0
 40
0.0
 40
0.0
 40
0.5102637762
 40
1.0
 40
1.0
 40
1.0
 40
1.0
 10
36.1509479686
 20
66.1515320979
 30
0.0
 10
35.9725390227
 20
66.1591681747
 30
0.0
 10
35.6225326783
 20
66.1666995455
 30
0.0
 10
35.27244385
 20
66.1541956025
 30
0.0
 10
35.1015875545
 20
66.140700162
 30
0.0
  0
SPLINE
  5
272
100
AcDbEntity
  8
0
100
AcDbSpline
 62
7
  6
BYLAYER
 70
0
 71
3
 72
9
 73
5
 74
0
 42
0.0000001
 43
0.0000001
 44
0.0000000001
 40
0.0
 40
0.0
 40
0.0
 40
0.0
 40
0.2548478642
 40
1.0
 40
1.0
 40
1.0
 40
1.0
 10
36.0875541785
 20
64.8899703909
 30
0.0
 10
36.0875541785
 20
64.8699871319
 30
0.0
 10
36.0883851885
 20
64.7915780065
 30
0.0
 10
36.0925987848
 20
64.7131955067
 30
0.0
 10
36.0978382974
 20
64.6550016573
 30
0.0
  0
SPLINE
  5
273
100
AcDbEntity
  8
0
100
AcDbSpline
 62
7
  6
BYLAYER
 70
0
 71
3
 72
9
 73
5
 74
0
 42
0.0000001
 43
0.0000001
 44
0.0000000001
 40
0.0
 40
0.0
 40
0.0
 40
0.0
 40
0.5206583325
 40
1.0
 40
1.0
 40
1.0
 40
1.0
 10
36.2956039801
 20
66.0680168001
 30
0.0
 10
36.2295169246
 20
65.8705004419
 30
0.0
 10
36.1277145207
 20
65.4821055709
 30
0.0
 10
36.0875541785
 20
65.0817216338
 30
0.0
 10
36.0875541785
 20
64.8899703909
 30
0.0
  0
SPLINE
  5
274
100
AcDbEntity
  8
0
100
AcDbSpline
 62
7
  6
BYLAYER
 70
0
 71
3
 72
15
 73
11
 74
0
 42
0.0000001
 43
0.0000001
 44
0.0000000001
 40
0.0
 40
0.0
 40
0.0
 40
0.0
 40
0.1485249588
 40
0.2894986556
 40
0.4227385334
 40
0.5486420441
 40
0.6679931309
 40
0.7819377483
 40
0.8919872751
 40
1.0
 40
1.0
 40
1.0
 40
1.0
 10
33.5634678358
 20
77.9815280149
 30
0.0
 10
33.7156406937
 20
78.0693845309
 30
0.0
 10
34.0195658942
 20
78.2284213096
 30
0.0
 10
34.4831135235
 20
78.418253744
 30
0.0
 10
34.9385035338
 20
78.5509824756
 30
0.0
 10
35.3812467399
 20
78.6252859934
 30
0.0
 10
35.8072959117
 20
78.6400272229
 30
0.0
 10
36.2125905911
 20
78.5949171462
 30
0.0
 10
36.5927629362
 20
78.4897167406
 30
0.0
 10
36.827744498
 20
78.379732868
 30
0.0
 10
36.9384105721
 20
78.3158412357
 30
0.0
  0
SPLINE
  5
275
100
AcDbEntity
  8
0
100
AcDbSpline
 62
7
  6
BYLAYER
 70
0
 71
3
 72
15
 73
11
 74
0
 42
0.0000001
 43
0.0000001
 44
0.0000000001
 40
0.0
 40
0.0
 40
0.0
 40
0.0
 40
0.1141549864
 40
0.2373269314
 40
0.3669770891
 40
0.5000016033
 40
0.6330258946
 40
0.7626754009
 40
0.8858463197
 40
1.0
 40
1.0
 40
1.0
 40
1.0
 10
28.7905169346
 20
69.7144886607
 30
0.0
 10
28.7905169346
 20
70.0917852104
 30
0.0
 10
28.8596215351
 20
70.8769131877
 30
0.0
 10
29.1351116629
 20
72.0613681587
 30
0.0
 10
29.5764345656
 20
73.2611313883
 30
0.0
 10
30.1670995064
 20
74.4310856566
 30
0.0
 10
30.8849706036
 20
75.5275953638
 30
0.0
 10
31.7033265245
 20
76.5096724281
 30
0.0
 10
32.5913403067
 20
77.3404769165
 30
0.0
 10
33.2367226899
 20
77.792882743
 30
0.0
 10
33.5634678358
 20
77.9815280149
 30
0.0
  0
SPLINE
  5
276
100
AcDbEntity
  8
0
100
AcDbSpline
 62
7
  6
BYLAYER
 70
0
 71
3
 72
12
 73
8
 74
0
 42
0.0000001
 43
0.0000001
 44
0.0000000001
 40
0.0
 40
0.0
 40
0.0
 40
0.0
 40
0.108296048
 40
0.2188579929
 40
0.4525914407
 40
0.7116796598
 40
1.0
 40
1.0
 40
1.0
 40
1.0
 10
45.6139775418
 20
69.6775603053
 30
0.0
 10
45.6127634467
 20
69.6410520747
 30
0.0
 10
45.6041768974
 20
69.5673355705
 30
0.0
 10
45.562330784
 20
69.4199504004
 30
0.0
 10
45.4618154306
 20
69.2395597462
 30
0.0
 10
45.2786761885
 20
69.0473172951
 30
0.0
 10
45.1263820807
 20
68.9408548925
 30
0.0
 10
45.0425834084
 20
68.8915039728
 30
0.0
  0
SPLINE
  5
277
100
AcDbEntity
  8
0
100
AcDbSpline
 62
7
  6
BYLAYER
 70
0
 71
3
 72
15
 73
11
 74
0
 42
0.0000001
 43
0.0000001
 44
0.0000000001
 40
0.0
 40
0.0
 40
0.0
 40
0.0
 40
0.110298135
 40
0.2203170917
 40
0.3328436007
 40
0.4503653966
 40
0.5748072085
 40
0.7075185057
 40
0.8492681559
 40
1.0
 40
1.0
 40
1.0
 40
1.0
 10
44.4076451171
 20
72.7210908942
 30
0.0
 10
44.3151654735
 20
72.8051661915
 30
0.0
 10
44.113850751
 20
72.9559849744
 30
0.0
 10
43.7710010249
 20
73.1187740791
 30
0.0
 10
43.3952626208
 20
73.2142146096
 30
0.0
 10
42.9924866116
 20
73.2412133565
 30
0.0
 10
42.5682281143
 20
73.2004041829
 30
0.0
 10
42.1277958259
 20
73.0927851896
 30
0.0
 10
41.676844216
 20
72.9201147207
 30
0.0
 10
41.3816157589
 20
72.7679824756
 30
0.0
 10
41.2336965802
 20
72.6825818078
 30
0.0
  0
SPLINE
  5
278
100
AcDbEntity
  8
0
100
AcDbSpline
 62
7
  6
BYLAYER
 70
0
 71
3
 72
15
 73
11
 74
0
 42
0.0000001
 43
0.0000001
 44
0.0000000001
 40
0.0
 40
0.0
 40
0.0
 40
0.0
 40
0.1080134303
 40
0.2180568662
 40
0.3319827561
 40
0.4513257253
 40
0.5772510444
 40
0.7105178613
 40
0.8514946467
 40
1.0
 40
1.0
 40
1.0
 40
1.0
 10
40.0232092858
 20
76.5348547375
 30
0.0
 10
39.9125332762
 20
76.5987305389
 30
0.0
 10
39.6775747074
 20
76.7087431366
 30
0.0
 10
39.2974254732
 20
76.8139234602
 30
0.0
 10
38.8921765749
 20
76.8590772877
 30
0.0
 10
38.466131766
 20
76.8443134949
 30
0.0
 10
38.0233450209
 20
76.769995031
 30
0.0
 10
37.5678887192
 20
76.6372744276
 30
0.0
 10
37.1043334417
 20
76.4474274138
 30
0.0
 10
36.8004266914
 20
76.2883994035
 30
0.0
 10
36.6482740924
 20
76.2005545833
 30
0.0
  0
SPLINE
  5
279
100
AcDbEntity
  8
0
100
AcDbSpline
 62
7
  6
BYLAYER
 70
0
 71
3
 72
9
 73
5
 74
0
 42
0.0000001
 43
0.0000001
 44
0.0000000001
 40
0.0
 40
0.0
 40
0.0
 40
0.0
 40
0.4946432631
 40
1.0
 40
1.0
 40
1.0
 40
1.0
 10
35.0867492891
 20
64.6230482704
 30
0.0
 10
34.9230799614
 20
64.6262463204
 30
0.0
 10
34.5924009839
 20
64.6444023427
 30
0.0
 10
34.2631222985
 20
64.6784147428
 30
0.0
 10
34.0970884344
 20
64.698515326
 30
0.0
  0
SPLINE
  5
27A
100
AcDbEntity
  8
0
100
AcDbSpline
 62
7
  6
BYLAYER
 70
0
 71
3
 72
9
 73
5
 74
0
 42
0.0000001
 43
0.0000001
 44
0.0000000001
 40
0.0
 40
0.0
 40
0.0
 40
0.0
 40
0.2413100339
 40
1.0
 40
1.0
 40
1.0
 40
1.0
 10
33.998758361
 20
65.0303711392
 30
0.0
 10
33.9648836019
 20
65.0821670487
 30
0.0
 10
33.8319153147
 20
65.3016324126
 30
0.0
 10
33.7286392772
 20
65.5385562978
 30
0.0
 10
33.6655676812
 20
65.7226344104
 30
0.0
  0
SPLINE
  5
27B
100
AcDbEntity
  8
0
100
AcDbSpline
 62
7
  6
BYLAYER
 70
0
 71
3
 72
9
 73
5
 74
0
 42
0.0000001
 43
0.0000001
 44
0.0000000001
 40
0.0
 40
0.0
 40
0.0
 40
0.0
 40
0.2744307179
 40
1.0
 40
1.0
 40
1.0
 40
1.0
 10
34.0970884153
 20
64.6985153792
 30
0.0
 10
34.0950940838
 20
64.7302967277
 30
0.0
 10
34.0823714849
 20
64.8454038406
 30
0.0
 10
34.0448401613
 20
64.9599098374
 30
0.0
 10
33.998758361
 20
65.0303711392
 30
0.0
  0
SPLINE
  5
27C
100
AcDbEntity
  8
0
100
AcDbSpline
 62
7
  6
BYLAYER
 70
0
 71
3
 72
21
 73
17
 74
0
 42
0.0000001
 43
0.0000001
 44
0.0000000001
 40
0.0
 40
0.0
 40
0.0
 40
0.0
 40
0.0435188082
 40
0.0803257227
 40
0.1105454324
 40
0.1344697713
 40
0.1529450094
 40
0.1683353244
 40
0.2077030872
 40
0.2405960884
 40
0.285739533
 40
0.3460126692
 40
0.4249642523
 40
0.5269530071
 40
0.6564857159
 40
1.0
 40
1.0
 40
1.0
 40
1.0
 10
30.4526000932
 20
66.4719718601
 30
0.0
 10
30.4439024002
 20
66.4769933016
 30
0.0
 10
30.4281047988
 20
66.4867303953
 30
0.0
 10
30.4075301118
 20
66.5018625848
 30
0.0
 10
30.3920522485
 20
66.5161594572
 30
0.0
 10
30.3818121297
 20
66.5295187544
 30
0.0
 10
30.3765755922
 20
66.5421627215
 30
0.0
 10
30.379373505
 20
66.5600723904
 30
0.0
 10
30.4014711226
 20
66.5692054867
 30
0.0
 10
30.4276887083
 20
66.5714866488
 30
0.0
 10
30.4599705562
 20
66.5697391406
 30
0.0
 10
30.5018263192
 20
66.562406171
 30
0.0
 10
30.5557098279
 20
66.5480057319
 30
0.0
 10
30.6233573145
 20
66.524264357
 30
0.0
 10
30.7455061776
 20
66.4721822448
 30
0.0
 10
30.8418706844
 20
66.4203831626
 30
0.0
 10
30.910524968
 20
66.3807454171
 30
0.0
  0
SPLINE
  5
27D
100
AcDbEntity
  8
0
100
AcDbSpline
 62
7
  6
BYLAYER
 70
0
 71
3
 72
17
 73
13
 74
0
 42
0.0000001
 43
0.0000001
 44
0.0000000001
 40
0.0
 40
0.0
 40
0.0
 40
0.0
 40
0.1946512303
 40
0.2698929938
 40
0.3320623454
 40
0.3846947656
 40
0.4319230777
 40
0.5234131164
 40
0.6242081485
 40
0.7379267234
 40
0.8637401192
 40
1.0
 40
1.0
 40
1.0
 40
1.0
 10
31.0222143023
 20
66.0586645538
 30
0.0
 10
31.0005523646
 20
66.0739065012
 30
0.0
 10
30.9689232666
 20
66.0934428035
 30
0.0
 10
30.925900787
 20
66.107897251
 30
0.0
 10
30.9000304146
 20
66.1112006989
 30
0.0
 10
30.8778853337
 20
66.1084033267
 30
0.0
 10
30.8537002803
 20
66.0977738318
 30
0.0
 10
30.8311483704
 20
66.0723713267
 30
0.0
 10
30.8169223615
 20
66.032712646
 30
0.0
 10
30.8108157913
 20
65.9865882907
 30
0.0
 10
30.8115372656
 20
65.9353324344
 30
0.0
 10
30.815788462
 20
65.8998674171
 30
0.0
 10
30.8187384681
 20
65.8815622148
 30
0.0
  0
SPLINE
  5
27E
100
AcDbEntity
  8
0
100
AcDbSpline
 62
7
  6
BYLAYER
 70
0
 71
3
 72
9
 73
5
 74
0
 42
0.0000001
 43
0.0000001
 44
0.0000000001
 40
0.0
 40
0.0
 40
0.0
 40
0.0
 40
0.5353442168
 40
1.0
 40
1.0
 40
1.0
 40
1.0
 10
31.0222145347
 20
66.0586693581
 30
0.0
 10
31.0183579586
 20
66.1201280364
 30
0.0
 10
30.99899349
 20
66.2349267806
 30
0.0
 10
30.9446154489
 20
66.3395807209
 30
0.0
 10
30.9105243847
 20
66.3807454176
 30
0.0
  0
SPLINE
  5
27F
100
AcDbEntity
  8
0
100
AcDbSpline
 62
7
  6
BYLAYER
 70
0
 71
3
 72
15
 73
11
 74
0
 42
0.0000001
 43
0.0000001
 44
0.0000000001
 40
0.0
 40
0.0
 40
0.0
 40
0.0
 40
0.1080119715
 40
0.2180608606
 40
0.3320050502
 40
0.4513559807
 40
0.57725962
 40
0.710499896
 40
0.8514742298
 40
1.0
 40
1.0
 40
1.0
 40
1.0
 10
30.1885250996
 20
66.6244321629
 30
0.0
 10
30.0778554033
 20
66.6883258863
 30
0.0
 10
29.8651061507
 20
66.8368354126
 30
0.0
 10
29.5839008967
 20
67.1134804405
 30
0.0
 10
29.3421760198
 20
67.4419311546
 30
0.0
 10
29.1419086703
 20
67.8182849876
 30
0.0
 10
28.984878921
 20
68.2388805764
 30
0.0
 10
28.8721257817
 20
68.6996439711
 30
0.0
 10
28.8047494854
 20
69.1960262077
 30
0.0
 10
28.7905169346
 20
69.5387669053
 30
0.0
 10
28.7905169346
 20
69.7144886607
 30
0.0
  0
SPLINE
  5
280
100
AcDbEntity
  8
0
100
AcDbSpline
 62
7
  6
BYLAYER
 70
0
 71
3
 72
21
 73
17
 74
0
 42
0.0000001
 43
0.0000001
 44
0.0000000001
 40
0.0
 40
0.0
 40
0.0
 40
0.0
 40
0.0453004768
 40
0.0939583875
 40
0.1463931532
 40
0.2027140315
 40
0.2627681099
 40
0.3262057446
 40
0.3925146551
 40
0.461065798
 40
0.6018868578
 40
0.7425793379
 40
0.8109687223
 40
0.8770588063
 40
0.9402624343
 40
1.0
 40
1.0
 40
1.0
 40
1.0
 10
43.5035601346
 20
45.5112242207
 30
0.0
 10
43.4407997309
 20
45.3833524757
 30
0.0
 10
43.2834643347
 20
45.130924406
 30
0.0
 10
42.9756363045
 20
44.7862709059
 30
0.0
 10
42.5941970506
 20
44.4683727237
 30
0.0
 10
42.1456457704
 20
44.1822687247
 30
0.0
 10
41.6374296413
 20
43.9321659642
 30
0.0
 10
41.0778737369
 20
43.722152319
 30
0.0
 10
40.4761989562
 20
43.5555764999
 30
0.0
 10
39.6237762842
 20
43.3936697459
 30
0.0
 10
38.5213289728
 20
43.3157723466
 30
0.0
 10
37.419871726
 20
43.4004185955
 30
0.0
 10
36.5700909148
 20
43.5675547695
 30
0.0
 10
35.9714335907
 20
43.7378410216
 30
0.0
 10
35.4158578072
 20
43.9513605018
 30
0.0
 10
35.0696811101
 20
44.1253450729
 30
0.0
 10
34.9070066365
 20
44.2192630993
 30
0.0
  0
SPLINE
  5
281
100
AcDbEntity
  8
0
100
AcDbSpline
 62
7
  6
BYLAYER
 70
0
 71
3
 72
18
 73
14
 74
0
 42
0.0000001
 43
0.0000001
 44
0.0000000001
 40
0.0
 40
0.0
 40
0.0
 40
0.0
 40
0.0451926603
 40
0.0936262915
 40
0.1457102254
 40
0.2015656335
 40
0.2610703674
 40
0.323917571
 40
0.4575634325
 40
0.5977580541
 40
0.7387060727
 40
0.8745022447
 40
1.0
 40
1.0
 40
1.0
 40
1.0
 10
42.8137763436
 20
44.1055996164
 30
0.0
 10
42.761343838
 20
43.9987705396
 30
0.0
 10
42.6307232556
 20
43.7878135419
 30
0.0
 10
42.3762561614
 20
43.4987452031
 30
0.0
 10
42.0616478106
 20
43.2311380851
 30
0.0
 10
41.6919903644
 20
42.9890062329
 30
0.0
 10
41.2730744409
 20
42.7756873551
 30
0.0
 10
40.6447220158
 20
42.5292217101
 30
0.0
 10
39.7794525277
 20
42.3168474259
 30
0.0
 10
38.6879945035
 20
42.2185155981
 30
0.0
 10
37.5876980822
 20
42.2775427905
 30
0.0
 10
36.5461392846
 20
42.490001372
 30
0.0
 10
35.8995289289
 20
42.7386429678
 30
0.0
 10
35.6054281486
 20
42.8893458664
 30
0.0
  0
SPLINE
  5
282
100
AcDbEntity
  8
0
100
AcDbSpline
 62
7
  6
BYLAYER
 70
0
 71
3
 72
20
 73
16
 74
0
 42
0.0000001
 43
0.0000001
 44
0.0000000001
 40
0.0
 40
0.0
 40
0.0
 40
0.0
 40
0.0972478397
 40
0.1513855733
 40
0.2091118481
 40
0.2701892905
 40
0.3342257613
 40
0.4007057069
 40
0.4690254747
 40
0.608415722
 40
0.7468686405
 40
0.8140401959
 40
0.878971152
 40
0.9411303669
 40
1.0
 40
1.0
 40
1.0
 40
1.0
 10
32.9398341453
 20
65.6518684025
 30
0.0
 10
32.7724047781
 20
65.9963642281
 30
0.0
 10
32.6082169205
 20
66.5813484982
 30
0.0
 10
32.5342502274
 20
67.4020939846
 30
0.0
 10
32.5485875931
 20
68.0846713374
 30
0.0
 10
32.6346776976
 20
68.8006128032
 30
0.0
 10
32.7910584783
 20
69.5398062598
 30
0.0
 10
33.0154173578
 20
70.2909997172
 30
0.0
 10
33.403070326
 20
71.2999080751
 30
0.0
 10
34.0311185307
 20
72.5156181635
 30
0.0
 10
34.8210397289
 20
73.627621111
 30
0.0
 10
35.5330567523
 20
74.4217070817
 30
0.0
 10
36.0883365111
 20
74.9494433144
 30
0.0
 10
36.661534471
 20
75.4068772616
 30
0.0
 10
37.0614116243
 20
75.6681471576
 30
0.0
 10
37.2622156684
 20
75.784080736
 30
0.0
  0
SPLINE
  5
283
100
AcDbEntity
  8
0
100
AcDbSpline
 62
7
  6
BYLAYER
 70
0
 71
3
 72
9
 73
5
 74
0
 42
0.0000001
 43
0.0000001
 44
0.0000000001
 40
0.0
 40
0.0
 40
0.0
 40
0.0
 40
0.2659758755
 40
1.0
 40
1.0
 40
1.0
 40
1.0
 10
32.6363189685
 20
65.7013703442
 30
0.0
 10
32.6623700632
 20
65.6931274861
 30
0.0
 10
32.7612821807
 20
65.665459149
 30
0.0
 10
32.8644237812
 20
65.6514770027
 30
0.0
 10
32.9398300002
 20
65.6518782533
 30
0.0
  0
SPLINE
  5
284
100
AcDbEntity
  8
0
100
AcDbSpline
 62
7
  6
BYLAYER
 70
0
 71
3
 72
23
 73
19
 74
0
 42
0.0000001
 43
0.0000001
 44
0.0000000001
 40
0.0
 40
0.0
 40
0.0
 40
0.0
 40
0.0597227234
 40
0.1229024048
 40
0.1889720352
 40
0.2573251173
 40
0.3272712128
 40
0.3980495064
 40
0.4688639044
 40
0.5389212943
 40
0.6074550285
 40
0.673753114
 40
0.7371882767
 40
0.7972451879
 40
0.8535634039
 40
0.9060020309
 40
0.9546808476
 40
1.0
 40
1.0
 40
1.0
 40
1.0
 10
36.6482740924
 20
76.2005545833
 30
0.0
 10
36.4350886423
 20
76.07747264
 30
0.0
 10
36.0107931321
 20
75.798653508
 30
0.0
 10
35.4044812382
 20
75.308010885
 30
0.0
 10
34.8190260987
 20
74.7403055642
 30
0.0
 10
34.2642753164
 20
74.1052089657
 30
0.0
 10
33.7493136869
 20
73.4131601009
 30
0.0
 10
33.2826481192
 20
72.6756700367
 30
0.0
 10
32.8721144346
 20
71.9049994547
 30
0.0
 10
32.5245772508
 20
71.1140121095
 30
0.0
 10
32.245778319
 20
70.3158964354
 30
0.0
 10
32.0403973444
 20
69.5238817142
 30
0.0
 10
31.911952038
 20
68.7510773052
 30
0.0
 10
31.8624964241
 20
68.0102514862
 30
0.0
 10
31.8931399772
 20
67.3135045173
 30
0.0
 10
32.0037956204
 20
66.6720119266
 30
0.0
 10
32.1930461116
 20
66.0963856879
 30
0.0
 10
32.3765217187
 20
65.7521660658
 30
0.0
 10
32.4805129532
 20
65.5969929011
 30
0.0
  0
SPLINE
  5
285
100
AcDbEntity
  8
0
100
AcDbSpline
 62
7
  6
BYLAYER
 70
0
 71
3
 72
15
 73
11
 74
0
 42
0.0000001
 43
0.0000001
 44
0.0000000001
 40
0.0
 40
0.0
 40
0.0
 40
0.0
 40
0.1507413614
 40
0.2925030802
 40
0.4252253952
 40
0.5496608341
 40
0.6671634924
 40
0.779685351
 40
0.8897050012
 40
1.0
 40
1.0
 40
1.0
 40
1.0
 10
37.2622156684
 20
75.784080736
 30
0.0
 10
37.435919594
 20
75.8843681468
 30
0.0
 10
37.7826141119
 20
76.0630228043
 30
0.0
 10
38.3121860724
 20
76.2657866852
 30
0.0
 10
38.8293877291
 20
76.3921330943
 30
0.0
 10
39.3275491656
 20
76.4400696731
 30
0.0
 10
39.8004650484
 20
76.4083412673
 30
0.0
 10
40.2416380643
 20
76.2962638542
 30
0.0
 10
40.6442169734
 20
76.1051143927
 30
0.0
 10
40.8806133288
 20
75.9280275019
 30
0.0
 10
40.989204724
 20
75.8293066064
 30
0.0
  0
SPLINE
  5
286
100
AcDbEntity
  8
0
100
AcDbSpline
 62
7
  6
BYLAYER
 70
0
 71
3
 72
9
 73
5
 74
0
 42
0.0000001
 43
0.0000001
 44
0.0000000001
 40
0.0
 40
0.0
 40
0.0
 40
0.0
 40
0.2487941642
 40
1.0
 40
1.0
 40
1.0
 40
1.0
 10
33.398611903
 20
46.729971701
 30
0.0
 10
33.3986152514
 20
46.6963932995
 30
0.0
 10
33.4025726889
 20
46.5614518633
 30
0.0
 10
33.4225026641
 20
46.4270276141
 30
0.0
 10
33.4457961461
 20
46.3283535429
 30
0.0
  0
SPLINE
  5
287
100
AcDbEntity
  8
0
100
AcDbSpline
 62
7
  6
BYLAYER
 70
0
 71
3
 72
11
 73
7
 74
0
 42
0.0000001
 43
0.0000001
 44
0.0000000001
 40
0.0
 40
0.0
 40
0.0
 40
0.0
 40
0.2197041035
 40
0.4568984496
 40
0.716511501
 40
1.0
 40
1.0
 40
1.0
 40
1.0
 10
33.4592151938
 20
46.2751220995
 30
0.0
 10
33.5018201329
 20
46.1162458068
 30
0.0
 10
33.6357720857
 20
45.7969406973
 30
0.0
 10
33.9535480514
 20
45.3600979749
 30
0.0
 10
34.3836088654
 20
44.9603215138
 30
0.0
 10
34.7231966772
 20
44.7336346366
 30
0.0
 10
34.9070066365
 20
44.6275143079
 30
0.0
  0
SPLINE
  5
288
100
AcDbEntity
  8
0
100
AcDbSpline
 62
7
  6
BYLAYER
 70
0
 71
3
 72
21
 73
17
 74
0
 42
0.0000001
 43
0.0000001
 44
0.0000000001
 40
0.0
 40
0.0
 40
0.0
 40
0.0
 40
0.1554574187
 40
0.2337625767
 40
0.3123125774
 40
0.3907294499
 40
0.4681577024
 40
0.5426884397
 40
0.6110337666
 40
0.6706904695
 40
0.7225439962
 40
0.7698753341
 40
0.8154940153
 40
0.8608774745
 40
0.9066435957
 40
1.0
 40
1.0
 40
1.0
 40
1.0
 10
33.8415706184
 20
55.3672517731
 30
0.0
 10
33.9207930592
 20
55.1787808204
 30
0.0
 10
34.0458123109
 20
54.89771659
 30
0.0
 10
34.2305299293
 20
54.5307831889
 30
0.0
 10
34.3810590923
 20
54.2603231905
 30
0.0
 10
34.5458779449
 20
53.9995797309
 30
0.0
 10
34.7271963373
 20
53.7563398491
 30
0.0
 10
34.925900038
 20
53.5442687762
 30
0.0
 10
35.1392629421
 20
53.3818790698
 30
0.0
 10
35.3587099461
 20
53.2858057694
 30
0.0
 10
35.5694472415
 20
53.2617405521
 30
0.0
 10
35.7590752579
 20
53.2952867542
 30
0.0
 10
35.9275282081
 20
53.3669473535
 30
0.0
 10
36.0793525525
 20
53.4645430217
 30
0.0
 10
36.2660670873
 20
53.6201427351
 30
0.0
 10
36.3897498244
 20
53.7561663436
 30
0.0
 10
36.4674147518
 20
53.8512542523
 30
0.0
  0
SPLINE
  5
289
100
AcDbEntity
  8
0
100
AcDbSpline
 62
7
  6
BYLAYER
 70
0
 71
3
 72
9
 73
5
 74
0
 42
0.0000001
 43
0.0000001
 44
0.0000000001
 40
0.0
 40
0.0
 40
0.0
 40
0.0
 40
0.5122555938
 40
1.0
 40
1.0
 40
1.0
 40
1.0
 10
33.8415706184
 20
55.3672517731
 30
0.0
 10
33.7732716359
 20
55.457293371
 30
0.0
 10
33.6513418539
 20
55.6421354929
 30
0.0
 10
33.5583752004
 20
55.8433812618
 30
0.0
 10
33.5216496485
 20
55.9445268298
 30
0.0
  0
SPLINE
  5
28A
100
AcDbEntity
  8
0
100
AcDbSpline
 62
7
  6
BYLAYER
 70
0
 71
3
 72
11
 73
7
 74
0
 42
0.0000001
 43
0.0000001
 44
0.0000000001
 40
0.0
 40
0.0
 40
0.0
 40
0.0
 40
0.2464515895
 40
0.4999997158
 40
0.7535479873
 40
1.0
 40
1.0
 40
1.0
 40
1.0
 10
40.559095972
 20
53.8512640874
 30
0.0
 10
40.2302242889
 20
53.768113782
 30
0.0
 10
39.5509761627
 20
53.6445337298
 30
0.0
 10
38.5132569937
 20
53.583399212
 30
0.0
 10
37.4755369534
 20
53.6445288112
 30
0.0
 10
36.7962874473
 20
53.768105575
 30
0.0
 10
36.4674147518
 20
53.8512542523
 30
0.0
  0
SPLINE
  5
28B
100
AcDbEntity
  8
0
100
AcDbSpline
 62
7
  6
BYLAYER
 70
0
 71
3
 72
15
 73
11
 74
0
 42
0.0000001
 43
0.0000001
 44
0.0000000001
 40
0.0
 40
0.0
 40
0.0
 40
0.0
 40
0.1532506184
 40
0.2220400302
 40
0.2867986127
 40
0.408453336
 40
0.525727546
 40
0.642377201
 40
0.7600149903
 40
1.0
 40
1.0
 40
1.0
 40
1.0
 10
41.8720071063
 20
53.3845155339
 30
0.0
 10
41.8040961039
 20
53.3453073324
 30
0.0
 10
41.6981470626
 20
53.2992947685
 30
0.0
 10
41.5533686934
 20
53.2726147332
 30
0.0
 10
41.4224342659
 20
53.2680859367
 30
0.0
 10
41.2675097916
 20
53.2951518928
 30
0.0
 10
41.0991051379
 20
53.3669419087
 30
0.0
 10
40.9472414553
 20
53.4645149074
 30
0.0
 10
40.7604670384
 20
53.6200994691
 30
0.0
 10
40.6367755295
 20
53.7561578481
 30
0.0
 10
40.559095972
 20
53.8512640874
 30
0.0
  0
SPLINE
  5
28C
100
AcDbEntity
  8
0
100
AcDbSpline
 62
7
  6
BYLAYER
 70
0
 71
3
 72
11
 73
7
 74
0
 42
0.0000001
 43
0.0000001
 44
0.0000000001
 40
0.0
 40
0.0
 40
0.0
 40
0.0
 40
0.2829044124
 40
0.5424588683
 40
0.7799605509
 40
1.0
 40
1.0
 40
1.0
 40
1.0
 10
41.6245187025
 20
52.3026461723
 30
0.0
 10
41.7786636477
 20
52.3916412666
 30
0.0
 10
42.0638693705
 20
52.5815497729
 30
0.0
 10
42.4266159432
 20
52.9155552833
 30
0.0
 10
42.6973530894
 20
53.2801813394
 30
0.0
 10
42.8143968584
 20
53.5468187826
 30
0.0
 10
42.8529350394
 20
53.6797856922
 30
0.0
  0
SPLINE
  5
28D
100
AcDbEntity
  8
0
100
AcDbSpline
 62
7
  6
BYLAYER
 70
0
 71
3
 72
14
 73
10
 74
0
 42
0.0000001
 43
0.0000001
 44
0.0000000001
 40
0.0
 40
0.0
 40
0.0
 40
0.0
 40
0.2544556249
 40
0.3826185284
 40
0.51117413
 40
0.6395358123
 40
0.7662256224
 40
0.8881307713
 40
1.0
 40
1.0
 40
1.0
 40
1.0
 10
43.1849182407
 20
55.3672742318
 30
0.0
 10
43.1056812199
 20
55.1787666425
 30
0.0
 10
42.980651557
 20
54.8976488048
 30
0.0
 10
42.7958796438
 20
54.5306768299
 30
0.0
 10
42.6453149935
 20
54.2601829017
 30
0.0
 10
42.4805446896
 20
53.9994020376
 30
0.0
 10
42.2991100152
 20
53.7562457202
 30
0.0
 10
42.1006097653
 20
53.5442898243
 30
0.0
 10
41.9498625053
 20
53.4294651011
 30
0.0
 10
41.8720071063
 20
53.3845155339
 30
0.0
  0
SPLINE
  5
28E
100
AcDbEntity
  8
0
100
AcDbSpline
 62
7
  6
BYLAYER
 70
0
 71
3
 72
33
 73
29
 74
0
 42
0.0000001
 43
0.0000001
 44
0.0000000001
 40
0.0
 40
0.0
 40
0.0
 40
0.0
 40
0.0225189519
 40
0.045484635
 40
0.0692538428
 40
0.0941473264
 40
0.1204125512
 40
0.1482010479
 40
0.1775905538
 40
0.2085869659
 40
0.2411429882
 40
0.2751569358
 40
0.3469315663
 40
0.4224814241
 40
0.4999978496
 40
0.577514405
 40
0.6530646425
 40
0.7248398709
 40
0.7588541824
 40
0.7914106002
 40
0.8224074276
 40
0.8517973547
 40
0.8795862619
 40
0.9058518675
 40
0.9307456807
 40
0.9545151451
 40
0.9774809917
 40
1.0
 40
1.0
 40
1.0
 40
1.0
 10
35.1378345406
 20
79.9327277779
 30
0.0
 10
35.0190294368
 20
80.0013218978
 30
0.0
 10
34.7666220972
 20
80.1194086765
 30
0.0
 10
34.358303881
 20
80.2324945608
 30
0.0
 10
33.9229142983
 20
80.2810085572
 30
0.0
 10
33.4652772698
 20
80.265118888
 30
0.0
 10
32.9897517899
 20
80.1852650858
 30
0.0
 10
32.500711934
 20
80.0427832663
 30
0.0
 10
32.0027840943
 20
79.838937711
 30
0.0
 10
31.5004868859
 20
79.5760268979
 30
0.0
 10
30.9985858951
 20
79.2563994389
 30
0.0
 10
30.3241173223
 20
78.7498874298
 30
0.0
 10
29.5147787742
 20
77.9926544149
 30
0.0
 10
28.635984033
 20
76.9380081232
 30
0.0
 10
27.8648916416
 20
75.7602432612
 30
0.0
 10
27.2304686748
 20
74.5035700709
 30
0.0
 10
26.7565185942
 20
73.2151800927
 30
0.0
 10
26.5054057355
 20
72.1356473449
 30
0.0
 10
26.4039870283
 20
71.2982762058
 30
0.0
 10
26.3781308551
 20
70.7037963795
 30
0.0
 10
26.4015902761
 20
70.1373312766
 30
0.0
 10
26.4740164622
 20
69.604182399
 30
0.0
 10
26.5951406462
 20
69.1094122919
 30
0.0
 10
26.7637445404
 20
68.6576597375
 30
0.0
 10
26.9787982301
 20
68.253380897
 30
0.0
 10
27.2385029075
 20
67.9005705679
 30
0.0
 10
27.5405923943
 20
67.6034905331
 30
0.0
 10
27.7690593243
 20
67.4439362883
 30
0.0
 10
27.8878647253
 20
67.3753419969
 30
0.0
  0
SPLINE
  5
28F
100
AcDbEntity
  8
0
100
AcDbSpline
 62
7
  6
BYLAYER
 70
0
 71
3
 72
20
 73
16
 74
0
 42
0.0000001
 43
0.0000001
 44
0.0000000001
 40
0.0
 40
0.0
 40
0.0
 40
0.0
 40
0.0589718496
 40
0.1212532988
 40
0.1863153099
 40
0.253630927
 40
0.3923555493
 40
0.5319334528
 40
0.6002954783
 40
0.6667703228
 40
0.7307494366
 40
0.791721241
 40
0.8492908203
 40
0.9032226993
 40
1.0
 40
1.0
 40
1.0
 40
1.0
 10
34.9070066365
 20
44.6275143079
 30
0.0
 10
35.0629019766
 20
44.5375101274
 30
0.0
 10
35.3938959361
 20
44.3701748963
 30
0.0
 10
35.924215173
 20
44.1627437787
 30
0.0
 10
36.4949724938
 20
43.9949161657
 30
0.0
 10
37.3057712303
 20
43.825720849
 30
0.0
 10
38.3603025497
 20
43.7284913395
 30
0.0
 10
39.4210671789
 20
43.7812359947
 30
0.0
 10
40.248629446
 20
43.9152323747
 30
0.0
 10
40.8390749756
 20
44.0583524635
 30
0.0
 10
41.3943431735
 20
44.2426726516
 30
0.0
 10
41.9059410193
 20
44.4652012204
 30
0.0
 10
42.3663735035
 20
44.7230711434
 30
0.0
 10
42.8829431987
 20
45.0942993688
 30
0.0
 10
43.2062985331
 20
45.434166668
 30
0.0
 10
43.3677661023
 20
45.6815464214
 30
0.0
  0
SPLINE
  5
290
100
AcDbEntity
  8
0
100
AcDbSpline
 62
7
  6
BYLAYER
 70
0
 71
3
 72
9
 73
5
 74
0
 42
0.0000001
 43
0.0000001
 44
0.0000000001
 40
0.0
 40
0.0
 40
0.0
 40
0.0
 40
0.5119885202
 40
1.0
 40
1.0
 40
1.0
 40
1.0
 10
43.3677661023
 20
45.6815464214
 30
0.0
 10
43.4348978539
 20
45.7843970202
 30
0.0
 10
43.5508619976
 20
45.9958114294
 30
0.0
 10
43.6275763934
 20
46.2247736534
 30
0.0
 10
43.6538087402
 20
46.3388656146
 30
0.0
  0
SPLINE
  5
291
100
AcDbEntity
  8
0
100
AcDbSpline
 62
7
  6
BYLAYER
 70
0
 71
3
 72
14
 73
10
 74
0
 42
0.0000001
 43
0.0000001
 44
0.0000000001
 40
0.0
 40
0.0
 40
0.0
 40
0.0
 40
0.1080435128
 40
0.2181325328
 40
0.332105133
 40
0.4514809917
 40
0.5774301008
 40
0.7107548909
 40
1.0
 40
1.0
 40
1.0
 40
1.0
 10
42.913207825
 20
46.750383737
 30
0.0
 10
42.9132082336
 20
46.6670897703
 30
0.0
 10
42.8987870542
 20
46.4985800012
 30
0.0
 10
42.8341371046
 20
46.2497180385
 30
0.0
 10
42.7276124706
 20
46.0061927676
 30
0.0
 10
42.580407444
 20
45.7705165911
 30
0.0
 10
42.3941547229
 20
45.544734401
 30
0.0
 10
42.0881002732
 20
45.251884747
 30
0.0
 10
41.8176319882
 20
45.0656177601
 30
0.0
 10
41.6245187025
 20
44.9541244181
 30
0.0
  0
SPLINE
  5
292
100
AcDbEntity
  8
0
100
AcDbSpline
 62
7
  6
BYLAYER
 70
0
 71
3
 72
23
 73
19
 74
0
 42
0.0000001
 43
0.0000001
 44
0.0000000001
 40
0.0
 40
0.0
 40
0.0
 40
0.0
 40
0.0623730626
 40
0.1287531663
 40
0.198349419
 40
0.2703360546
 40
0.3437250676
 40
0.4174664333
 40
0.4905022599
 40
0.5618013334
 40
0.6304114812
 40
0.6955092055
 40
0.7564674617
 40
0.8129150758
 40
0.8648230362
 40
0.9126059916
 40
0.9571876897
 40
1.0
 40
1.0
 40
1.0
 40
1.0
 10
41.6245187025
 20
44.9541244181
 30
0.0
 10
41.466486578
 20
44.8628850731
 30
0.0
 10
41.127658123
 20
44.6958989597
 30
0.0
 10
40.5811997208
 20
44.4977948464
 30
0.0
 10
39.9905702567
 20
44.3478824297
 30
0.0
 10
39.3685938462
 20
44.2492945539
 30
0.0
 10
38.7283614138
 20
44.2040064043
 30
0.0
 10
38.0835340134
 20
44.2130635545
 30
0.0
 10
37.447874194
 20
44.2763036613
 30
0.0
 10
36.8349108191
 20
44.3922997076
 30
0.0
 10
36.2576765764
 20
44.5586398047
 30
0.0
 10
35.7283998481
 20
44.7719059555
 30
0.0
 10
35.2581621007
 20
45.0276452377
 30
0.0
 10
34.8568224857
 20
45.3208855524
 30
0.0
 10
34.5329731714
 20
45.6461476907
 30
0.0
 10
34.2939946767
 20
45.9976009933
 30
0.0
 10
34.1467248676
 20
46.3683587086
 30
0.0
 10
34.1132646131
 20
46.6251314434
 30
0.0
 10
34.1132639987
 20
46.750383739
 30
0.0
  0
SPLINE
  5
293
100
AcDbEntity
  8
0
100
AcDbSpline
 62
7
  6
BYLAYER
 70
0
 71
3
 72
11
 73
7
 74
0
 42
0.0000001
 43
0.0000001
 44
0.0000000001
 40
0.0
 40
0.0
 40
0.0
 40
0.0
 40
0.2771949471
 40
0.5358178083
 40
0.7760231079
 40
1.0
 40
1.0
 40
1.0
 40
1.0
 10
34.9070066365
 20
44.2192630993
 30
0.0
 10
34.7575961376
 20
44.3055233396
 30
0.0
 10
34.4773227967
 20
44.4878574847
 30
0.0
 10
34.1073572911
 20
44.8005881268
 30
0.0
 10
33.808301868
 20
45.138953818
 30
0.0
 10
33.6550641744
 20
45.3860829049
 30
0.0
 10
33.5936564256
 20
45.5112297429
 30
0.0
  0
SPLINE
  5
294
100
AcDbEntity
  8
0
100
AcDbSpline
 62
7
  6
BYLAYER
 70
0
 71
3
 72
11
 73
7
 74
0
 42
0.0000001
 43
0.0000001
 44
0.0000000001
 40
0.0
 40
0.0
 40
0.0
 40
0.0
 40
0.2771949471
 40
0.5358178083
 40
0.7760231079
 40
1.0
 40
1.0
 40
1.0
 40
1.0
 10
35.413953557
 20
42.9934930788
 30
0.0
 10
35.2853425718
 20
43.0677449859
 30
0.0
 10
35.0440862294
 20
43.2246962993
 30
0.0
 10
34.7256238154
 20
43.4938915451
 30
0.0
 10
34.4682000543
 20
43.7851531713
 30
0.0
 10
34.3362946602
 20
43.9978792887
 30
0.0
 10
34.2834355162
 20
44.1056043699
 30
0.0
  0
SPLINE
  5
295
100
AcDbEntity
  8
0
100
AcDbSpline
 62
7
  6
BYLAYER
 70
0
 71
3
 72
21
 73
17
 74
0
 42
0.0000001
 43
0.0000001
 44
0.0000000001
 40
0.0
 40
0.0
 40
0.0
 40
0.0
 40
0.0437906761
 40
0.0905514498
 40
0.1410546475
 40
0.1956650008
 40
0.254402601
 40
0.3170020275
 40
0.3829803145
 40
0.4516938351
 40
0.5940653033
 40
0.7373773986
 40
0.8072262286
 40
0.8747260853
 40
0.9392010032
 40
1.0
 40
1.0
 40
1.0
 40
1.0
 10
34.1735581404
 20
53.6797877545
 30
0.0
 10
34.2074823937
 20
53.5626910085
 30
0.0
 10
34.3060153619
 20
53.328140443
 30
0.0
 10
34.5290353658
 20
53.0023104665
 30
0.0
 10
34.8257613922
 20
52.698529905
 30
0.0
 10
35.1901785187
 20
52.4218370846
 30
0.0
 10
35.6156124544
 20
52.1767657183
 30
0.0
 10
36.0942888333
 20
51.9675256672
 30
0.0
 10
36.6175030345
 20
51.7977279413
 30
0.0
 10
37.3704077195
 20
51.6262416516
 30
0.0
 10
38.3568126941
 20
51.5292935796
 30
0.0
 10
39.3493725824
 20
51.5858606824
 30
0.0
 10
40.1189778663
 20
51.7253308257
 30
0.0
 10
40.6619063758
 20
51.8730460112
 30
0.0
 10
41.1650670538
 20
52.0619824149
 30
0.0
 10
41.477932863
 20
52.2180153036
 30
0.0
 10
41.6245187025
 20
52.3026461723
 30
0.0
  0
SPLINE
  5
296
100
AcDbEntity
  8
0
100
AcDbSpline
 62
7
  6
BYLAYER
 70
0
 71
3
 72
11
 73
7
 74
0
 42
0.0000001
 43
0.0000001
 44
0.0000000001
 40
0.0
 40
0.0
 40
0.0
 40
0.0
 40
0.2850722186
 40
0.5433230365
 40
0.7786950806
 40
1.0
 40
1.0
 40
1.0
 40
1.0
 10
44.6130996652
 20
61.3830736477
 30
0.0
 10
44.6900220691
 20
61.4228801301
 30
0.0
 10
44.8313022297
 20
61.5101012033
 30
0.0
 10
45.0064085943
 20
61.6718209168
 30
0.0
 10
45.1283058062
 20
61.8544125504
 30
0.0
 10
45.1708717392
 20
61.9889638615
 30
0.0
 10
45.1810964295
 20
62.0554196899
 30
0.0
  0
SPLINE
  5
297
100
AcDbEntity
  8
0
100
AcDbSpline
 62
7
  6
BYLAYER
 70
0
 71
3
 72
14
 73
10
 74
0
 42
0.0000001
 43
0.0000001
 44
0.0000000001
 40
0.0
 40
0.0
 40
0.0
 40
0.0
 40
0.114256186
 40
0.2354954794
 40
0.3620173535
 40
0.4919156904
 40
0.6229475402
 40
0.752795882
 40
1.0
 40
1.0
 40
1.0
 40
1.0
 10
40.1915059957
 20
58.8302805905
 30
0.0
 10
40.1063615875
 20
58.7760990629
 30
0.0
 10
39.9215883512
 20
58.6786117311
 30
0.0
 10
39.6202504355
 20
58.5691682636
 30
0.0
 10
39.2942278924
 20
58.4947827322
 30
0.0
 10
38.9533300001
 20
58.4574940546
 30
0.0
 10
38.6073413887
 20
58.4584456425
 30
0.0
 10
38.1610281983
 20
58.5095532815
 30
0.0
 10
37.8367866104
 20
58.6035855845
 30
0.0
 10
37.6376954013
 20
58.693257831
 30
0.0
  0
SPLINE
  5
298
100
AcDbEntity
  8
0
100
AcDbSpline
 62
7
  6
BYLAYER
 70
0
 71
3
 72
15
 73
11
 74
0
 42
0.0000001
 43
0.0000001
 44
0.0000000001
 40
0.0
 40
0.0
 40
0.0
 40
0.0
 40
0.1141462769
 40
0.2373347432
 40
0.3669750849
 40
0.4999983967
 40
0.6330219315
 40
0.7626629244
 40
0.8858524171
 40
1.0
 40
1.0
 40
1.0
 40
1.0
 10
42.4023394002
 20
70.3996850034
 30
0.0
 10
42.2225650018
 20
70.2958928257
 30
0.0
 10
41.867454187
 20
70.046934023
 30
0.0
 10
41.3788117695
 20
69.5898234286
 30
0.0
 10
40.9285576325
 20
69.0494070806
 30
0.0
 10
40.5335443096
 20
68.4461067623
 30
0.0
 10
40.2085801954
 20
67.8023623857
 30
0.0
 10
39.9656945314
 20
67.1422184644
 30
0.0
 10
39.8141467786
 20
66.4904807903
 30
0.0
 10
39.7760970689
 20
66.0584622615
 30
0.0
 10
39.7760970689
 20
65.8508746017
 30
0.0
  0
SPLINE
  5
299
100
AcDbEntity
  8
0
100
AcDbSpline
 62
7
  6
BYLAYER
 70
0
 71
3
 72
21
 73
17
 74
0
 42
0.0000001
 43
0.0000001
 44
0.0000000001
 40
0.0
 40
0.0
 40
0.0
 40
0.0
 40
0.1446248633
 40
0.21128713
 40
0.2742611741
 40
0.3339487707
 40
0.3909352439
 40
0.445980073
 40
0.5000029213
 40
0.5540256349
 40
0.6090700715
 40
0.6660559296
 40
0.725742736
 40
0.7887158673
 40
0.8553771491
 40
1.0
 40
1.0
 40
1.0
 40
1.0
 10
45.0285817314
 20
68.8833799339
 30
0.0
 10
45.0285817314
 20
69.0716122703
 30
0.0
 10
45.0065687314
 20
69.3479525771
 30
0.0
 10
44.9216589843
 20
69.6952914769
 30
0.0
 10
44.835217419
 20
69.9267413157
 30
0.0
 10
44.7250537299
 20
70.1338224521
 30
0.0
 10
44.5920038041
 20
70.3144735605
 30
0.0
 10
44.4373165326
 20
70.4667946649
 30
0.0
 10
44.2623746495
 20
70.588820173
 30
0.0
 10
44.0692292328
 20
70.6793161443
 30
0.0
 10
43.8599744064
 20
70.7371231726
 30
0.0
 10
43.6370037943
 20
70.7620264914
 30
0.0
 10
43.4025872743
 20
70.7538944687
 30
0.0
 10
43.1589279489
 20
70.71303384
 30
0.0
 10
42.8156726882
 20
70.6129030046
 30
0.0
 10
42.5653513603
 20
70.4937994407
 30
0.0
 10
42.4023394002
 20
70.3996850034
 30
0.0
  0
SPLINE
  5
29A
100
AcDbEntity
  8
0
100
AcDbSpline
 62
7
  6
BYLAYER
 70
0
 71
3
 72
15
 73
11
 74
0
 42
0.0000001
 43
0.0000001
 44
0.0000000001
 40
0.0
 40
0.0
 40
0.0
 40
0.0
 40
0.1204830816
 40
0.247292152
 40
0.3779418693
 40
0.5099244841
 40
0.6405483966
 40
0.7672206132
 40
0.887703103
 40
1.0
 40
1.0
 40
1.0
 40
1.0
 10
37.1972936561
 20
65.7114238465
 30
0.0
 10
37.2957927113
 20
65.6716404242
 30
0.0
 10
37.5035383699
 20
65.6033727865
 30
0.0
 10
37.830436809
 20
65.5356673329
 30
0.0
 10
38.1727194331
 20
65.5015311481
 30
0.0
 10
38.5200294716
 20
65.5018545206
 30
0.0
 10
38.8620784318
 20
65.53667884
 30
0.0
 10
39.1887981233
 20
65.6048395743
 30
0.0
 10
39.490405039
 20
65.7044107385
 30
0.0
 10
39.6762786033
 20
65.7932849429
 30
0.0
 10
39.7620257357
 20
65.8427907774
 30
0.0
  0
SPLINE
  5
29B
100
AcDbEntity
  8
0
100
AcDbSpline
 62
7
  6
BYLAYER
 70
0
 71
3
 72
15
 73
11
 74
0
 42
0.0000001
 43
0.0000001
 44
0.0000000001
 40
0.0
 40
0.0
 40
0.0
 40
0.0
 40
0.1126804557
 40
0.2334180764
 40
0.360198978
 40
0.4908014634
 40
0.622652061
 40
0.7531005328
 40
0.8796922222
 40
1.0
 40
1.0
 40
1.0
 40
1.0
 10
39.7620257357
 20
65.8427907774
 30
0.0
 10
39.6762085837
 20
65.7942183792
 30
0.0
 10
39.4905484676
 20
65.7072128979
 30
0.0
 10
39.189983335
 20
65.6100227769
 30
0.0
 10
38.8650835531
 20
65.5439240087
 30
0.0
 10
38.5254887354
 20
65.5107996426
 30
0.0
 10
38.1810882138
 20
65.5116743081
 30
0.0
 10
37.8419411459
 20
65.5464450005
 30
0.0
 10
37.5181318468
 20
65.6141778047
 30
0.0
 10
37.3123418871
 20
65.6820320455
 30
0.0
 10
37.2147315668
 20
65.7214915689
 30
0.0
  0
SPLINE
  5
29C
100
AcDbEntity
  8
0
100
AcDbSpline
 62
7
  6
BYLAYER
 70
0
 71
3
 72
15
 73
11
 74
0
 42
0.0000001
 43
0.0000001
 44
0.0000000001
 40
0.0
 40
0.0
 40
0.0
 40
0.0
 40
0.1141536803
 40
0.2373245991
 40
0.3669741054
 40
0.4999983967
 40
0.6330229109
 40
0.7626730686
 40
0.8858450136
 40
1.0
 40
1.0
 40
1.0
 40
1.0
 10
41.2336965802
 20
72.6825818078
 30
0.0
 10
40.958567559
 20
72.5237369415
 30
0.0
 10
40.4151366141
 20
72.1427979321
 30
0.0
 10
39.6674028963
 20
71.443236122
 30
0.0
 10
38.9783231461
 20
70.6162983546
 30
0.0
 10
38.3738545724
 20
69.6930049369
 30
0.0
 10
37.876497323
 20
68.707869039
 30
0.0
 10
37.5048904613
 20
67.6976331191
 30
0.0
 10
37.2729196725
 20
66.7002872032
 30
0.0
 10
37.2147315668
 20
66.0391863586
 30
0.0
 10
37.2147315668
 20
65.7214915689
 30
0.0
  0
SPLINE
  5
29D
100
AcDbEntity
  8
0
100
AcDbSpline
 62
7
  6
BYLAYER
 70
0
 71
3
 72
11
 73
7
 74
0
 42
0.0000001
 43
0.0000001
 44
0.0000000001
 40
0.0
 40
0.0
 40
0.0
 40
0.0
 40
0.2177848637
 40
0.4518442738
 40
0.711429385
 40
1.0
 40
1.0
 40
1.0
 40
1.0
 10
45.6296918342
 20
69.6717486012
 30
0.0
 10
45.6254050824
 20
69.5982194978
 30
0.0
 10
45.5903595246
 20
69.4463357869
 30
0.0
 10
45.4675496935
 20
69.2361196468
 30
0.0
 10
45.2810609485
 20
69.0455422551
 30
0.0
 10
45.1271019069
 20
68.9403004594
 30
0.0
 10
45.0425834084
 20
68.8915039728
 30
0.0
  0
SPLINE
  5
29E
100
AcDbEntity
  8
0
100
AcDbSpline
 62
7
  6
BYLAYER
 70
0
 71
3
 72
9
 73
5
 74
0
 42
0.0000001
 43
0.0000001
 44
0.0000000001
 40
0.0
 40
0.0
 40
0.0
 40
0.0
 40
0.5061206637
 40
1.0
 40
1.0
 40
1.0
 40
1.0
 10
33.9987586647
 20
65.0303705818
 30
0.0
 10
34.1783317738
 20
65.0040316129
 30
0.0
 10
34.5339974926
 20
64.9576846719
 30
0.0
 10
34.891562598
 20
64.9274993552
 30
0.0
 10
35.0684544575
 20
64.9188183981
 30
0.0
  0
ELLIPSE
  5
29F
100
AcDbEntity
  8
0
100
AcDbEllipse
 62
7
  6
BYLAYER
 10
42.4413804176
 20
57.3997374339
 30
0.0
 11
2.0145591948
 21
-0.0108980521
 31
0.0
 40
0.5739401184
 41
-0.7762124599
 42
-0.4048969478
  0
ELLIPSE
  5
2A0
100
AcDbEntity
  8
0
100
AcDbEllipse
 62
7
  6
BYLAYER
 10
38.452953812
 20
55.0970320049
 30
0.0
 11
2.0027674261
 21
-0.011091826
 31
0.0
 40
0.5807176141
 41
-2.1710060875
 42
-0.7819341686
  0
ELLIPSE
  5
2A1
100
AcDbEntity
  8
0
100
AcDbEllipse
 62
7
  6
BYLAYER
 10
33.2169719991
 20
57.3628334869
 30
0.0
 11
1.0092386859
 21
-0.0043335943
 31
0.0
 40
0.5724402785
 41
-3.0462815041
 42
-2.3554829234
  0
ELLIPSE
  5
2A2
100
AcDbEntity
  8
0
100
AcDbEllipse
 62
7
  6
BYLAYER
 10
42.3833397741
 20
48.4292500722
 30
0.0
 11
2.3260634699
 21
12.9722244773
 31
0.0
 40
0.0952249302
 41
0.0730094349
 42
0.0802009176
  0
ELLIPSE
  5
2A3
100
AcDbEntity
  8
0
100
AcDbEllipse
 62
7
  6
BYLAYER
 10
39.5929001257
 20
46.8181986067
 30
0.0
 11
0.7129480745
 21
12.0458449426
 31
0.0
 40
0.1135874134
 41
0.0747208165
 42
0.0819122991
  0
ENDSEC
  0
SECTION
  2
OBJECTS
  0
DICTIONARY
  5
C
100
AcDbDictionary
280
0
281
1
  3
ACAD_GROUP
350
D
  3
ACAD_MLINESTYLE
350
17
  3
ACAD_LAYOUT
350
1A
  3
ACAD_PLOTSETTINGS
350
19
  3
ACAD_PLOTSTYLENAME
350
E
  0
DICTIONARY
  5
D
102
{ACAD_REACTORS
330
C
102
}
100
AcDbDictionary
280
0
281
1
  0
ACDBDICTIONARYWDFLT
  5
E
102
{ACAD_REACTORS
330
C
102
}
100
AcDbDictionary
281
1
  3
Normal
350
F
100
AcDbDictionaryWithDefault
340
F
  0
DICTIONARY
  5
17
102
{ACAD_REACTORS
330
C
102
}
100
AcDbDictionary
280
0
281
1
  3
Standard
350
18
  0
DICTIONARY
  5
19
102
{ACAD_REACTORS
330
C
102
}
100
AcDbDictionary
281
1
  0
DICTIONARY
  5
1A
102
{ACAD_REACTORS
330
C
102
}
100
AcDbDictionary
281
1
  3
Model
350
2A4
  3
Layout1
350
2A5
  0
ACDBPLACEHOLDER
  5
F
102
{ACAD_REACTORS
330
E
102
}
  0
MLINESTYLE
  5
18
102
{ACAD_REACTORS
330
17
102
}
100
AcDbMlineStyle
  2
STANDARD
 70
0
  3

 62
256
 51
90.0
 52
90.0
 71
2
 49
0.5
 62
256
  6
BYLAYER
 49
-0.5
 62
256
  6
BYLAYER
  0
LAYOUT
  5
2A4
102
{ACAD_REACTORS
330
1A
102
}
100
AcDbPlotSettings
  1

  2
none_device
  4

  6

 40
0.0
 41
0.0
 42
0.0
 43
0.0
 44
210.0
 45
297.0
 46
0.0
 47
0.0
 48
0.0
 49
0.0
140
0.0
141
0.0
142
1.0
143
1.0
 70
1024
 72
1
 73
0
 74
0
  7

 75
0
147
1.0
148
0.0
149
0.0
100
AcDbLayout
  1
Model
 70
0
 71
0
 10
0.0
 20
0.0
 11
210.0
 21
297.0
 12
0.0
 22
0.0
 32
0.0
 14
0.0
 24
0.0
 34
0.0
 15
0.0
 25
0.0
 35
0.0
146
0.0
 13
0.0
 23
0.0
 33
0.0
 16
1.0
 26
0.0
 36
0.0
 17
0.0
 27
1.0
 37
0.0
 76
0
330
210
345
0
346
0
  0
LAYOUT
  5
2A5
102
{ACAD_REACTORS
330
1A
102
}
100
AcDbPlotSettings
  1

  2
none_device
  4

  6

 40
0.0
 41
0.0
 42
0.0
 43
0.0
 44
210.0
 45
297.0
 46
0.0
 47
0.0
 48
0.0
 49
0.0
140
0.0
141
0.0
142
1.0
143
1.0
 70
0
 72
1
 73
0
 74
0
  7

 75
0
147
1.0
148
0.0
149
0.0
100
AcDbLayout
  1
Layout1
 70
0
 71
1
 10
0.0
 20
0.0
 11
210.0
 21
297.0
 12
0.0
 22
0.0
 32
0.0
 14
0.0
 24
0.0
 34
0.0
 15
0.0
 25
0.0
 35
0.0
146
0.0
 13
0.0
 23
0.0
 33
0.0
 16
1.0
 26
0.0
 36
0.0
 17
0.0
 27
1.0
 37
0.0
 76
0
330
211
345
0
346
0
  0
ENDSEC
  0
EOF
