999
DXF file: C:\Users\sesa63760\Dev\_Creo\CAD\MCADID0004760_3D-CAD\drw0001_3.dxf
999
Pro/ENGINEER 2019471 by Parametric Technology Corporation
  0
SECTION
  2
HEADER
  9
$ACADVER
  1
AC1024
  9
$DWGCODEPAGE
  3
ANSI_1252
  9
$EXTMAX
 10
45.2283234519
 20
63.9657717391
 30
0.0
  9
$EXTMIN
 10
0.0
 20
0.0
 30
0.0
  9
$LIMMIN
 10
0.0
 20
0.0
  9
$LIMMAX
 10
45.2283234519
 20
63.9657717391
  9
$VIEWCTR
 10
22.614161726
 20
31.9828858696
  9
$VIEWSIZE
 40
63.9657717391
  9
$CLAYER
  8
0
  9
$LTSCALE
 40
4.1696206763
  9
$CELTYPE
  6
BYLAYER
  9
$DIMSCALE
 40
1.0
  9
$DIMASZ
 40
0.538432422
  9
$DIMEXO
 40
1.0
  9
$DIMDLI
 40
2.8808288309
  9
$DIMEXE
 40
1.0
  9
$DIMCEN
 40
0.6823015652
  9
$DIMLFAC
 40
1.0
  9
$DIMBLK
  1
_FILLED
  9
$DIMALT
 70
0
  9
$DIMALTF
 40
0.0393700787
  9
$DIMTXT
 40
0.7538053909
  9
$DIMTOL
 70
1
  9
$DIMLIM
 70
0
  9
$DIMTFAC
 40
1.0
  9
$DIMTP
 40
0.01
  9
$DIMTM
 40
0.01
  9
$DIMGAP
 40
0.625
  9
$DIMDSEP
 70
46
  9
$AUNITS
 70
0
  9
$PDMODE
 70
3
  9
$PDSIZE
 40
0.3125
  9
$HANDSEED
  5
309
  9
$TILEMODE
 70
1
  9
$MEASUREMENT
 70
1
  9
$INSUNITS
 70
4
  0
ENDSEC
  0
SECTION
  2
CLASSES
  0
CLASS
  1
ACDBDICTIONARYWDFLT
  2
AcDbDictionaryWithDefault
  3
AutoCAD 2000
 90
0
 91
1
280
0
281
0
  0
CLASS
  1
ACDBPLACEHOLDER
  2
AcDbPlaceHolder
  3
AutoCAD 2000
 90
0
 91
1
280
0
281
0
  0
CLASS
  1
LAYOUT
  2
AcDbLayout
  3
AutoCAD 2000
 90
0
 91
0
280
0
281
0
  0
ENDSEC
  0
SECTION
  2
TABLES
  0
TABLE
  2
VPORT
  5
8
100
AcDbSymbolTable
 70
2
  0
VPORT
  5
1F4
100
AcDbSymbolTableRecord
100
AcDbViewportTableRecord
  2
*ACTIVE
 70
0
 10
0.0
 20
0.0
 11
1.0
 21
1.0
 12
22.614161726
 22
31.9828858696
 13
0.0
 23
0.0
 14
1.0
 24
1.0
 15
0.0
 25
0.0
 16
0.0
 26
0.0
 36
1.0
 17
0.0
 27
0.0
 37
0.0
 40
63.9657717391
 41
0.7070707071
 42
50.0
 43
0.0
 44
0.0
 50
0.0
 51
0.0
 71
0
 72
100
 73
1
 74
1
 75
0
 76
0
 77
0
 78
0
  0
ENDTAB
  0
TABLE
  2
LTYPE
  5
5
100
AcDbSymbolTable
 70
6
  0
LTYPE
  5
14
100
AcDbSymbolTableRecord
100
AcDbLinetypeTableRecord
  2
BYBLOCK
 70
0
  3

 72
65
 73
0
 40
0.0
  0
LTYPE
  5
15
100
AcDbSymbolTableRecord
100
AcDbLinetypeTableRecord
  2
BYLAYER
 70
0
  3

 72
65
 73
0
 40
0.0
  0
LTYPE
  5
16
100
AcDbSymbolTableRecord
100
AcDbLinetypeTableRecord
  2
CONTINUOUS
 70
64
  3
Solid line
 72
65
 73
0
 40
0.0
  0
LTYPE
  5
1F5
100
AcDbSymbolTableRecord
100
AcDbLinetypeTableRecord
  2
CENTER
 70
64
  3
____ _ ____ _ ____ _ ____ _ ____ _ ____ _ ____
 72
65
 73
4
 40
0.6
 49
0.375
 74
0
 49
-0.075
 74
0
 49
0.075
 74
0
 49
-0.075
 74
0
  0
LTYPE
  5
1F6
100
AcDbSymbolTableRecord
100
AcDbLinetypeTableRecord
  2
HIDDEN
 70
64
  3
- - - - - - - - - - - - - - - - - - - -
 72
65
 73
2
 40
0.2
 49
0.1
 74
0
 49
-0.1
 74
0
  0
LTYPE
  5
1F7
100
AcDbSymbolTableRecord
100
AcDbLinetypeTableRecord
  2
PHANTOM
 70
64
  3
_____ _ _ _____ _ _ _____ _ _ _____
 72
65
 73
6
 40
0.8
 49
0.45
 74
0
 49
-0.05
 74
0
 49
0.1
 74
0
 49
-0.05
 74
0
 49
0.1
 74
0
 49
-0.05
 74
0
  0
LTYPE
  5
1F8
100
AcDbSymbolTableRecord
100
AcDbLinetypeTableRecord
  2
DOT
 70
64
  3
. . . . . . . . . . . . . . . . . . . .
 72
65
 73
2
 40
0.2
 49
0.1
 74
0
 49
-0.1
 74
0
  0
LTYPE
  5
1F9
100
AcDbSymbolTableRecord
100
AcDbLinetypeTableRecord
  2
DASHED
 70
64
  3
- - - - - - - - - - - - - - - - - - - -
 72
65
 73
2
 40
0.2
 49
0.1
 74
0
 49
-0.1
 74
0
  0
ENDTAB
  0
TABLE
  2
LAYER
  5
2
100
AcDbSymbolTable
 70
36
  0
LAYER
  5
10
100
AcDbSymbolTableRecord
100
AcDbLayerTableRecord
  2
0
 70
0
 62
7
  6
CONTINUOUS
370
-3
390
F
  0
LAYER
  5
1FA
100
AcDbSymbolTableRecord
100
AcDbLayerTableRecord
  2
DEFAULT_1
 70
0
 62
7
  6
CENTER
370
-3
390
F
  0
LAYER
  5
1FB
100
AcDbSymbolTableRecord
100
AcDbLayerTableRecord
  2
DEFAULT_2
 70
0
 62
7
  6
HIDDEN
370
-3
390
F
  0
LAYER
  5
1FC
100
AcDbSymbolTableRecord
100
AcDbLayerTableRecord
  2
DEFAULT_3
 70
0
 62
7
  6
PHANTOM
370
-3
390
F
  0
LAYER
  5
1FD
100
AcDbSymbolTableRecord
100
AcDbLayerTableRecord
  2
00_COMPONENTS
 70
0
 62
7
  6
CONTINUOUS
370
-3
390
F
  0
LAYER
  5
1FE
100
AcDbSymbolTableRecord
100
AcDbLayerTableRecord
  2
01_1_DEFAULT_DATUMS
 70
0
 62
7
  6
CONTINUOUS
370
-3
390
F
  0
LAYER
  5
1FF
100
AcDbSymbolTableRecord
100
AcDbLayerTableRecord
  2
01_PLANES
 70
0
 62
7
  6
CONTINUOUS
370
-3
390
F
  0
LAYER
  5
200
100
AcDbSymbolTableRecord
100
AcDbLayerTableRecord
  2
02_COORD_SYS
 70
0
 62
7
  6
CONTINUOUS
370
-3
390
F
  0
LAYER
  5
201
100
AcDbSymbolTableRecord
100
AcDbLayerTableRecord
  2
03_AXES
 70
0
 62
7
  6
CONTINUOUS
370
-3
390
F
  0
LAYER
  5
202
100
AcDbSymbolTableRecord
100
AcDbLayerTableRecord
  2
04_POINTS
 70
0
 62
7
  6
CONTINUOUS
370
-3
390
F
  0
LAYER
  5
203
100
AcDbSymbolTableRecord
100
AcDbLayerTableRecord
  2
05_CURVES
 70
0
 62
7
  6
CONTINUOUS
370
-3
390
F
  0
LAYER
  5
204
100
AcDbSymbolTableRecord
100
AcDbLayerTableRecord
  2
06_SURFS
 70
0
 62
7
  6
CONTINUOUS
370
-3
390
F
  0
LAYER
  5
205
100
AcDbSymbolTableRecord
100
AcDbLayerTableRecord
  2
07_COSMETICS
 70
0
 62
7
  6
CONTINUOUS
370
-3
390
F
  0
LAYER
  5
206
100
AcDbSymbolTableRecord
100
AcDbLayerTableRecord
  2
10_NOTES
 70
0
 62
7
  6
CONTINUOUS
370
-3
390
F
  0
LAYER
  5
207
100
AcDbSymbolTableRecord
100
AcDbLayerTableRecord
  2
11_NOTES_PUB
 70
0
 62
7
  6
CONTINUOUS
370
-3
390
F
  0
LAYER
  5
208
100
AcDbSymbolTableRecord
100
AcDbLayerTableRecord
  2
13_REF_GTOL
 70
0
 62
7
  6
CONTINUOUS
370
-3
390
F
  0
LAYER
  5
209
100
AcDbSymbolTableRecord
100
AcDbLayerTableRecord
  2
16_MISC
 70
0
 62
7
  6
CONTINUOUS
370
-3
390
F
  0
LAYER
  5
20A
100
AcDbSymbolTableRecord
100
AcDbLayerTableRecord
  2
17_NO_PRINT
 70
0
 62
7
  6
CONTINUOUS
370
-3
390
F
  0
LAYER
  5
20B
100
AcDbSymbolTableRecord
100
AcDbLayerTableRecord
  2
18_DATUM_CAMS_JOINTS
 70
0
 62
7
  6
CONTINUOUS
370
-3
390
F
  0
LAYER
  5
20C
100
AcDbSymbolTableRecord
100
AcDbLayerTableRecord
  2
19_DATUM_FUNCTIONAL
 70
0
 62
7
  6
CONTINUOUS
370
-3
390
F
  0
LAYER
  5
20D
100
AcDbSymbolTableRecord
100
AcDbLayerTableRecord
  2
20_DATUM_KINEMATIC_SCHEME
 70
0
 62
7
  6
CONTINUOUS
370
-3
390
F
  0
ENDTAB
  0
TABLE
  2
STYLE
  5
3
100
AcDbSymbolTable
 70
1
  0
STYLE
  5
11
100
AcDbSymbolTableRecord
100
AcDbTextStyleTableRecord
  2
STANDARD
 70
0
 40
0.0
 41
1.0
 50
0.0
 71
0
 42
0.2
  3
ARIAL.TTF
  4

  0
STYLE
  5
20E
100
AcDbSymbolTableRecord
100
AcDbTextStyleTableRecord
  2
TEXTSTYLE_1
 70
0
 40
0.0
 41
0.8
 50
0.0
 71
0
 42
0.2
  3
gdt
  4

  0
ENDTAB
  0
TABLE
  2
VIEW
  5
6
100
AcDbSymbolTable
 70
0
  0
ENDTAB
  0
TABLE
  2
UCS
  5
7
100
AcDbSymbolTable
 70
0
  0
ENDTAB
  0
TABLE
  2
APPID
  5
9
100
AcDbSymbolTable
 70
1
  0
APPID
  5
20F
100
AcDbSymbolTableRecord
100
AcDbRegAppTableRecord
  2
ACAD
 70
0
  0
ENDTAB
  0
TABLE
  2
BLOCK_RECORD
  5
1
100
AcDbSymbolTable
 70
0
  0
BLOCK_RECORD
  5
210
100
AcDbSymbolTableRecord
100
AcDbBlockTableRecord
  2
*Model_Space
  0
BLOCK_RECORD
  5
211
100
AcDbSymbolTableRecord
100
AcDbBlockTableRecord
  2
*Paper_Space
  0
BLOCK_RECORD
  5
212
100
AcDbSymbolTableRecord
100
AcDbBlockTableRecord
  2
_FILLED
  0
ENDTAB
  0
TABLE
  2
DIMSTYLE
  5
A
100
AcDbSymbolTable
 70
1
100
AcDbDimStyleTable
 71
0
  0
DIMSTYLE
105
213
100
AcDbSymbolTableRecord
100
AcDbDimStyleTableRecord
  2
STANDARD
 70
0
  3

  4

 40
1.0
 41
0.538432422
 42
1.0
 43
0.38
 44
1.0
 45
0.0
 46
0.0
 47
0.01
 48
0.01
140
0.7538053909
141
0.09
142
0.0
143
25.4
144
1.0
145
0.0
146
1.0
147
0.625
 71
1
 72
0
 73
0
 74
0
 75
0
 76
0
 77
1
 78
8
 79
2
170
0
171
1
172
0
173
0
174
0
175
0
176
0
177
0
178
0
270
2
179
2
271
2
272
2
273
2
274
2
275
0
280
0
281
0
282
0
283
1
284
8
285
0
286
0
287
3
288
0
340
11
278
46
341
212
342
212
343
212
344
212
  0
ENDTAB
  0
ENDSEC
  0
SECTION
  2
BLOCKS
  0
BLOCK
  5
20
100
AcDbEntity
  8
0
100
AcDbBlockBegin
  2
*Model_Space
 70
0
 10
0.0
 20
0.0
 30
0.0
  3
*Model_Space
  1

  0
ENDBLK
  5
21
100
AcDbEntity
  8
0
100
AcDbBlockEnd
  0
BLOCK
  5
1C
100
AcDbEntity
  8
0
100
AcDbBlockBegin
  2
*Paper_Space
 70
0
 10
0.0
 20
0.0
 30
0.0
  3
*Paper_Space
  1

  0
ENDBLK
  5
1D
100
AcDbEntity
  8
0
100
AcDbBlockEnd
  0
BLOCK
  5
214
100
AcDbEntity
  8
0
100
AcDbBlockBegin
  2
_FILLED
 70
64
 10
0.0
 20
0.0
  3
_FILLED
  1

  0
SOLID
  5
215
100
AcDbEntity
  8
0
  6
BYBLOCK
 62
0
100
AcDbTrace
 10
0.0
 20
0.0
 11
-1.0
 21
0.25
 12
-1.0
 22
-0.25
 13
-1.0
 23
-0.25
  0
ENDBLK
  5
216
100
AcDbEntity
  8
0
  6
BYBLOCK
 62
0
100
AcDbBlockEnd
  0
ENDSEC
  0
SECTION
  2
ENTITIES
  0
LINE
  5
217
100
AcDbEntity
  8
0
100
AcDbLine
 62
7
  6
BYLAYER
 10
29.6174344578
 20
5.1282228261
 11
16.8635846468
 21
5.1282228261
  0
LINE
  5
218
100
AcDbEntity
  8
0
100
AcDbLine
 62
7
  6
BYLAYER
 10
29.9681572869
 20
5.5413987373
 11
29.6456671411
 21
5.5413987373
  0
LINE
  5
219
100
AcDbEntity
  8
0
100
AcDbLine
 62
7
  6
BYLAYER
 10
28.9385603599
 20
5.5413987373
 11
28.5539437245
 21
5.5413987373
  0
LINE
  5
21A
100
AcDbEntity
  8
0
100
AcDbLine
 62
7
  6
BYLAYER
 10
26.6972342776
 20
5.5413987373
 11
19.7837848264
 21
5.5413987373
  0
LINE
  5
21B
100
AcDbEntity
  8
0
100
AcDbLine
 62
7
  6
BYLAYER
 10
17.9270753795
 20
5.5413987373
 11
16.5128618171
 21
5.5413987373
  0
LINE
  5
21C
100
AcDbEntity
  8
0
100
AcDbLine
 62
7
  6
BYLAYER
 10
28.9431593342
 20
5.5782228261
 11
29.1594432383
 21
5.5782228261
  0
LINE
  5
21D
100
AcDbEntity
  8
0
100
AcDbLine
 62
7
  6
BYLAYER
 10
29.053404786
 20
5.7282228261
 11
28.9618928907
 21
5.7282228261
  0
LINE
  5
21E
100
AcDbEntity
  8
0
100
AcDbLine
 62
7
  6
BYLAYER
 10
28.9773733992
 20
5.8521755994
 11
29.1578594221
 21
5.8521755994
  0
LINE
  5
21F
100
AcDbEntity
  8
0
100
AcDbLine
 62
7
  6
BYLAYER
 10
19.4649448492
 20
8.0650469149
 11
27.0160742548
 21
8.0650469149
  0
LINE
  5
220
100
AcDbEntity
  8
0
100
AcDbLine
 62
7
  6
BYLAYER
 10
32.3856930429
 20
8.4782228261
 11
30.012424984
 21
8.4782228261
  0
LINE
  5
221
100
AcDbEntity
  8
0
100
AcDbLine
 62
7
  6
BYLAYER
 10
29.3439872997
 20
8.4782228261
 11
14.0953267809
 21
8.4782228261
  0
LINE
  5
222
100
AcDbEntity
  8
0
100
AcDbLine
 62
7
  6
BYLAYER
 10
32.8188217155
 20
8.7282228261
 11
30.3577181638
 21
8.7282228261
  0
LINE
  5
223
100
AcDbEntity
  8
0
100
AcDbLine
 62
7
  6
BYLAYER
 10
29.6506113826
 20
8.7282228261
 11
13.6621973885
 21
8.7282228261
  0
LINE
  5
224
100
AcDbEntity
  8
0
100
AcDbLine
 62
7
  6
BYLAYER
 10
13.0951601327
 20
9.7103601629
 11
30.0520840332
 21
9.7103601629
  0
LINE
  5
225
100
AcDbEntity
  8
0
100
AcDbLine
 62
7
  6
BYLAYER
 10
30.7591908144
 20
9.7103601629
 11
33.3858589713
 21
9.7103601629
  0
LINE
  5
226
100
AcDbEntity
  8
0
100
AcDbLine
 62
7
  6
BYLAYER
 10
30.2342322657
 20
9.9500934497
 11
30.0994545443
 21
9.9500934497
  0
LINE
  5
227
100
AcDbEntity
  8
0
100
AcDbLine
 62
7
  6
BYLAYER
 10
33.452770117
 20
9.9516339596
 11
30.8065613255
 21
9.9516339596
  0
LINE
  5
228
100
AcDbEntity
  8
0
100
AcDbLine
 62
7
  6
BYLAYER
 10
30.0994545443
 20
9.9516339596
 11
13.028248987
 21
9.9516339596
  0
LINE
  5
229
100
AcDbEntity
  8
0
100
AcDbLine
 62
7
  6
BYLAYER
 10
11.940509552
 20
10.4782228261
 11
11.740509552
 21
10.6782228261
  0
LINE
  5
22A
100
AcDbEntity
  8
0
100
AcDbLine
 62
7
  6
BYLAYER
 10
21.3155098177
 20
58.9007220463
 11
21.5655103656
 21
59.1507225521
  0
LINE
  5
22B
100
AcDbEntity
  8
0
100
AcDbLine
 62
7
  6
BYLAYER
 10
30.1051510291
 20
10.4126157345
 11
30.2905166374
 21
10.4126157345
  0
LINE
  5
22C
100
AcDbEntity
  8
0
100
AcDbLine
 62
7
  6
BYLAYER
 10
34.5405071103
 20
10.4782228261
 11
31.9405119937
 21
10.4782228261
  0
LINE
  5
22D
100
AcDbEntity
  8
0
100
AcDbLine
 62
7
  6
BYLAYER
 10
14.5405071103
 20
10.4782228261
 11
11.9405119937
 21
10.4782228261
  0
LINE
  5
22E
100
AcDbEntity
  8
0
100
AcDbLine
 62
7
  6
BYLAYER
 10
34.740509552
 20
10.6782228261
 11
31.740509552
 21
10.6782228261
  0
LINE
  5
22F
100
AcDbEntity
  8
0
100
AcDbLine
 62
7
  6
BYLAYER
 10
14.740509552
 20
10.6782228261
 11
11.740509552
 21
10.6782228261
  0
LINE
  5
230
100
AcDbEntity
  8
0
100
AcDbLine
 62
7
  6
BYLAYER
 10
13.6621973885
 20
8.7282228261
 11
13.0951601327
 21
9.7103601629
  0
LINE
  5
231
100
AcDbEntity
  8
0
100
AcDbLine
 62
7
  6
BYLAYER
 10
21.215509734
 20
55.9282223961
 11
21.315509552
 21
56.0282221953
  0
LINE
  5
232
100
AcDbEntity
  8
0
100
AcDbLine
 62
7
  6
BYLAYER
 10
31.740509552
 20
14.9782228261
 11
30.8686763344
 21
14.9782228261
  0
LINE
  5
233
100
AcDbEntity
  8
0
100
AcDbLine
 62
7
  6
BYLAYER
 10
30.1615695532
 20
14.9782228261
 11
14.740509552
 21
14.9782228261
  0
LINE
  5
234
100
AcDbEntity
  8
0
100
AcDbLine
 62
7
  6
BYLAYER
 10
30.3469327029
 20
14.9834589468
 11
30.1615695532
 21
14.9834589468
  0
LINE
  5
235
100
AcDbEntity
  8
0
100
AcDbLine
 62
7
  6
BYLAYER
 10
35.240509552
 20
15.3782228261
 11
34.740509552
 21
15.3782228261
  0
LINE
  5
236
100
AcDbEntity
  8
0
100
AcDbLine
 62
7
  6
BYLAYER
 10
34.0211905263
 20
15.3782228261
 11
28.7729310085
 21
15.3782228261
  0
LINE
  5
237
100
AcDbEntity
  8
0
100
AcDbLine
 62
7
  6
BYLAYER
 10
17.7080880955
 20
15.3782228261
 11
12.4598285777
 21
15.3782228261
  0
LINE
  5
238
100
AcDbEntity
  8
0
100
AcDbLine
 62
7
  6
BYLAYER
 10
11.740509552
 20
15.3782228261
 11
11.240509552
 21
15.3782228261
  0
LINE
  5
239
100
AcDbEntity
  8
0
100
AcDbLine
 62
7
  6
BYLAYER
 10
11.740509552
 20
15.4782228261
 11
12.4598285777
 21
15.4782228261
  0
LINE
  5
23A
100
AcDbEntity
  8
0
100
AcDbLine
 62
7
  6
BYLAYER
 10
34.0211905263
 20
15.4782228261
 11
34.740509552
 21
15.4782228261
  0
LINE
  5
23B
100
AcDbEntity
  8
0
100
AcDbLine
 62
7
  6
BYLAYER
 10
34.540509552
 20
15.6782228261
 11
34.0211905263
 21
15.6782228261
  0
LINE
  5
23C
100
AcDbEntity
  8
0
100
AcDbLine
 62
7
  6
BYLAYER
 10
12.4598285777
 20
15.6782228261
 11
11.940509552
 21
15.6782228261
  0
LINE
  5
23D
100
AcDbEntity
  8
0
100
AcDbLine
 62
7
  6
BYLAYER
 10
36.62705163
 20
15.9782228261
 11
9.853967474
 21
15.9782228261
  0
LINE
  5
23E
100
AcDbEntity
  8
0
100
AcDbLine
 62
7
  6
BYLAYER
 10
9.8190573442
 20
17.9782228261
 11
10.879717516
 21
17.9782228261
  0
LINE
  5
23F
100
AcDbEntity
  8
0
100
AcDbLine
 62
7
  6
BYLAYER
 10
35.601301588
 20
17.9782228261
 11
36.6619617598
 21
17.9782228261
  0
LINE
  5
240
100
AcDbEntity
  8
0
100
AcDbLine
 62
7
  6
BYLAYER
 10
13.0951601327
 20
9.7103601629
 11
13.028248987
 21
9.9516339596
  0
LINE
  5
241
100
AcDbEntity
  8
0
100
AcDbLine
 62
7
  6
BYLAYER
 10
9.853967474
 20
15.9782228261
 11
9.740509552
 21
22.4782228261
  0
LINE
  5
242
100
AcDbEntity
  8
0
100
AcDbLine
 62
7
  6
BYLAYER
 10
10.4404029386
 20
22.4782228261
 11
10.5189507308
 21
17.9782228261
  0
LINE
  5
243
100
AcDbEntity
  8
0
100
AcDbLine
 62
7
  6
BYLAYER
 10
10.879717516
 20
17.9782228261
 11
10.9146276458
 21
15.9782228261
  0
LINE
  5
244
100
AcDbEntity
  8
0
100
AcDbLine
 62
7
  6
BYLAYER
 10
9.790509552
 20
22.4782228261
 11
9.790509552
 21
25.4782228261
  0
LINE
  5
245
100
AcDbEntity
  8
0
100
AcDbLine
 62
7
  6
BYLAYER
 10
10.490509552
 20
22.4782228261
 11
10.490509552
 21
24.4782228261
  0
LINE
  5
246
100
AcDbEntity
  8
0
100
AcDbLine
 62
7
  6
BYLAYER
 10
11.240509552
 20
30.9782228261
 11
11.240509552
 21
26.4782228261
  0
LINE
  5
247
100
AcDbEntity
  8
0
100
AcDbLine
 62
7
  6
BYLAYER
 10
11.240509552
 20
15.3782228261
 11
11.240509552
 21
15.9782228261
  0
LINE
  5
248
100
AcDbEntity
  8
0
100
AcDbLine
 62
7
  6
BYLAYER
 10
11.3991684059
 20
15.3782228261
 11
11.3991684059
 21
15.9782228261
  0
LINE
  5
249
100
AcDbEntity
  8
0
100
AcDbLine
 62
7
  6
BYLAYER
 10
10.3915278218
 20
26.2043695489
 11
10.240509552
 21
24.4782228261
  0
LINE
  5
24A
100
AcDbEntity
  8
0
100
AcDbLine
 62
7
  6
BYLAYER
 10
13.028248987
 20
9.9516339596
 11
13.0190573442
 21
10.4782228261
  0
LINE
  5
24B
100
AcDbEntity
  8
0
100
AcDbLine
 62
7
  6
BYLAYER
 10
11.740509552
 20
15.4782228261
 11
11.740509552
 21
10.6782228261
  0
LINE
  5
24C
100
AcDbEntity
  8
0
100
AcDbLine
 62
7
  6
BYLAYER
 10
11.940509552
 20
15.9782228261
 11
11.940509552
 21
15.6782228261
  0
LINE
  5
24D
100
AcDbEntity
  8
0
100
AcDbLine
 62
7
  6
BYLAYER
 10
12.4598285777
 20
15.9782228261
 11
12.4598285777
 21
15.3782228261
  0
LINE
  5
24E
100
AcDbEntity
  8
0
100
AcDbLine
 62
7
  6
BYLAYER
 10
12.8482047066
 20
26.4782228261
 11
12.8482047066
 21
30.9782228261
  0
LINE
  5
24F
100
AcDbEntity
  8
0
100
AcDbLine
 62
7
  6
BYLAYER
 10
13.240509552
 20
32.2400150608
 11
13.240509552
 21
26.4782228261
  0
LINE
  5
250
100
AcDbEntity
  8
0
100
AcDbLine
 62
7
  6
BYLAYER
 10
11.602115153
 20
15.9782229032
 11
11.5939079171
 21
15.3782228261
  0
LINE
  5
251
100
AcDbEntity
  8
0
100
AcDbLine
 62
7
  6
BYLAYER
 10
13.0326149955
 20
37.6664513937
 11
11.240509552
 21
30.9782228261
  0
LINE
  5
252
100
AcDbEntity
  8
0
100
AcDbLine
 62
7
  6
BYLAYER
 10
25.265509552
 20
50.7532221992
 11
25.3905100496
 21
50.8782227375
  0
LINE
  5
253
100
AcDbEntity
  8
0
100
AcDbLine
 62
7
  6
BYLAYER
 10
25.165509552
 20
49.3282234569
 11
25.26550937
 21
49.4282232561
  0
LINE
  5
254
100
AcDbEntity
  8
0
100
AcDbLine
 62
7
  6
BYLAYER
 10
13.7581476422
 20
15.3782228261
 11
13.7581476422
 21
15.9782228261
  0
LINE
  5
255
100
AcDbEntity
  8
0
100
AcDbLine
 62
7
  6
BYLAYER
 10
14.740509552
 20
15.3782228261
 11
14.740509552
 21
10.6782228261
  0
LINE
  5
256
100
AcDbEntity
  8
0
100
AcDbLine
 62
7
  6
BYLAYER
 10
15.240509552
 20
50.0782228261
 11
15.240509552
 21
38.7782228261
  0
LINE
  5
257
100
AcDbEntity
  8
0
100
AcDbLine
 62
7
  6
BYLAYER
 10
18.4778009579
 20
55.2915177213
 11
18.4836698831
 21
55.335062495
  0
LINE
  5
258
100
AcDbEntity
  8
0
100
AcDbLine
 62
7
  6
BYLAYER
 10
24.9155087384
 20
46.2057231
 11
25.1655092863
 21
46.4557236059
  0
LINE
  5
259
100
AcDbEntity
  8
0
100
AcDbLine
 62
7
  6
BYLAYER
 10
36.740509552
 20
22.4782228261
 11
9.740509552
 21
22.4782228261
  0
LINE
  5
25A
100
AcDbEntity
  8
0
100
AcDbLine
 62
7
  6
BYLAYER
 10
31.940509552
 20
10.4782228261
 11
31.740509552
 21
10.6782228261
  0
LINE
  5
25B
100
AcDbEntity
  8
0
100
AcDbLine
 62
7
  6
BYLAYER
 10
16.0894912822
 20
26.2043695489
 11
16.240509552
 21
24.4782228261
  0
LINE
  5
25C
100
AcDbEntity
  8
0
100
AcDbLine
 62
7
  6
BYLAYER
 10
17.240509552
 20
24.6782228261
 11
17.240509552
 21
32.2400150608
  0
LINE
  5
25D
100
AcDbEntity
  8
0
100
AcDbLine
 62
7
  6
BYLAYER
 10
9.790509552
 20
24.4782228261
 11
17.040509552
 21
24.4782228261
  0
LINE
  5
25E
100
AcDbEntity
  8
0
100
AcDbLine
 62
7
  6
BYLAYER
 10
29.440509552
 20
24.4782228261
 11
36.690509552
 21
24.4782228261
  0
LINE
  5
25F
100
AcDbEntity
  8
0
100
AcDbLine
 62
7
  6
BYLAYER
 10
36.690509552
 20
24.6782228261
 11
36.2230118193
 21
24.6782228261
  0
LINE
  5
260
100
AcDbEntity
  8
0
100
AcDbLine
 62
7
  6
BYLAYER
 10
30.2580072847
 20
24.6782228261
 11
29.240509552
 21
24.6782228261
  0
LINE
  5
261
100
AcDbEntity
  8
0
100
AcDbLine
 62
7
  6
BYLAYER
 10
17.240509552
 20
24.6782228261
 11
16.2230118193
 21
24.6782228261
  0
LINE
  5
262
100
AcDbEntity
  8
0
100
AcDbLine
 62
7
  6
BYLAYER
 10
10.2580072847
 20
24.6782228261
 11
9.790509552
 21
24.6782228261
  0
LINE
  5
263
100
AcDbEntity
  8
0
100
AcDbLine
 62
7
  6
BYLAYER
 10
17.240509552
 20
25.4782228261
 11
29.240509552
 21
25.4782228261
  0
LINE
  5
264
100
AcDbEntity
  8
0
100
AcDbLine
 62
7
  6
BYLAYER
 10
10.914370445
 20
25.6782228261
 11
11.5170883554
 21
25.6782228261
  0
LINE
  5
265
100
AcDbEntity
  8
0
100
AcDbLine
 62
7
  6
BYLAYER
 10
30.914370445
 20
25.6782228261
 11
31.5170883554
 21
25.6782228261
  0
LINE
  5
266
100
AcDbEntity
  8
0
100
AcDbLine
 62
7
  6
BYLAYER
 10
29.240509552
 20
25.9782228261
 11
17.240509552
 21
25.9782228261
  0
LINE
  5
267
100
AcDbEntity
  8
0
100
AcDbLine
 62
7
  6
BYLAYER
 10
10.3717425473
 20
25.9782228261
 11
10.290509552
 21
25.9782228261
  0
LINE
  5
268
100
AcDbEntity
  8
0
100
AcDbLine
 62
7
  6
BYLAYER
 10
36.1092765567
 20
25.9782228261
 11
36.190509552
 21
25.9782228261
  0
LINE
  5
269
100
AcDbEntity
  8
0
100
AcDbLine
 62
7
  6
BYLAYER
 10
29.240509552
 20
26.1782228261
 11
17.240509552
 21
26.1782228261
  0
LINE
  5
26A
100
AcDbEntity
  8
0
100
AcDbLine
 62
7
  6
BYLAYER
 10
10.3915278218
 20
26.2043695489
 11
10.9390404098
 21
26.2043695489
  0
LINE
  5
26B
100
AcDbEntity
  8
0
100
AcDbLine
 62
7
  6
BYLAYER
 10
11.5612428411
 20
26.2043695489
 11
16.0894912822
 21
26.2043695489
  0
LINE
  5
26C
100
AcDbEntity
  8
0
100
AcDbLine
 62
7
  6
BYLAYER
 10
30.3915278218
 20
26.2043695489
 11
30.9390404098
 21
26.2043695489
  0
LINE
  5
26D
100
AcDbEntity
  8
0
100
AcDbLine
 62
7
  6
BYLAYER
 10
31.5612428411
 20
26.2043695489
 11
36.0894912822
 21
26.2043695489
  0
LINE
  5
26E
100
AcDbEntity
  8
0
100
AcDbLine
 62
7
  6
BYLAYER
 10
17.7080880955
 20
15.9782228261
 11
17.7080880955
 21
15.3782228261
  0
LINE
  5
26F
100
AcDbEntity
  8
0
100
AcDbLine
 62
7
  6
BYLAYER
 10
10.6904185632
 20
26.4782228261
 11
15.7906005408
 21
26.4782228261
  0
LINE
  5
270
100
AcDbEntity
  8
0
100
AcDbLine
 62
7
  6
BYLAYER
 10
30.6904185632
 20
26.4782228261
 11
35.7906005408
 21
26.4782228261
  0
LINE
  5
271
100
AcDbEntity
  8
0
100
AcDbLine
 62
7
  6
BYLAYER
 10
21.090509552
 20
40.2782228261
 11
21.090509552
 21
57.2797094541
  0
LINE
  5
272
100
AcDbEntity
  8
0
100
AcDbLine
 62
7
  6
BYLAYER
 10
21.215509552
 20
49.4282232561
 11
21.215509552
 21
55.9282223961
  0
LINE
  5
273
100
AcDbEntity
  8
0
100
AcDbLine
 62
7
  6
BYLAYER
 10
21.315509552
 20
46.4557236059
 11
21.315509552
 21
58.9007220463
  0
LINE
  5
274
100
AcDbEntity
  8
0
100
AcDbLine
 62
7
  6
BYLAYER
 10
34.540509552
 20
15.6782228261
 11
34.740509552
 21
15.4782228261
  0
LINE
  5
275
100
AcDbEntity
  8
0
100
AcDbLine
 62
7
  6
BYLAYER
 10
21.5655100916
 20
46.2057228261
 11
21.5655100916
 21
59.1507228261
  0
LINE
  5
276
100
AcDbEntity
  8
0
100
AcDbLine
 62
7
  6
BYLAYER
 10
11.240509552
 20
30.9782228261
 11
12.8482047066
 21
30.9782228261
  0
LINE
  5
277
100
AcDbEntity
  8
0
100
AcDbLine
 62
7
  6
BYLAYER
 10
17.240509552
 20
30.9782228261
 11
29.240509552
 21
30.9782228261
  0
LINE
  5
278
100
AcDbEntity
  8
0
100
AcDbLine
 62
7
  6
BYLAYER
 10
33.6328143974
 20
30.9782228261
 11
35.240509552
 21
30.9782228261
  0
LINE
  5
279
100
AcDbEntity
  8
0
100
AcDbLine
 62
7
  6
BYLAYER
 10
24.9155090124
 20
59.1507228261
 11
24.9155090124
 21
46.2057228261
  0
LINE
  5
27A
100
AcDbEntity
  8
0
100
AcDbLine
 62
7
  6
BYLAYER
 10
25.165509552
 20
58.9007220463
 11
25.165509552
 21
46.4557236059
  0
LINE
  5
27B
100
AcDbEntity
  8
0
100
AcDbLine
 62
7
  6
BYLAYER
 10
25.265509552
 20
55.9282223961
 11
25.265509552
 21
49.4282232561
  0
LINE
  5
27C
100
AcDbEntity
  8
0
100
AcDbLine
 62
7
  6
BYLAYER
 10
25.390509552
 20
57.2797094541
 11
25.390509552
 21
40.2782228261
  0
LINE
  5
27D
100
AcDbEntity
  8
0
100
AcDbLine
 62
7
  6
BYLAYER
 10
11.940509552
 20
15.6782228261
 11
11.740509552
 21
15.4782228261
  0
LINE
  5
27E
100
AcDbEntity
  8
0
100
AcDbLine
 62
7
  6
BYLAYER
 10
27.590509552
 20
53.5655640624
 11
27.590509552
 21
51.7910356093
  0
LINE
  5
27F
100
AcDbEntity
  8
0
100
AcDbLine
 62
7
  6
BYLAYER
 10
28.7729310085
 20
15.3782228261
 11
28.7729310085
 21
15.9782228261
  0
LINE
  5
280
100
AcDbEntity
  8
0
100
AcDbLine
 62
7
  6
BYLAYER
 10
29.240509552
 20
24.6782228261
 11
29.240509552
 21
32.2400150608
  0
LINE
  5
281
100
AcDbEntity
  8
0
100
AcDbLine
 62
7
  6
BYLAYER
 10
13.0326149955
 20
37.6664513937
 11
15.6017418709
 21
37.6664513937
  0
LINE
  5
282
100
AcDbEntity
  8
0
100
AcDbLine
 62
7
  6
BYLAYER
 10
16.4692216693
 20
37.6664513937
 11
30.0117974347
 21
37.6664513937
  0
LINE
  5
283
100
AcDbEntity
  8
0
100
AcDbLine
 62
7
  6
BYLAYER
 10
30.8792772331
 20
37.6664513937
 11
33.4484041085
 21
37.6664513937
  0
LINE
  5
284
100
AcDbEntity
  8
0
100
AcDbLine
 62
7
  6
BYLAYER
 10
30.1615695532
 20
14.9782228261
 11
30.1615695532
 21
15.3782228261
  0
LINE
  5
285
100
AcDbEntity
  8
0
100
AcDbLine
 62
7
  6
BYLAYER
 10
30.3469327029
 20
15.3782228261
 11
30.3469327029
 21
14.9834589468
  0
LINE
  5
286
100
AcDbEntity
  8
0
100
AcDbLine
 62
7
  6
BYLAYER
 10
30.5590618733
 20
15.3782228261
 11
30.5590593525
 21
14.982149983
  0
LINE
  5
287
100
AcDbEntity
  8
0
100
AcDbLine
 62
7
  6
BYLAYER
 10
30.8686763344
 20
15.3782228261
 11
30.8686763344
 21
14.9782228261
  0
LINE
  5
288
100
AcDbEntity
  8
0
100
AcDbLine
 62
7
  6
BYLAYER
 10
31.240509552
 20
50.0782228261
 11
31.240509552
 21
38.7782228261
  0
LINE
  5
289
100
AcDbEntity
  8
0
100
AcDbLine
 62
7
  6
BYLAYER
 10
30.1615695532
 20
14.9782228261
 11
30.0994545443
 21
9.9516339596
  0
LINE
  5
28A
100
AcDbEntity
  8
0
100
AcDbLine
 62
7
  6
BYLAYER
 10
30.2905166374
 20
10.4126157345
 11
30.3469327029
 21
14.9834589468
  0
LINE
  5
28B
100
AcDbEntity
  8
0
100
AcDbLine
 62
7
  6
BYLAYER
 10
30.5590593525
 20
14.982149983
 11
30.5026323797
 21
10.4099867213
  0
LINE
  5
28C
100
AcDbEntity
  8
0
100
AcDbLine
 62
7
  6
BYLAYER
 10
30.8065613255
 20
9.9516339597
 11
30.8686763344
 21
14.9782228261
  0
LINE
  5
28D
100
AcDbEntity
  8
0
100
AcDbLine
 62
7
  6
BYLAYER
 10
30.3915278218
 20
26.2043695489
 11
30.240509552
 21
24.4782228261
  0
LINE
  5
28E
100
AcDbEntity
  8
0
100
AcDbLine
 62
7
  6
BYLAYER
 10
14.4816201146
 20
38.7782228261
 11
31.9994199538
 21
38.7782228261
  0
LINE
  5
28F
100
AcDbEntity
  8
0
100
AcDbLine
 62
7
  6
BYLAYER
 10
21.090509552
 20
40.2782228261
 11
25.390509552
 21
40.2782228261
  0
LINE
  5
290
100
AcDbEntity
  8
0
100
AcDbLine
 62
7
  6
BYLAYER
 10
28.0190051212
 20
55.3067183953
 11
28.0210567592
 21
55.2915177213
  0
LINE
  5
291
100
AcDbEntity
  8
0
100
AcDbLine
 62
7
  6
BYLAYER
 10
31.740509552
 20
15.3782228261
 11
31.740509552
 21
10.6782228261
  0
LINE
  5
292
100
AcDbEntity
  8
0
100
AcDbLine
 62
7
  6
BYLAYER
 10
32.7228714618
 20
15.9782228261
 11
32.7228714618
 21
15.3782228261
  0
LINE
  5
293
100
AcDbEntity
  8
0
100
AcDbLine
 62
7
  6
BYLAYER
 10
33.240509552
 20
26.4782228261
 11
33.240509552
 21
32.2400150608
  0
LINE
  5
294
100
AcDbEntity
  8
0
100
AcDbLine
 62
7
  6
BYLAYER
 10
29.1578594221
 20
5.8521755994
 11
29.4922886478
 21
8.5344329872
  0
LINE
  5
295
100
AcDbEntity
  8
0
100
AcDbLine
 62
7
  6
BYLAYER
 10
29.7066243144
 20
8.5389837077
 11
29.3683848619
 21
5.8261667633
  0
LINE
  5
296
100
AcDbEntity
  8
0
100
AcDbLine
 62
7
  6
BYLAYER
 10
14.540509552
 20
10.4782228261
 11
14.740509552
 21
10.6782228261
  0
LINE
  5
297
100
AcDbEntity
  8
0
100
AcDbLine
 62
7
  6
BYLAYER
 10
21.5655103656
 20
46.2057231
 11
21.3155098177
 21
46.4557236059
  0
LINE
  5
298
100
AcDbEntity
  8
0
100
AcDbLine
 62
7
  6
BYLAYER
 10
36.0894912822
 20
26.2043695489
 11
36.240509552
 21
24.4782228261
  0
LINE
  5
299
100
AcDbEntity
  8
0
100
AcDbLine
 62
7
  6
BYLAYER
 10
34.8871111869
 20
15.3782228261
 11
34.878901134
 21
15.9782228261
  0
LINE
  5
29A
100
AcDbEntity
  8
0
100
AcDbLine
 62
7
  6
BYLAYER
 10
33.6328143974
 20
30.9782228261
 11
33.6328143974
 21
26.4782228261
  0
LINE
  5
29B
100
AcDbEntity
  8
0
100
AcDbLine
 62
7
  6
BYLAYER
 10
34.0211905263
 20
15.3782228261
 11
34.0211905263
 21
15.9782228261
  0
LINE
  5
29C
100
AcDbEntity
  8
0
100
AcDbLine
 62
7
  6
BYLAYER
 10
34.540509552
 20
15.9782228261
 11
34.540509552
 21
15.6782228261
  0
LINE
  5
29D
100
AcDbEntity
  8
0
100
AcDbLine
 62
7
  6
BYLAYER
 10
34.740509552
 20
15.4782228261
 11
34.740509552
 21
10.6782228261
  0
LINE
  5
29E
100
AcDbEntity
  8
0
100
AcDbLine
 62
7
  6
BYLAYER
 10
35.0818506981
 20
15.9782228261
 11
35.0818506981
 21
15.3782228261
  0
LINE
  5
29F
100
AcDbEntity
  8
0
100
AcDbLine
 62
7
  6
BYLAYER
 10
35.240509552
 20
15.9782228261
 11
35.240509552
 21
15.3782228261
  0
LINE
  5
2A0
100
AcDbEntity
  8
0
100
AcDbLine
 62
7
  6
BYLAYER
 10
35.240509552
 20
26.4782228261
 11
35.240509552
 21
30.9782228261
  0
LINE
  5
2A1
100
AcDbEntity
  8
0
100
AcDbLine
 62
7
  6
BYLAYER
 10
33.452770117
 20
9.9516339596
 11
33.4619617598
 21
10.4782228261
  0
LINE
  5
2A2
100
AcDbEntity
  8
0
100
AcDbLine
 62
7
  6
BYLAYER
 10
21.315509552
 20
49.3282234569
 11
21.215509734
 21
49.4282232561
  0
LINE
  5
2A3
100
AcDbEntity
  8
0
100
AcDbLine
 62
7
  6
BYLAYER
 10
35.240509552
 20
30.9782228261
 11
33.4484041085
 21
37.6664513937
  0
LINE
  5
2A4
100
AcDbEntity
  8
0
100
AcDbLine
 62
7
  6
BYLAYER
 10
35.990509552
 20
24.4782228261
 11
35.990509552
 21
22.4782228261
  0
LINE
  5
2A5
100
AcDbEntity
  8
0
100
AcDbLine
 62
7
  6
BYLAYER
 10
36.690509552
 20
22.4782228261
 11
36.690509552
 21
25.4782228261
  0
LINE
  5
2A6
100
AcDbEntity
  8
0
100
AcDbLine
 62
7
  6
BYLAYER
 10
35.601301588
 20
17.9782228261
 11
35.5663914582
 21
15.9782228261
  0
LINE
  5
2A7
100
AcDbEntity
  8
0
100
AcDbLine
 62
7
  6
BYLAYER
 10
35.9620683732
 20
17.9782228261
 11
36.0406161654
 21
22.4782228261
  0
LINE
  5
2A8
100
AcDbEntity
  8
0
100
AcDbLine
 62
7
  6
BYLAYER
 10
36.740509552
 20
22.4782228261
 11
36.62705163
 21
15.9782228261
  0
LINE
  5
2A9
100
AcDbEntity
  8
0
100
AcDbLine
 62
7
  6
BYLAYER
 10
21.090509552
 20
45.6782228261
 11
25.390509552
 21
45.6782228261
  0
LINE
  5
2AA
100
AcDbEntity
  8
0
100
AcDbLine
 62
7
  6
BYLAYER
 10
24.9155084644
 20
46.2057228261
 11
21.5655106395
 21
46.2057228261
  0
LINE
  5
2AB
100
AcDbEntity
  8
0
100
AcDbLine
 62
7
  6
BYLAYER
 10
33.3858589713
 20
9.7103601629
 11
33.452770117
 21
9.9516339596
  0
LINE
  5
2AC
100
AcDbEntity
  8
0
100
AcDbLine
 62
7
  6
BYLAYER
 10
15.240509552
 20
50.0782228261
 11
21.090509552
 21
50.0782228261
  0
LINE
  5
2AD
100
AcDbEntity
  8
0
100
AcDbLine
 62
7
  6
BYLAYER
 10
25.390509552
 20
50.0782228261
 11
31.240509552
 21
50.0782228261
  0
LINE
  5
2AE
100
AcDbEntity
  8
0
100
AcDbLine
 62
7
  6
BYLAYER
 10
15.4406178973
 20
50.2782228261
 11
21.090509552
 21
50.2782228261
  0
LINE
  5
2AF
100
AcDbEntity
  8
0
100
AcDbLine
 62
7
  6
BYLAYER
 10
25.390509552
 20
50.2782228261
 11
31.0404012068
 21
50.2782228261
  0
LINE
  5
2B0
100
AcDbEntity
  8
0
100
AcDbLine
 62
7
  6
BYLAYER
 10
25.3905100496
 20
54.4782229146
 11
25.265509552
 21
54.603223453
  0
LINE
  5
2B1
100
AcDbEntity
  8
0
100
AcDbLine
 62
7
  6
BYLAYER
 10
25.26550937
 20
55.9282223961
 11
25.165509552
 21
56.0282221953
  0
LINE
  5
2B2
100
AcDbEntity
  8
0
100
AcDbLine
 62
7
  6
BYLAYER
 10
32.8188217155
 20
8.7282228261
 11
33.3858589713
 21
9.7103601629
  0
LINE
  5
2B3
100
AcDbEntity
  8
0
100
AcDbLine
 62
7
  6
BYLAYER
 10
21.090509552
 20
50.6782228261
 11
21.215509552
 21
50.6782228261
  0
LINE
  5
2B4
100
AcDbEntity
  8
0
100
AcDbLine
 62
7
  6
BYLAYER
 10
25.1655092863
 20
58.9007220463
 11
24.9155087384
 21
59.1507225521
  0
LINE
  5
2B5
100
AcDbEntity
  8
0
100
AcDbLine
 62
7
  6
BYLAYER
 10
34.540509552
 20
10.4782228261
 11
34.740509552
 21
10.6782228261
  0
LINE
  5
2B6
100
AcDbEntity
  8
0
100
AcDbLine
 62
7
  6
BYLAYER
 10
21.090509552
 20
54.6782228261
 11
21.215509552
 21
54.6782228261
  0
LINE
  5
2B7
100
AcDbEntity
  8
0
100
AcDbLine
 62
7
  6
BYLAYER
 10
18.4778009579
 20
55.2915177213
 11
21.090509552
 21
55.2915177213
  0
LINE
  5
2B8
100
AcDbEntity
  8
0
100
AcDbLine
 62
7
  6
BYLAYER
 10
25.390509552
 20
55.2915177213
 11
28.0210567592
 21
55.2915177213
  0
LINE
  5
2B9
100
AcDbEntity
  8
0
100
AcDbLine
 62
7
  6
BYLAYER
 10
24.9155084644
 20
59.1507228261
 11
21.5655106395
 21
59.1507228261
  0
ARC
  5
2BA
100
AcDbEntity
  8
0
100
AcDbCircle
 62
7
  6
BYLAYER
 10
462.5167399698
 20
-108.1367035574
 40
470.696031796
100
AcDbArc
 50
162.648543439
 51
162.8093882984
  0
ARC
  5
2BB
100
AcDbEntity
  8
0
100
AcDbCircle
 62
7
  6
BYLAYER
 10
-416.035720865
 20
-108.1367035572
 40
470.6960317951
100
AcDbArc
 50
17.1906117016
 51
17.351456561
  0
ARC
  5
2BC
100
AcDbEntity
  8
0
100
AcDbCircle
 62
7
  6
BYLAYER
 10
34.8641951148
 20
52.5741207291
 40
7.3433000973
100
AcDbArc
 50
169.0251884669
 51
172.1306103193
  0
ARC
  5
2BD
100
AcDbEntity
  8
0
100
AcDbCircle
 62
7
  6
BYLAYER
 10
34.7620857583
 20
52.7653989447
 40
7.2398353477
100
AcDbArc
 50
187.8530453763
 51
190.9857832024
  0
ARC
  5
2BE
100
AcDbEntity
  8
0
100
AcDbCircle
 62
7
  6
BYLAYER
 10
23.240509552
 20
51.6782228261
 40
6.0
100
AcDbArc
 50
110.9978755459
 51
142.4485727163
  0
ARC
  5
2BF
100
AcDbEntity
  8
0
100
AcDbCircle
 62
7
  6
BYLAYER
 10
23.240509552
 20
51.6782228261
 40
6.0
100
AcDbArc
 50
37.2108010831
 51
69.0021244541
  0
ARC
  5
2C0
100
AcDbEntity
  8
0
100
AcDbCircle
 62
7
  6
BYLAYER
 10
27.7699415605
 20
10.5333891816
 40
2.5323827891
100
AcDbArc
 50
340.1736350447
 51
346.6832199023
  0
ARC
  5
2C1
100
AcDbEntity
  8
0
100
AcDbCircle
 62
7
  6
BYLAYER
 10
31.9995153691
 20
37.2782228261
 40
1.5
100
AcDbArc
 50
15.0
 51
90.0
  0
ARC
  5
2C2
100
AcDbEntity
  8
0
100
AcDbCircle
 62
7
  6
BYLAYER
 10
14.4815037349
 20
37.2782228261
 40
1.5
100
AcDbArc
 50
90.0
 51
165.0
  0
ARC
  5
2C3
100
AcDbEntity
  8
0
100
AcDbCircle
 62
7
  6
BYLAYER
 10
32.3858090136
 20
8.9782228261
 40
0.5
100
AcDbArc
 50
270.0
 51
330.0
  0
ARC
  5
2C4
100
AcDbEntity
  8
0
100
AcDbCircle
 62
7
  6
BYLAYER
 10
14.0952100904
 20
8.9782228261
 40
0.5
100
AcDbArc
 50
210.0
 51
270.0
  0
ARC
  5
2C5
100
AcDbEntity
  8
0
100
AcDbCircle
 62
7
  6
BYLAYER
 10
10.290509552
 20
25.4782228261
 40
0.5
100
AcDbArc
 50
90.0
 51
180.0
  0
ARC
  5
2C6
100
AcDbEntity
  8
0
100
AcDbCircle
 62
7
  6
BYLAYER
 10
36.190509552
 20
25.4782228261
 40
0.5
100
AcDbArc
 50
0.0
 51
90.0
  0
ARC
  5
2C7
100
AcDbEntity
  8
0
100
AcDbCircle
 62
7
  6
BYLAYER
 10
10.6903862313
 20
26.1782228261
 40
0.3
100
AcDbArc
 50
90.0
 51
175.0
  0
ARC
  5
2C8
100
AcDbEntity
  8
0
100
AcDbCircle
 62
7
  6
BYLAYER
 10
15.7906328727
 20
26.1782228261
 40
0.3
100
AcDbArc
 50
5.0
 51
90.0
  0
ARC
  5
2C9
100
AcDbEntity
  8
0
100
AcDbCircle
 62
7
  6
BYLAYER
 10
30.6903862313
 20
26.1782228261
 40
0.3
100
AcDbArc
 50
90.0
 51
175.0
  0
ARC
  5
2CA
100
AcDbEntity
  8
0
100
AcDbCircle
 62
7
  6
BYLAYER
 10
35.7906328727
 20
26.1782228261
 40
0.3
100
AcDbArc
 50
5.0
 51
90.0
  0
ARC
  5
2CB
100
AcDbEntity
  8
0
100
AcDbCircle
 62
7
  6
BYLAYER
 10
31.040509552
 20
50.0782228261
 40
0.2
100
AcDbArc
 50
0.0
 51
90.0
  0
ARC
  5
2CC
100
AcDbEntity
  8
0
100
AcDbCircle
 62
7
  6
BYLAYER
 10
15.440509552
 20
50.0782228261
 40
0.2
100
AcDbArc
 50
90.0
 51
180.0
  0
ARC
  5
2CD
100
AcDbEntity
  8
0
100
AcDbCircle
 62
7
  6
BYLAYER
 10
17.040509552
 20
24.6782228261
 40
0.2
100
AcDbArc
 50
270.0
 51
360.0
  0
ARC
  5
2CE
100
AcDbEntity
  8
0
100
AcDbCircle
 62
7
  6
BYLAYER
 10
29.440509552
 20
24.6782228261
 40
0.2
100
AcDbArc
 50
180.0
 51
270.0
  0
SPLINE
  5
2CF
100
AcDbEntity
  8
0
100
AcDbSpline
 62
7
  6
BYLAYER
 70
0
 71
3
 72
14
 73
10
 74
0
 42
0.0000001
 43
0.0000001
 44
0.0000000001
 40
0.0
 40
0.0
 40
0.0
 40
0.0
 40
0.1041126864
 40
0.2119832382
 40
0.3259503295
 40
0.4474886714
 40
0.5768563707
 40
0.713286252
 40
1.0
 40
1.0
 40
1.0
 40
1.0
 10
11.7814069384
 20
26.4782228261
 30
0.0
 10
11.7681116778
 20
26.4782228261
 30
0.0
 10
11.7409272945
 20
26.4746601641
 30
0.0
 10
11.7019114485
 20
26.4591135092
 30
0.0
 10
11.6655794516
 20
26.4339653095
 30
0.0
 10
11.6331029922
 20
26.4001793536
 30
0.0
 10
11.6055002097
 20
26.3588448315
 30
0.0
 10
11.575915431
 20
26.2945689511
 30
0.0
 10
11.5643085034
 20
26.2408545186
 30
0.0
 10
11.5612428411
 20
26.2043695489
 30
0.0
  0
LINE
  5
2D0
100
AcDbEntity
  8
0
100
AcDbLine
 62
7
  6
BYLAYER
 10
11.5612428411
 20
26.2043695489
 11
11.5170883554
 21
25.6782228261
  0
SPLINE
  5
2D1
100
AcDbEntity
  8
0
100
AcDbSpline
 62
7
  6
BYLAYER
 70
0
 71
3
 72
14
 73
10
 74
0
 42
0.0000001
 43
0.0000001
 44
0.0000000001
 40
0.0
 40
0.0
 40
0.0
 40
0.0
 40
0.2881500792
 40
0.4243676591
 40
0.5531173285
 40
0.6738925104
 40
0.7872772036
 40
0.8951001995
 40
1.0
 40
1.0
 40
1.0
 40
1.0
 10
10.9390404098
 20
26.2043695489
 30
0.0
 10
10.940746723
 20
26.2406795959
 30
0.0
 10
10.9502783546
 20
26.2943121811
 30
0.0
 10
10.9775395382
 20
26.3587751079
 30
0.0
 10
11.0036261205
 20
26.4001522633
 30
0.0
 10
11.0348914549
 20
26.4339845834
 30
0.0
 10
11.0703595634
 20
26.4591649978
 30
0.0
 10
11.1088738235
 20
26.4747050191
 30
0.0
 10
11.1358299354
 20
26.4782228261
 30
0.0
 10
11.1490630397
 20
26.4782228261
 30
0.0
  0
LINE
  5
2D2
100
AcDbEntity
  8
0
100
AcDbLine
 62
7
  6
BYLAYER
 10
10.914370445
 20
25.6782228261
 11
10.9390404098
 21
26.2043695489
  0
SPLINE
  5
2D3
100
AcDbEntity
  8
0
100
AcDbSpline
 62
7
  6
BYLAYER
 70
0
 71
3
 72
14
 73
10
 74
0
 42
0.0000001
 43
0.0000001
 44
0.0000000001
 40
0.0
 40
0.0
 40
0.0
 40
0.0
 40
0.1041126864
 40
0.2119832382
 40
0.3259503295
 40
0.4474886714
 40
0.5768563707
 40
0.713286252
 40
1.0
 40
1.0
 40
1.0
 40
1.0
 10
31.7814069384
 20
26.4782228261
 30
0.0
 10
31.7681116778
 20
26.4782228261
 30
0.0
 10
31.7409272945
 20
26.4746601641
 30
0.0
 10
31.7019114485
 20
26.4591135092
 30
0.0
 10
31.6655794516
 20
26.4339653095
 30
0.0
 10
31.6331029922
 20
26.4001793536
 30
0.0
 10
31.6055002097
 20
26.3588448315
 30
0.0
 10
31.575915431
 20
26.2945689511
 30
0.0
 10
31.5643085034
 20
26.2408545186
 30
0.0
 10
31.5612428411
 20
26.2043695489
 30
0.0
  0
LINE
  5
2D4
100
AcDbEntity
  8
0
100
AcDbLine
 62
7
  6
BYLAYER
 10
31.5612428411
 20
26.2043695489
 11
31.5170883554
 21
25.6782228261
  0
SPLINE
  5
2D5
100
AcDbEntity
  8
0
100
AcDbSpline
 62
7
  6
BYLAYER
 70
0
 71
3
 72
14
 73
10
 74
0
 42
0.0000001
 43
0.0000001
 44
0.0000000001
 40
0.0
 40
0.0
 40
0.0
 40
0.0
 40
0.2881500792
 40
0.4243676591
 40
0.5531173285
 40
0.6738925104
 40
0.7872772036
 40
0.8951001995
 40
1.0
 40
1.0
 40
1.0
 40
1.0
 10
30.9390404098
 20
26.2043695489
 30
0.0
 10
30.940746723
 20
26.2406795959
 30
0.0
 10
30.9502783546
 20
26.2943121811
 30
0.0
 10
30.9775395382
 20
26.3587751079
 30
0.0
 10
31.0036261205
 20
26.4001522633
 30
0.0
 10
31.0348914549
 20
26.4339845834
 30
0.0
 10
31.0703595634
 20
26.4591649978
 30
0.0
 10
31.1088738235
 20
26.4747050191
 30
0.0
 10
31.1358299354
 20
26.4782228261
 30
0.0
 10
31.1490630397
 20
26.4782228261
 30
0.0
  0
LINE
  5
2D6
100
AcDbEntity
  8
0
100
AcDbLine
 62
7
  6
BYLAYER
 10
30.914370445
 20
25.6782228261
 11
30.9390404098
 21
26.2043695489
  0
SPLINE
  5
2D7
100
AcDbEntity
  8
0
100
AcDbSpline
 62
7
  6
BYLAYER
 70
0
 71
3
 72
18
 73
14
 74
0
 42
0.0000001
 43
0.0000001
 44
0.0000000001
 40
0.0
 40
0.0
 40
0.0
 40
0.0
 40
0.1029316596
 40
0.2330639164
 40
0.3042361224
 40
0.377875354
 40
0.4529149652
 40
0.5283050996
 40
0.6029961896
 40
0.6759363822
 40
0.8120834775
 40
0.9259148155
 40
1.0
 40
1.0
 40
1.0
 40
1.0
 10
18.550182995
 20
50.2772115637
 30
0.0
 10
18.6051958567
 20
50.4440299767
 30
0.0
 10
18.7206382489
 20
50.8248225796
 30
0.0
 10
18.8385447155
 20
51.3310970637
 30
0.0
 10
18.9135605492
 20
51.7944410563
 30
0.0
 10
18.9538226675
 20
52.1676547508
 30
0.0
 10
18.9728914485
 20
52.549781385
 30
0.0
 10
18.9690552365
 20
52.9341672288
 30
0.0
 10
18.9426575975
 20
53.3140634788
 30
0.0
 10
18.8819415111
 20
53.7947303673
 30
0.0
 10
18.7719721906
 20
54.3355731118
 30
0.0
 10
18.6213646727
 20
54.8680235914
 30
0.0
 10
18.5197725048
 20
55.1722597509
 30
0.0
 10
18.4778009579
 20
55.2915177213
 30
0.0
  0
SPLINE
  5
2D8
100
AcDbEntity
  8
0
100
AcDbSpline
 62
7
  6
BYLAYER
 70
0
 71
3
 72
9
 73
5
 74
0
 42
0.0000001
 43
0.0000001
 44
0.0000000001
 40
0.0
 40
0.0
 40
0.0
 40
0.0
 40
0.1321763277
 40
1.0
 40
1.0
 40
1.0
 40
1.0
 10
28.0210567592
 20
55.2915177213
 30
0.0
 10
28.0009901912
 20
55.2346105463
 30
0.0
 10
27.8525068036
 20
54.802978985
 30
0.0
 10
27.7305452311
 20
54.3610693097
 30
0.0
 10
27.655196836
 20
53.9721193467
 30
0.0
  0
SPLINE
  5
2D9
100
AcDbEntity
  8
0
100
AcDbSpline
 62
7
  6
BYLAYER
 70
0
 71
3
 72
11
 73
7
 74
0
 42
0.0000001
 43
0.0000001
 44
0.0000000001
 40
0.0
 40
0.0
 40
0.0
 40
0.0
 40
0.2474107266
 40
0.5000084364
 40
0.7526021052
 40
1.0
 40
1.0
 40
1.0
 40
1.0
 10
27.5900486976
 20
53.5795312021
 30
0.0
 10
27.5697135143
 20
53.4317560823
 30
0.0
 10
27.5381729273
 20
53.1316887656
 30
0.0
 10
27.5219888452
 20
52.6778490996
 30
0.0
 10
27.5382267872
 20
52.2240194583
 30
0.0
 10
27.5697940401
 20
51.9239650509
 30
0.0
 10
27.5901472649
 20
51.7762002244
 30
0.0
  0
SPLINE
  5
2DA
100
AcDbEntity
  8
0
100
AcDbSpline
 62
7
  6
BYLAYER
 70
0
 71
3
 72
9
 73
5
 74
0
 42
0.0000001
 43
0.0000001
 44
0.0000000001
 40
0.0
 40
0.0
 40
0.0
 40
0.0
 40
0.2950599322
 40
1.0
 40
1.0
 40
1.0
 40
1.0
 10
27.654924023
 20
51.3857366924
 30
0.0
 10
27.6764962563
 20
51.2742596419
 30
0.0
 10
27.7580531727
 20
50.8980745527
 30
0.0
 10
27.8655092471
 20
50.5278921412
 30
0.0
 10
27.9507946066
 20
50.270371744
 30
0.0
  0
LINE
  5
2DB
100
AcDbEntity
  8
0
100
AcDbLine
 62
7
  6
BYLAYER
 10
16.1443205758
 20
8.4782228261
 11
16.5128618171
 21
5.5413987373
  0
SPLINE
  5
2DC
100
AcDbEntity
  8
0
100
AcDbSpline
 62
7
  6
BYLAYER
 70
0
 71
3
 72
14
 73
10
 74
0
 42
0.0000001
 43
0.0000001
 44
0.0000000001
 40
0.0
 40
0.0
 40
0.0
 40
0.0
 40
0.1459743133
 40
0.2878226459
 40
0.5511457405
 40
0.6720835713
 40
0.7860158917
 40
0.8945864519
 40
1.0
 40
1.0
 40
1.0
 40
1.0
 10
16.5128618171
 20
5.5413987373
 30
0.0
 10
16.5164307703
 20
5.5129696998
 30
0.0
 10
16.5270174624
 20
5.4572600878
 30
0.0
 10
16.5609069379
 20
5.3543717412
 30
0.0
 10
16.6136002369
 20
5.263181185
 30
0.0
 10
16.6833842272
 20
5.1939687915
 30
0.0
 10
16.740046147
 20
5.1565130481
 30
0.0
 10
16.8007279409
 20
5.1334785811
 30
0.0
 10
16.8428938321
 20
5.1282228261
 30
0.0
 10
16.8635846524
 20
5.1282228261
 30
0.0
  0
SPLINE
  5
2DD
100
AcDbEntity
  8
0
100
AcDbSpline
 62
7
  6
BYLAYER
 70
0
 71
3
 72
14
 73
10
 74
0
 42
0.0000001
 43
0.0000001
 44
0.0000000001
 40
0.0
 40
0.0
 40
0.0
 40
0.0
 40
0.105352203
 40
0.2138872085
 40
0.3278415839
 40
0.4488503526
 40
0.712272055
 40
0.854096175
 40
1.0
 40
1.0
 40
1.0
 40
1.0
 10
28.5896091358
 20
5.1282228261
 30
0.0
 10
28.6102370169
 20
5.1282228261
 30
0.0
 10
28.6522826776
 20
5.1334846449
 30
0.0
 10
28.7127605995
 20
5.1565865755
 30
0.0
 10
28.7691668966
 20
5.1941520953
 30
0.0
 10
28.8385559538
 20
5.263471292
 30
0.0
 10
28.8908491975
 20
5.354607815
 30
0.0
 10
28.9244833137
 20
5.4572957146
 30
0.0
 10
28.9349955998
 20
5.5128565853
 30
0.0
 10
28.9385360648
 20
5.5412042061
 30
0.0
  0
LINE
  5
2DE
100
AcDbEntity
  8
0
100
AcDbLine
 62
7
  6
BYLAYER
 10
28.9385360648
 20
5.5412042061
 11
29.3053182028
 21
8.4782228261
  0
LINE
  5
2DF
100
AcDbEntity
  8
0
100
AcDbLine
 62
7
  6
BYLAYER
 10
29.9681572869
 20
5.5413987373
 11
30.3366985282
 21
8.4782228261
  0
SPLINE
  5
2E0
100
AcDbEntity
  8
0
100
AcDbSpline
 62
7
  6
BYLAYER
 70
0
 71
3
 72
14
 73
10
 74
0
 42
0.0000001
 43
0.0000001
 44
0.0000000001
 40
0.0
 40
0.0
 40
0.0
 40
0.0
 40
0.1054125424
 40
0.213981788
 40
0.3279146434
 40
0.4488539159
 40
0.7121798266
 40
0.8540268078
 40
1.0
 40
1.0
 40
1.0
 40
1.0
 10
29.6174338746
 20
5.1282228261
 30
0.0
 10
29.6381245177
 20
5.1282228261
 30
0.0
 10
29.6802900793
 20
5.1334779208
 30
0.0
 10
29.7409715103
 20
5.1565125978
 30
0.0
 10
29.7976339132
 20
5.1939678865
 30
0.0
 10
29.8674188066
 20
5.2631809567
 30
0.0
 10
29.9201121202
 20
5.3543722517
 30
0.0
 10
29.9540020769
 20
5.4572606301
 30
0.0
 10
29.9645883576
 20
5.5129698904
 30
0.0
 10
29.9681572869
 20
5.5413987373
 30
0.0
  0
SPLINE
  5
2E1
100
AcDbEntity
  8
0
100
AcDbSpline
 62
7
  6
BYLAYER
 70
0
 71
3
 72
12
 73
8
 74
0
 42
0.0000001
 43
0.0000001
 44
0.0000000001
 40
0.0
 40
0.0
 40
0.0
 40
0.0
 40
0.1107580075
 40
0.2235491607
 40
0.459885862
 40
0.7182654529
 40
1.0
 40
1.0
 40
1.0
 40
1.0
 10
29.3439524237
 20
8.4782228261
 30
0.0
 10
29.3594024564
 20
8.4782228261
 30
0.0
 10
29.3906599051
 20
8.4811584876
 30
0.0
 10
29.4526948595
 20
8.4986413219
 30
0.0
 10
29.526739839
 20
8.5432020877
 30
0.0
 10
29.5999673073
 20
8.6246262648
 30
0.0
 10
29.6357206238
 20
8.6917977941
 30
0.0
 10
29.6505920676
 20
8.7281755776
 30
0.0
  0
LINE
  5
2E2
100
AcDbEntity
  8
0
100
AcDbLine
 62
7
  6
BYLAYER
 10
29.6505920676
 20
8.7281755776
 11
30.0520840332
 21
9.7103601629
  0
SPLINE
  5
2E3
100
AcDbEntity
  8
0
100
AcDbSpline
 62
7
  6
BYLAYER
 70
0
 71
3
 72
9
 73
5
 74
0
 42
0.0000001
 43
0.0000001
 44
0.0000000001
 40
0.0
 40
0.0
 40
0.0
 40
0.0
 40
0.2558965476
 40
1.0
 40
1.0
 40
1.0
 40
1.0
 10
30.0994545443
 20
9.9516339596
 30
0.0
 10
30.0991945561
 20
9.9305949168
 30
0.0
 10
30.0945151079
 20
9.8484934214
 30
0.0
 10
30.0752329971
 20
9.7669944079
 30
0.0
 10
30.0520840332
 20
9.7103601629
 30
0.0
  0
LINE
  5
2E4
100
AcDbEntity
  8
0
100
AcDbLine
 62
7
  6
BYLAYER
 10
19.4649448492
 20
8.0650469149
 11
19.7837848264
 21
5.5413987373
  0
LINE
  5
2E5
100
AcDbEntity
  8
0
100
AcDbLine
 62
7
  6
BYLAYER
 10
26.6972342776
 20
5.5413987373
 11
27.0160742548
 21
8.0650469149
  0
SPLINE
  5
2E6
100
AcDbEntity
  8
0
100
AcDbSpline
 62
7
  6
BYLAYER
 70
0
 71
3
 72
14
 73
10
 74
0
 42
0.0000001
 43
0.0000001
 44
0.0000000001
 40
0.0
 40
0.0
 40
0.0
 40
0.0
 40
0.1054667656
 40
0.2140716321
 40
0.3279988121
 40
0.4488956881
 40
0.7121262171
 40
0.8539768054
 40
1.0
 40
1.0
 40
1.0
 40
1.0
 10
19.1128153152
 20
8.4782228261
 30
0.0
 10
19.133549719
 20
8.4782228261
 30
0.0
 10
19.1757986881
 20
8.4729685024
 30
0.0
 10
19.2366178564
 20
8.4499726074
 30
0.0
 10
19.2934519384
 20
8.4125912299
 30
0.0
 10
19.3635200057
 20
8.3434840233
 30
0.0
 10
19.416542463
 20
8.2523114946
 30
0.0
 10
19.4506809517
 20
8.1493277153
 30
0.0
 10
19.4613497888
 20
8.0935285791
 30
0.0
 10
19.4649448492
 20
8.0650469149
 30
0.0
  0
SPLINE
  5
2E7
100
AcDbEntity
  8
0
100
AcDbSpline
 62
7
  6
BYLAYER
 70
0
 71
3
 72
14
 73
10
 74
0
 42
0.0000001
 43
0.0000001
 44
0.0000000001
 40
0.0
 40
0.0
 40
0.0
 40
0.0
 40
0.1460266087
 40
0.2878799984
 40
0.5511059194
 40
0.672000052
 40
0.7859256219
 40
0.8945303076
 40
1.0
 40
1.0
 40
1.0
 40
1.0
 10
27.0160742548
 20
8.0650469149
 30
0.0
 10
27.0196696766
 20
8.0935314421
 30
0.0
 10
27.0303403285
 20
8.1493359739
 30
0.0
 10
27.0644828338
 20
8.2523275686
 30
0.0
 10
27.1175134221
 20
8.3435044746
 30
0.0
 10
27.1875906134
 20
8.412610473
 30
0.0
 10
27.2444309938
 20
8.4499909466
 30
0.0
 10
27.3052607059
 20
8.4729754949
 30
0.0
 10
27.3475135348
 20
8.4782228261
 30
0.0
 10
27.3682501135
 20
8.4782228261
 30
0.0
  0
SPLINE
  5
2E8
100
AcDbEntity
  8
0
100
AcDbSpline
 62
7
  6
BYLAYER
 70
0
 71
3
 72
14
 73
10
 74
0
 42
0.0000001
 43
0.0000001
 44
0.0000000001
 40
0.0
 40
0.0
 40
0.0
 40
0.0
 40
0.1055199484
 40
0.2141299378
 40
0.3280173666
 40
0.4488547829
 40
0.7120237837
 40
0.853907726
 40
1.0
 40
1.0
 40
1.0
 40
1.0
 10
26.3435912836
 20
5.1282228261
 30
0.0
 10
26.364378776
 20
5.1282228261
 30
0.0
 10
26.4067245592
 20
5.1334221839
 30
0.0
 10
26.4677421035
 20
5.1562695339
 30
0.0
 10
26.5248115047
 20
5.1935127152
 30
0.0
 10
26.5952329723
 20
5.2625075745
 30
0.0
 10
26.6485685098
 20
5.3537504055
 30
0.0
 10
26.6828992139
 20
5.4569158553
 30
0.0
 10
26.6936232836
 20
5.5128459028
 30
0.0
 10
26.6972342776
 20
5.5413987373
 30
0.0
  0
SPLINE
  5
2E9
100
AcDbEntity
  8
0
100
AcDbSpline
 62
7
  6
BYLAYER
 70
0
 71
3
 72
14
 73
10
 74
0
 42
0.0000001
 43
0.0000001
 44
0.0000000001
 40
0.0
 40
0.0
 40
0.0
 40
0.0
 40
0.1460944933
 40
0.2879814002
 40
0.5511444285
 40
0.6719788589
 40
0.7858652759
 40
0.8944782506
 40
1.0
 40
1.0
 40
1.0
 40
1.0
 10
19.7837848264
 20
5.5413987373
 30
0.0
 10
19.7873958205
 20
5.5128459022
 30
0.0
 10
19.7981206384
 20
5.4569158646
 30
0.0
 10
19.8324494728
 20
5.3537517126
 30
0.0
 10
19.8857837048
 20
5.2625113907
 30
0.0
 10
19.9562014857
 20
5.1935179368
 30
0.0
 10
20.0132687099
 20
5.1562736238
 30
0.0
 10
20.0742852884
 20
5.1334248234
 30
0.0
 10
20.1166311777
 20
5.1282228261
 30
0.0
 10
20.1374187096
 20
5.1282228261
 30
0.0
  0
SPLINE
  5
2EA
100
AcDbEntity
  8
0
100
AcDbSpline
 62
7
  6
BYLAYER
 70
0
 71
3
 72
14
 73
10
 74
0
 42
0.0000001
 43
0.0000001
 44
0.0000000001
 40
0.0
 40
0.0
 40
0.0
 40
0.0
 40
0.1459743215
 40
0.287822661
 40
0.5511457558
 40
0.6720835842
 40
0.7860158999
 40
0.8945864484
 40
1.0
 40
1.0
 40
1.0
 40
1.0
 10
28.5539437245
 20
5.5413987373
 30
0.0
 10
28.5503747701
 20
5.5129696899
 30
0.0
 10
28.539788073
 20
5.4572600588
 30
0.0
 10
28.5058985798
 20
5.3543716817
 30
0.0
 10
28.4532052493
 20
5.2631811046
 30
0.0
 10
28.3834212195
 20
5.1939687125
 30
0.0
 10
28.3267592739
 20
5.1565129766
 30
0.0
 10
28.2660774444
 20
5.1334785505
 30
0.0
 10
28.2239115417
 20
5.1282228261
 30
0.0
 10
28.2032207147
 20
5.1282228261
 30
0.0
  0
LINE
  5
2EB
100
AcDbEntity
  8
0
100
AcDbLine
 62
7
  6
BYLAYER
 10
28.9224849658
 20
8.4782228261
 11
28.5539437245
 21
5.5413987373
  0
LINE
  5
2EC
100
AcDbEntity
  8
0
100
AcDbLine
 62
7
  6
BYLAYER
 10
30.012424984
 20
8.4782228261
 11
29.6456428817
 21
5.5412044921
  0
SPLINE
  5
2ED
100
AcDbEntity
  8
0
100
AcDbSpline
 62
7
  6
BYLAYER
 70
0
 71
3
 72
14
 73
10
 74
0
 42
0.0000001
 43
0.0000001
 44
0.0000000001
 40
0.0
 40
0.0
 40
0.0
 40
0.0
 40
0.1459038145
 40
0.2877279305
 40
0.5511496475
 40
0.6721584223
 40
0.7861128009
 40
0.8946478112
 40
1.0
 40
1.0
 40
1.0
 40
1.0
 10
29.6456428817
 20
5.5412044921
 30
0.0
 10
29.6421024165
 20
5.5128568694
 30
0.0
 10
29.6315901561
 20
5.4572959904
 30
0.0
 10
29.5979560979
 20
5.3546080544
 30
0.0
 10
29.5456628821
 20
5.2634714957
 30
0.0
 10
29.4762738569
 20
5.1941522409
 30
0.0
 10
29.419867571
 20
5.1565866839
 30
0.0
 10
29.3593896696
 20
5.1334846847
 30
0.0
 10
29.3173440055
 20
5.1282228261
 30
0.0
 10
29.2967161243
 20
5.1282228261
 30
0.0
  0
SPLINE
  5
2EE
100
AcDbEntity
  8
0
100
AcDbSpline
 62
7
  6
BYLAYER
 70
0
 71
3
 72
9
 73
5
 74
0
 42
0.0000001
 43
0.0000001
 44
0.0000000001
 40
0.0
 40
0.0
 40
0.0
 40
0.0
 40
0.2522497865
 40
1.0
 40
1.0
 40
1.0
 40
1.0
 10
30.2905166374
 20
10.4126157345
 30
0.0
 10
30.2900325806
 20
10.3733973404
 30
0.0
 10
30.2839169167
 20
10.2180103979
 30
0.0
 10
30.2610441608
 20
10.0632245648
 30
0.0
 10
30.2342322657
 20
9.9500934497
 30
0.0
  0
SPLINE
  5
2EF
100
AcDbEntity
  8
0
100
AcDbSpline
 62
7
  6
BYLAYER
 70
0
 71
3
 72
12
 73
8
 74
0
 42
0.0000001
 43
0.0000001
 44
0.0000000001
 40
0.0
 40
0.0
 40
0.0
 40
0.0
 40
0.1059881752
 40
0.226947807
 40
0.4949010384
 40
0.7655554538
 40
1.0
 40
1.0
 40
1.0
 40
1.0
 10
30.2342322657
 20
9.9500934497
 30
0.0
 10
30.2417677927
 20
9.9500934497
 30
0.0
 10
30.2579040817
 20
9.9493406319
 30
0.0
 10
30.2928980389
 20
9.9455439606
 30
0.0
 10
30.3390635384
 20
9.93685901
 30
0.0
 10
30.3920915301
 20
9.9222547553
 30
0.0
 10
30.4258041682
 20
9.9095639594
 30
0.0
 10
30.4408662833
 20
9.9024245359
 30
0.0
  0
SPLINE
  5
2F0
100
AcDbEntity
  8
0
100
AcDbSpline
 62
7
  6
BYLAYER
 70
0
 71
3
 72
9
 73
5
 74
0
 42
0.0000001
 43
0.0000001
 44
0.0000000001
 40
0.0
 40
0.0
 40
0.0
 40
0.0
 40
0.5000157701
 40
1.0
 40
1.0
 40
1.0
 40
1.0
 10
30.5026325174
 20
10.4099978735
 30
0.0
 10
30.467286369
 20
10.4108703998
 30
0.0
 10
30.3965814603
 20
10.4119548392
 30
0.0
 10
30.3258713231
 20
10.4126157344
 30
0.0
 10
30.2905166374
 20
10.4126157344
 30
0.0
  0
SPLINE
  5
2F1
100
AcDbEntity
  8
0
100
AcDbSpline
 62
7
  6
BYLAYER
 70
0
 71
3
 72
9
 73
5
 74
0
 42
0.0000001
 43
0.0000001
 44
0.0000000001
 40
0.0
 40
0.0
 40
0.0
 40
0.0
 40
0.5157394799
 40
1.0
 40
1.0
 40
1.0
 40
1.0
 10
30.1522168465
 20
9.6744787949
 30
0.0
 10
30.1088367512
 20
9.5545767052
 30
0.0
 10
30.0061337286
 20
9.3282441037
 30
0.0
 10
29.863765952
 20
9.1238778065
 30
0.0
 10
29.7851771607
 20
9.0335561092
 30
0.0
  0
SPLINE
  5
2F2
100
AcDbEntity
  8
0
100
AcDbSpline
 62
7
  6
BYLAYER
 70
0
 71
3
 72
11
 73
7
 74
0
 42
0.0000001
 43
0.0000001
 44
0.0000000001
 40
0.0
 40
0.0
 40
0.0
 40
0.0
 40
0.2413399362
 40
0.4960668392
 40
0.7531958115
 40
1.0
 40
1.0
 40
1.0
 40
1.0
 10
29.7112889889
 20
8.8845560066
 30
0.0
 10
29.7225386517
 20
8.8789455465
 30
0.0
 10
29.744516607
 20
8.8650370064
 30
0.0
 10
29.7738275139
 20
8.8387186648
 30
0.0
 10
29.7988127662
 20
8.8079009087
 30
0.0
 10
29.8119320552
 20
8.7849846644
 30
0.0
 10
29.8172196402
 20
8.7732666977
 30
0.0
  0
SPLINE
  5
2F3
100
AcDbEntity
  8
0
100
AcDbSpline
 62
7
  6
BYLAYER
 70
0
 71
3
 72
11
 73
7
 74
0
 42
0.0000001
 43
0.0000001
 44
0.0000000001
 40
0.0
 40
0.0
 40
0.0
 40
0.0
 40
0.2524101885
 40
0.5212389323
 40
0.7794506806
 40
1.0
 40
1.0
 40
1.0
 40
1.0
 10
29.5282636586
 20
8.5640964816
 30
0.0
 10
29.5434141661
 20
8.5632877427
 30
0.0
 10
29.5746562524
 20
8.5607642601
 30
0.0
 10
29.6211829906
 20
8.5551598549
 30
0.0
 10
29.6655621171
 20
8.5480435889
 30
0.0
 10
29.6937632453
 20
8.5422072711
 30
0.0
 10
29.7066263067
 20
8.5389996866
 30
0.0
  0
SPLINE
  5
2F4
100
AcDbEntity
  8
0
100
AcDbSpline
 62
7
  6
BYLAYER
 70
0
 71
3
 72
12
 73
8
 74
0
 42
0.0000001
 43
0.0000001
 44
0.0000000001
 40
0.0
 40
0.0
 40
0.0
 40
0.0
 40
0.2875508071
 40
0.5515187942
 40
0.7858023867
 40
0.8945922416
 40
1.0
 40
1.0
 40
1.0
 40
1.0
 10
29.1578594221
 20
5.8521755994
 30
0.0
 10
29.1557747535
 20
5.8354557162
 30
0.0
 10
29.1478526703
 20
5.8036844019
 30
0.0
 10
29.1247550838
 20
5.7631180125
 30
0.0
 10
29.0969288899
 20
5.739292014
 30
0.0
 10
29.0721805657
 20
5.7298254885
 30
0.0
 10
29.0595812647
 20
5.7282228261
 30
0.0
 10
29.0534047861
 20
5.7282228261
 30
0.0
  0
SPLINE
  5
2F5
100
AcDbEntity
  8
0
100
AcDbSpline
 62
7
  6
BYLAYER
 70
0
 71
3
 72
13
 73
9
 74
0
 42
0.0000001
 43
0.0000001
 44
0.0000000001
 40
0.0
 40
0.0
 40
0.0
 40
0.0
 40
0.1032552214
 40
0.2106492466
 40
0.3245468651
 40
0.4464150668
 40
0.7129424449
 40
1.0
 40
1.0
 40
1.0
 40
1.0
 10
29.0534047861
 20
5.7282228261
 30
0.0
 10
29.060355135
 20
5.7282228261
 30
0.0
 10
29.0745992223
 20
5.7261700093
 30
0.0
 10
29.0948464794
 20
5.7173748997
 30
0.0
 10
29.1133167358
 20
5.7031610309
 30
0.0
 10
29.1353449261
 20
5.6772431322
 30
0.0
 10
29.1544379982
 20
5.6349965645
 30
0.0
 10
29.1594708033
 20
5.5975453371
 30
0.0
 10
29.1594708033
 20
5.5782228261
 30
0.0
  0
SPLINE
  5
2F6
100
AcDbEntity
  8
0
100
AcDbSpline
 62
7
  6
BYLAYER
 70
0
 71
3
 72
11
 73
7
 74
0
 42
0.0000001
 43
0.0000001
 44
0.0000000001
 40
0.0
 40
0.0
 40
0.0
 40
0.0
 40
0.2309312181
 40
0.5015547093
 40
0.7713682594
 40
1.0
 40
1.0
 40
1.0
 40
1.0
 10
29.3683800753
 20
5.8261283728
 30
0.0
 10
29.3525094284
 20
5.8300859409
 30
0.0
 10
29.3176320224
 20
5.8370165987
 30
0.0
 10
29.2635645384
 20
5.8449776247
 30
0.0
 10
29.2093501228
 20
5.850421017
 30
0.0
 10
29.1740531955
 20
5.8521755994
 30
0.0
 10
29.1578594221
 20
5.8521755994
 30
0.0
  0
LINE
  5
2F7
100
AcDbEntity
  8
0
100
AcDbLine
 62
7
  6
BYLAYER
 10
30.7591908144
 20
9.7103601629
 11
30.3576989197
 21
8.7281757509
  0
SPLINE
  5
2F8
100
AcDbEntity
  8
0
100
AcDbSpline
 62
7
  6
BYLAYER
 70
0
 71
3
 72
12
 73
8
 74
0
 42
0.0000001
 43
0.0000001
 44
0.0000000001
 40
0.0
 40
0.0
 40
0.0
 40
0.0
 40
0.281734617
 40
0.5401142356
 40
0.7764508932
 40
0.8892420058
 40
1.0
 40
1.0
 40
1.0
 40
1.0
 10
30.3576989197
 20
8.7281757509
 30
0.0
 10
30.34282746
 20
8.6917979288
 30
0.0
 10
30.3070741407
 20
8.6246263157
 30
0.0
 10
30.2338466033
 20
8.5432020667
 30
0.0
 10
30.159801563
 20
8.4986412748
 30
0.0
 10
30.0977665585
 20
8.4811584701
 30
0.0
 10
30.0665090917
 20
8.4782228261
 30
0.0
 10
30.0510590482
 20
8.4782228261
 30
0.0
  0
LINE
  5
2F9
100
AcDbEntity
  8
0
100
AcDbLine
 62
7
  6
BYLAYER
 10
17.9270753795
 20
5.5413987373
 11
17.5585341382
 21
8.4782228261
  0
SPLINE
  5
2FA
100
AcDbEntity
  8
0
100
AcDbSpline
 62
7
  6
BYLAYER
 70
0
 71
3
 72
9
 73
5
 74
0
 42
0.0000001
 43
0.0000001
 44
0.0000000001
 40
0.0
 40
0.0
 40
0.0
 40
0.0
 40
0.2432882329
 40
1.0
 40
1.0
 40
1.0
 40
1.0
 10
30.7591908144
 20
9.7103601629
 30
0.0
 10
30.7667603175
 20
9.7288790519
 30
0.0
 10
30.7939197836
 20
9.8065811024
 30
0.0
 10
30.8057924293
 20
9.8894125183
 30
0.0
 10
30.8065613255
 20
9.9516339597
 30
0.0
  0
SPLINE
  5
2FB
100
AcDbEntity
  8
0
100
AcDbSpline
 62
7
  6
BYLAYER
 70
0
 71
3
 72
13
 73
9
 74
0
 42
0.0000001
 43
0.0000001
 44
0.0000000001
 40
0.0
 40
0.0
 40
0.0
 40
0.0
 40
0.2872393072
 40
0.5508911901
 40
0.671932899
 40
0.7860348383
 40
0.8947078633
 40
1.0
 40
1.0
 40
1.0
 40
1.0
 10
29.3683848619
 20
5.8261667633
 30
0.0
 10
29.3642146172
 20
5.7927197175
 30
0.0
 10
29.3484449297
 20
5.7292258649
 30
0.0
 10
29.3086261206
 20
5.6595548185
 30
0.0
 10
29.2670502914
 20
5.6179114535
 30
0.0
 10
29.2332622366
 20
5.5953059541
 30
0.0
 10
29.1970011433
 20
5.5814279474
 30
0.0
 10
29.1717987162
 20
5.5782228261
 30
0.0
 10
29.1594432383
 20
5.5782228261
 30
0.0
  0
SPLINE
  5
2FC
100
AcDbEntity
  8
0
100
AcDbSpline
 62
7
  6
BYLAYER
 70
0
 71
3
 72
10
 73
6
 74
0
 42
0.0000001
 43
0.0000001
 44
0.0000000001
 40
0.0
 40
0.0
 40
0.0
 40
0.0
 40
0.4714135237
 40
0.7307304118
 40
1.0
 40
1.0
 40
1.0
 40
1.0
 10
29.8172201479
 20
8.7732655727
 30
0.0
 10
29.7864832089
 20
8.7455264012
 30
0.0
 10
29.7490148006
 20
8.6907591186
 30
0.0
 10
29.7187181905
 20
8.6082222822
 30
0.0
 10
29.7095503037
 20
8.5624513234
 30
0.0
 10
29.7066243144
 20
8.5389837077
 30
0.0
  0
SPLINE
  5
2FD
100
AcDbEntity
  8
0
100
AcDbSpline
 62
7
  6
BYLAYER
 70
0
 71
3
 72
12
 73
8
 74
0
 42
0.0000001
 43
0.0000001
 44
0.0000000001
 40
0.0
 40
0.0
 40
0.0
 40
0.0
 40
0.2675870959
 40
0.3977233662
 40
0.5248916729
 40
0.7693282778
 40
1.0
 40
1.0
 40
1.0
 40
1.0
 10
30.4408676601
 20
9.9024315058
 30
0.0
 10
30.413957768
 20
9.7888868989
 30
0.0
 10
30.3633981831
 20
9.6222982056
 30
0.0
 10
30.2749018361
 20
9.4110461665
 30
0.0
 10
30.1762921577
 20
9.2155463112
 30
0.0
 10
30.0326091421
 20
8.9944416457
 30
0.0
 10
29.8918975946
 20
8.8406597427
 30
0.0
 10
29.8172201479
 20
8.7732655727
 30
0.0
  0
SPLINE
  5
2FE
100
AcDbEntity
  8
0
100
AcDbSpline
 62
7
  6
BYLAYER
 70
0
 71
3
 72
9
 73
5
 74
0
 42
0.0000001
 43
0.0000001
 44
0.0000000001
 40
0.0
 40
0.0
 40
0.0
 40
0.0
 40
0.2522497592
 40
1.0
 40
1.0
 40
1.0
 40
1.0
 10
30.5026323797
 20
10.4099867213
 30
0.0
 10
30.5021011934
 20
10.3669498778
 30
0.0
 10
30.4953896653
 20
10.1964338777
 30
0.0
 10
30.4702900659
 20
10.0265775072
 30
0.0
 10
30.4408676601
 20
9.9024315058
 30
0.0
  0
SPLINE
  5
2FF
100
AcDbEntity
  8
0
100
AcDbSpline
 62
7
  6
BYLAYER
 70
0
 71
3
 72
9
 73
5
 74
0
 42
0.0000001
 43
0.0000001
 44
0.0000000001
 40
0.0
 40
0.0
 40
0.0
 40
0.0
 40
0.5000204608
 40
1.0
 40
1.0
 40
1.0
 40
1.0
 10
30.3469327029
 20
14.9834589468
 30
0.0
 10
30.3822908603
 20
14.9834511551
 30
0.0
 10
30.4529896531
 20
14.9833283193
 30
0.0
 10
30.5237469639
 20
14.9837775798
 30
0.0
 10
30.5590647373
 20
14.9821498162
 30
0.0
  0
SPLINE
  5
300
100
AcDbEntity
  8
0
100
AcDbSpline
 62
7
  6
BYLAYER
 70
0
 71
3
 72
14
 73
10
 74
0
 42
0.0000001
 43
0.0000001
 44
0.0000000001
 40
0.0
 40
0.0
 40
0.0
 40
0.0
 40
0.1054125424
 40
0.213981788
 40
0.3279146434
 40
0.4488539159
 40
0.7121798266
 40
0.8540268078
 40
1.0
 40
1.0
 40
1.0
 40
1.0
 10
18.2777987917
 20
5.1282228261
 30
0.0
 10
18.2571081487
 20
5.1282228261
 30
0.0
 10
18.2149425871
 20
5.1334779208
 30
0.0
 10
18.154261156
 20
5.1565125978
 30
0.0
 10
18.0975987532
 20
5.1939678865
 30
0.0
 10
18.0278138598
 20
5.2631809567
 30
0.0
 10
17.9751205462
 20
5.3543722517
 30
0.0
 10
17.9412305894
 20
5.4572606301
 30
0.0
 10
17.9306443087
 20
5.5129698904
 30
0.0
 10
17.9270753795
 20
5.5413987373
 30
0.0
  0
SPLINE
  5
301
100
AcDbEntity
  8
0
100
AcDbSpline
 62
7
  6
BYLAYER
 70
0
 71
3
 72
15
 73
11
 74
0
 42
0.0000001
 43
0.0000001
 44
0.0000000001
 40
0.0
 40
0.0
 40
0.0
 40
0.0
 40
0.1441636513
 40
0.2797125485
 40
0.4076071185
 40
0.5290175663
 40
0.6456029327
 40
0.7599603176
 40
0.8761615852
 40
1.0
 40
1.0
 40
1.0
 40
1.0
 10
15.6017418709
 20
37.6664513937
 30
0.0
 10
15.6352360262
 20
37.699352496
 30
0.0
 10
15.7075890594
 20
37.7560758112
 30
0.0
 10
15.8269559207
 20
37.815836598
 30
0.0
 10
15.948072446
 20
37.8506949412
 30
0.0
 10
16.0673353546
 20
37.8624440182
 30
0.0
 10
16.1823488599
 20
37.8515683925
 30
0.0
 10
16.2910031768
 20
37.8169458917
 30
0.0
 10
16.3904556935
 20
37.7561123403
 30
0.0
 10
16.4451369748
 20
37.6988013103
 30
0.0
 10
16.4692216693
 20
37.6664513937
 30
0.0
  0
SPLINE
  5
302
100
AcDbEntity
  8
0
100
AcDbSpline
 62
7
  6
BYLAYER
 70
0
 71
3
 72
15
 73
11
 74
0
 42
0.0000001
 43
0.0000001
 44
0.0000000001
 40
0.0
 40
0.0
 40
0.0
 40
0.0
 40
0.1238385537
 40
0.2400397825
 40
0.3543972829
 40
0.4709826219
 40
0.592393107
 40
0.7202875625
 40
0.855836515
 40
1.0
 40
1.0
 40
1.0
 40
1.0
 10
30.0117974347
 20
37.6664513937
 30
0.0
 10
30.0358821562
 20
37.6988013466
 30
0.0
 10
30.0905634651
 20
37.7561124012
 30
0.0
 10
30.1900160626
 20
37.8169459524
 30
0.0
 10
30.2986704018
 20
37.8515684425
 30
0.0
 10
30.4136839544
 20
37.8624440172
 30
0.0
 10
30.5329468221
 20
37.8506948895
 30
0.0
 10
30.6540633355
 20
37.815836538
 30
0.0
 10
30.7734301188
 20
37.7560757554
 30
0.0
 10
30.8457831164
 20
37.6993524581
 30
0.0
 10
30.8792772331
 20
37.6664513937
 30
0.0
  0
SPLINE
  5
303
100
AcDbEntity
  8
0
100
AcDbSpline
 62
7
  6
BYLAYER
 70
0
 71
3
 72
20
 73
16
 74
0
 42
0.0000001
 43
0.0000001
 44
0.0000000001
 40
0.0
 40
0.0
 40
0.0
 40
0.0
 40
0.0286101161
 40
0.0579847881
 40
0.087896603
 40
0.1181974007
 40
0.179582142
 40
0.2416542351
 40
0.3041558922
 40
0.3669416998
 40
0.493038759
 40
0.6195492198
 40
0.7462777185
 40
0.8731165295
 40
1.0
 40
1.0
 40
1.0
 40
1.0
 10
15.6017418709
 20
37.6664513937
 30
0.0
 10
15.5612408709
 20
37.6266675111
 30
0.0
 10
15.4833439962
 20
37.5417392111
 30
0.0
 10
15.3750815617
 20
37.4048694765
 30
0.0
 10
15.272523177
 20
37.2595757747
 30
0.0
 10
15.1418253365
 20
37.0566858468
 30
0.0
 10
14.989608026
 20
36.7920517448
 30
0.0
 10
14.8202559139
 20
36.4641170986
 30
0.0
 10
14.6607615893
 20
36.1282193664
 30
0.0
 10
14.4584484777
 20
35.6722117256
 30
0.0
 10
14.2221795816
 20
35.0925254429
 30
0.0
 10
13.957594605
 20
34.3877614914
 30
0.0
 10
13.7073094431
 20
33.6762500437
 30
0.0
 10
13.4684774459
 20
32.9600526717
 30
0.0
 10
13.315604853
 20
32.4803355811
 30
0.0
 10
13.240509552
 20
32.2400150608
 30
0.0
  0
SPLINE
  5
304
100
AcDbEntity
  8
0
100
AcDbSpline
 62
7
  6
BYLAYER
 70
0
 71
3
 72
20
 73
16
 74
0
 42
0.0000001
 43
0.0000001
 44
0.0000000001
 40
0.0
 40
0.0
 40
0.0
 40
0.0
 40
0.130044974
 40
0.2595213588
 40
0.3882740662
 40
0.5160613257
 40
0.6424786089
 40
0.7049683236
 40
0.7667899926
 40
0.8277143243
 40
0.8873733612
 40
0.916557216
 40
0.9451629961
 40
0.973041716
 40
1.0
 40
1.0
 40
1.0
 40
1.0
 10
17.240509552
 20
32.2400150608
 30
0.0
 10
17.240509552
 20
32.4798918637
 30
0.0
 10
17.2363203043
 20
32.9586107609
 30
0.0
 10
17.2157746075
 20
33.6745655754
 30
0.0
 10
17.1787249848
 20
34.3857163017
 30
0.0
 10
17.1218157901
 20
35.0899159818
 30
0.0
 10
17.0533853587
 20
35.6702759001
 30
0.0
 10
16.9812896557
 20
36.1271675903
 30
0.0
 10
16.9170560431
 20
36.4628384622
 30
0.0
 10
16.8399804557
 20
36.7904617122
 30
0.0
 10
16.7614615011
 20
37.0555971442
 30
0.0
 10
16.6867938196
 20
37.2590453497
 30
0.0
 10
16.624365596
 20
37.4043270342
 30
0.0
 10
16.5537579268
 20
37.5412475762
 30
0.0
 10
16.4989170617
 20
37.626565338
 30
0.0
 10
16.4692216693
 20
37.6664513937
 30
0.0
  0
SPLINE
  5
305
100
AcDbEntity
  8
0
100
AcDbSpline
 62
7
  6
BYLAYER
 70
0
 71
3
 72
20
 73
16
 74
0
 42
0.0000001
 43
0.0000001
 44
0.0000000001
 40
0.0
 40
0.0
 40
0.0
 40
0.0
 40
0.1268834263
 40
0.2537221911
 40
0.3804506438
 40
0.5069610578
 40
0.6330580669
 40
0.6958438485
 40
0.7583454694
 40
0.82041751
 40
0.8818022003
 40
0.9121030594
 40
0.9420148929
 40
0.9713897227
 40
1.0
 40
1.0
 40
1.0
 40
1.0
 10
33.240509552
 20
32.2400150608
 30
0.0
 10
33.1654142769
 20
32.4803354984
 30
0.0
 10
33.0125417377
 20
32.9600524197
 30
0.0
 10
32.7737098326
 20
33.6762495393
 30
0.0
 10
32.5234248112
 20
34.3877607476
 30
0.0
 10
32.2588398553
 20
35.0925244064
 30
0.0
 10
32.0225711743
 20
35.6722105133
 30
0.0
 10
31.8202582331
 20
36.1282179899
 30
0.0
 10
31.6607640234
 20
36.4641155212
 30
0.0
 10
31.4914122421
 20
36.7920500393
 30
0.0
 10
31.3391946064
 20
37.0566838477
 30
0.0
 10
31.2084972056
 20
37.2595741187
 30
0.0
 10
31.1059387891
 20
37.4048683909
 30
0.0
 10
30.9976756608
 20
37.5417384305
 30
0.0
 10
30.9197784614
 20
37.6266672868
 30
0.0
 10
30.8792772331
 20
37.6664513937
 30
0.0
  0
SPLINE
  5
306
100
AcDbEntity
  8
0
100
AcDbSpline
 62
7
  6
BYLAYER
 70
0
 71
3
 72
20
 73
16
 74
0
 42
0.0000001
 43
0.0000001
 44
0.0000000001
 40
0.0
 40
0.0
 40
0.0
 40
0.0
 40
0.0269581318
 40
0.0548367051
 40
0.083442462
 40
0.112626248
 40
0.1722853377
 40
0.2332097185
 40
0.295031421
 40
0.3575211592
 40
0.4839384878
 40
0.6117257957
 40
0.740478549
 40
0.8699549806
 40
1.0
 40
1.0
 40
1.0
 40
1.0
 10
30.0117974347
 20
37.6664513937
 30
0.0
 10
29.9821022102
 20
37.6265655634
 30
0.0
 10
29.92726151
 20
37.5412483448
 30
0.0
 10
29.8566544674
 20
37.4043281472
 30
0.0
 10
29.7942261053
 20
37.2590470206
 30
0.0
 10
29.7195578699
 20
37.055599084
 30
0.0
 10
29.641039343
 20
36.7904634492
 30
0.0
 10
29.5639634444
 20
36.4628400323
 30
0.0
 10
29.4997297739
 20
36.1271689679
 30
0.0
 10
29.4276339423
 20
35.6702771122
 30
0.0
 10
29.359203343
 20
35.0899169954
 30
0.0
 10
29.3022942099
 20
34.385717055
 30
0.0
 10
29.2652445148
 20
33.6745660764
 30
0.0
 10
29.2446988016
 20
32.9586110109
 30
0.0
 10
29.240509552
 20
32.4798919462
 30
0.0
 10
29.240509552
 20
32.2400150608
 30
0.0
  0
ENDSEC
  0
SECTION
  2
OBJECTS
  0
DICTIONARY
  5
C
100
AcDbDictionary
280
0
281
1
  3
ACAD_GROUP
350
D
  3
ACAD_MLINESTYLE
350
17
  3
ACAD_LAYOUT
350
1A
  3
ACAD_PLOTSETTINGS
350
19
  3
ACAD_PLOTSTYLENAME
350
E
  0
DICTIONARY
  5
D
102
{ACAD_REACTORS
330
C
102
}
100
AcDbDictionary
280
0
281
1
  0
ACDBDICTIONARYWDFLT
  5
E
102
{ACAD_REACTORS
330
C
102
}
100
AcDbDictionary
281
1
  3
Normal
350
F
100
AcDbDictionaryWithDefault
340
F
  0
DICTIONARY
  5
17
102
{ACAD_REACTORS
330
C
102
}
100
AcDbDictionary
280
0
281
1
  3
Standard
350
18
  0
DICTIONARY
  5
19
102
{ACAD_REACTORS
330
C
102
}
100
AcDbDictionary
281
1
  0
DICTIONARY
  5
1A
102
{ACAD_REACTORS
330
C
102
}
100
AcDbDictionary
281
1
  3
Model
350
307
  3
Layout1
350
308
  0
ACDBPLACEHOLDER
  5
F
102
{ACAD_REACTORS
330
E
102
}
  0
MLINESTYLE
  5
18
102
{ACAD_REACTORS
330
17
102
}
100
AcDbMlineStyle
  2
STANDARD
 70
0
  3

 62
256
 51
90.0
 52
90.0
 71
2
 49
0.5
 62
256
  6
BYLAYER
 49
-0.5
 62
256
  6
BYLAYER
  0
LAYOUT
  5
307
102
{ACAD_REACTORS
330
1A
102
}
100
AcDbPlotSettings
  1

  2
none_device
  4

  6

 40
0.0
 41
0.0
 42
0.0
 43
0.0
 44
210.0
 45
297.0
 46
0.0
 47
0.0
 48
0.0
 49
0.0
140
0.0
141
0.0
142
1.0
143
1.0
 70
1024
 72
1
 73
0
 74
0
  7

 75
0
147
1.0
148
0.0
149
0.0
100
AcDbLayout
  1
Model
 70
0
 71
0
 10
0.0
 20
0.0
 11
210.0
 21
297.0
 12
0.0
 22
0.0
 32
0.0
 14
0.0
 24
0.0
 34
0.0
 15
0.0
 25
0.0
 35
0.0
146
0.0
 13
0.0
 23
0.0
 33
0.0
 16
1.0
 26
0.0
 36
0.0
 17
0.0
 27
1.0
 37
0.0
 76
0
330
210
345
0
346
0
  0
LAYOUT
  5
308
102
{ACAD_REACTORS
330
1A
102
}
100
AcDbPlotSettings
  1

  2
none_device
  4

  6

 40
0.0
 41
0.0
 42
0.0
 43
0.0
 44
210.0
 45
297.0
 46
0.0
 47
0.0
 48
0.0
 49
0.0
140
0.0
141
0.0
142
1.0
143
1.0
 70
0
 72
1
 73
0
 74
0
  7

 75
0
147
1.0
148
0.0
149
0.0
100
AcDbLayout
  1
Layout1
 70
0
 71
1
 10
0.0
 20
0.0
 11
210.0
 21
297.0
 12
0.0
 22
0.0
 32
0.0
 14
0.0
 24
0.0
 34
0.0
 15
0.0
 25
0.0
 35
0.0
146
0.0
 13
0.0
 23
0.0
 33
0.0
 16
1.0
 26
0.0
 36
0.0
 17
0.0
 27
1.0
 37
0.0
 76
0
330
211
345
0
346
0
  0
ENDSEC
  0
EOF
