999
DXF file: C:\Users\sesa63760\Dev\_Creo\CAD\MCADID0004762_3D-CAD\drw0001_5.dxf
999
Pro/ENGINEER 2019471 by Parametric Technology Corporation
  0
SECTION
  2
HEADER
  9
$ACADVER
  1
AC1024
  9
$DWGCODEPAGE
  3
ANSI_1252
  9
$EXTMAX
 10
47.32570604
 20
66.9320699708
 30
0.0
  9
$EXTMIN
 10
0.0
 20
0.0
 30
0.0
  9
$LIMMIN
 10
0.0
 20
0.0
  9
$LIMMAX
 10
47.32570604
 20
66.9320699708
  9
$VIEWCTR
 10
23.66285302
 20
33.4660349854
  9
$VIEWSIZE
 40
66.9320699708
  9
$CLAYER
  8
0
  9
$LTSCALE
 40
4.3629793759
  9
$CELTYPE
  6
BYLAYER
  9
$DIMSCALE
 40
1.0
  9
$DIMASZ
 40
0.5634012624
  9
$DIMEXO
 40
1.0
  9
$DIMDLI
 40
3.0144221142
  9
$DIMEXE
 40
1.0
  9
$DIMCEN
 40
0.7139420797
  9
$DIMLFAC
 40
1.0
  9
$DIMBLK
  1
_FILLED
  9
$DIMALT
 70
0
  9
$DIMALTF
 40
0.0393700787
  9
$DIMTXT
 40
0.7887617673
  9
$DIMTOL
 70
1
  9
$DIMLIM
 70
0
  9
$DIMTFAC
 40
1.0
  9
$DIMTP
 40
0.01
  9
$DIMTM
 40
0.01
  9
$DIMGAP
 40
0.625
  9
$DIMDSEP
 70
46
  9
$AUNITS
 70
0
  9
$PDMODE
 70
3
  9
$PDSIZE
 40
0.3125
  9
$HANDSEED
  5
2C8
  9
$TILEMODE
 70
1
  9
$MEASUREMENT
 70
1
  9
$INSUNITS
 70
4
  0
ENDSEC
  0
SECTION
  2
CLASSES
  0
CLASS
  1
ACDBDICTIONARYWDFLT
  2
AcDbDictionaryWithDefault
  3
AutoCAD 2000
 90
0
 91
1
280
0
281
0
  0
CLASS
  1
ACDBPLACEHOLDER
  2
AcDbPlaceHolder
  3
AutoCAD 2000
 90
0
 91
1
280
0
281
0
  0
CLASS
  1
LAYOUT
  2
AcDbLayout
  3
AutoCAD 2000
 90
0
 91
0
280
0
281
0
  0
ENDSEC
  0
SECTION
  2
TABLES
  0
TABLE
  2
VPORT
  5
8
100
AcDbSymbolTable
 70
2
  0
VPORT
  5
1F4
100
AcDbSymbolTableRecord
100
AcDbViewportTableRecord
  2
*ACTIVE
 70
0
 10
0.0
 20
0.0
 11
1.0
 21
1.0
 12
23.66285302
 22
33.4660349854
 13
0.0
 23
0.0
 14
1.0
 24
1.0
 15
0.0
 25
0.0
 16
0.0
 26
0.0
 36
1.0
 17
0.0
 27
0.0
 37
0.0
 40
66.9320699708
 41
0.7070707071
 42
50.0
 43
0.0
 44
0.0
 50
0.0
 51
0.0
 71
0
 72
100
 73
1
 74
1
 75
0
 76
0
 77
0
 78
0
  0
ENDTAB
  0
TABLE
  2
LTYPE
  5
5
100
AcDbSymbolTable
 70
6
  0
LTYPE
  5
14
100
AcDbSymbolTableRecord
100
AcDbLinetypeTableRecord
  2
BYBLOCK
 70
0
  3

 72
65
 73
0
 40
0.0
  0
LTYPE
  5
15
100
AcDbSymbolTableRecord
100
AcDbLinetypeTableRecord
  2
BYLAYER
 70
0
  3

 72
65
 73
0
 40
0.0
  0
LTYPE
  5
16
100
AcDbSymbolTableRecord
100
AcDbLinetypeTableRecord
  2
CONTINUOUS
 70
64
  3
Solid line
 72
65
 73
0
 40
0.0
  0
LTYPE
  5
1F5
100
AcDbSymbolTableRecord
100
AcDbLinetypeTableRecord
  2
CENTER
 70
64
  3
____ _ ____ _ ____ _ ____ _ ____ _ ____ _ ____
 72
65
 73
4
 40
0.6
 49
0.375
 74
0
 49
-0.075
 74
0
 49
0.075
 74
0
 49
-0.075
 74
0
  0
LTYPE
  5
1F6
100
AcDbSymbolTableRecord
100
AcDbLinetypeTableRecord
  2
HIDDEN
 70
64
  3
- - - - - - - - - - - - - - - - - - - -
 72
65
 73
2
 40
0.2
 49
0.1
 74
0
 49
-0.1
 74
0
  0
LTYPE
  5
1F7
100
AcDbSymbolTableRecord
100
AcDbLinetypeTableRecord
  2
PHANTOM
 70
64
  3
_____ _ _ _____ _ _ _____ _ _ _____
 72
65
 73
6
 40
0.8
 49
0.45
 74
0
 49
-0.05
 74
0
 49
0.1
 74
0
 49
-0.05
 74
0
 49
0.1
 74
0
 49
-0.05
 74
0
  0
LTYPE
  5
1F8
100
AcDbSymbolTableRecord
100
AcDbLinetypeTableRecord
  2
DOT
 70
64
  3
. . . . . . . . . . . . . . . . . . . .
 72
65
 73
2
 40
0.2
 49
0.1
 74
0
 49
-0.1
 74
0
  0
LTYPE
  5
1F9
100
AcDbSymbolTableRecord
100
AcDbLinetypeTableRecord
  2
DASHED
 70
64
  3
- - - - - - - - - - - - - - - - - - - -
 72
65
 73
2
 40
0.2
 49
0.1
 74
0
 49
-0.1
 74
0
  0
ENDTAB
  0
TABLE
  2
LAYER
  5
2
100
AcDbSymbolTable
 70
36
  0
LAYER
  5
10
100
AcDbSymbolTableRecord
100
AcDbLayerTableRecord
  2
0
 70
0
 62
7
  6
CONTINUOUS
370
-3
390
F
  0
LAYER
  5
1FA
100
AcDbSymbolTableRecord
100
AcDbLayerTableRecord
  2
DEFAULT_1
 70
0
 62
7
  6
CENTER
370
-3
390
F
  0
LAYER
  5
1FB
100
AcDbSymbolTableRecord
100
AcDbLayerTableRecord
  2
DEFAULT_2
 70
0
 62
7
  6
HIDDEN
370
-3
390
F
  0
LAYER
  5
1FC
100
AcDbSymbolTableRecord
100
AcDbLayerTableRecord
  2
DEFAULT_3
 70
0
 62
7
  6
PHANTOM
370
-3
390
F
  0
LAYER
  5
1FD
100
AcDbSymbolTableRecord
100
AcDbLayerTableRecord
  2
00_COMPONENTS
 70
0
 62
7
  6
CONTINUOUS
370
-3
390
F
  0
LAYER
  5
1FE
100
AcDbSymbolTableRecord
100
AcDbLayerTableRecord
  2
01_1_DEFAULT_DATUMS
 70
0
 62
7
  6
CONTINUOUS
370
-3
390
F
  0
LAYER
  5
1FF
100
AcDbSymbolTableRecord
100
AcDbLayerTableRecord
  2
01_PLANES
 70
0
 62
7
  6
CONTINUOUS
370
-3
390
F
  0
LAYER
  5
200
100
AcDbSymbolTableRecord
100
AcDbLayerTableRecord
  2
02_COORD_SYS
 70
0
 62
7
  6
CONTINUOUS
370
-3
390
F
  0
LAYER
  5
201
100
AcDbSymbolTableRecord
100
AcDbLayerTableRecord
  2
03_AXES
 70
0
 62
7
  6
CONTINUOUS
370
-3
390
F
  0
LAYER
  5
202
100
AcDbSymbolTableRecord
100
AcDbLayerTableRecord
  2
04_POINTS
 70
0
 62
7
  6
CONTINUOUS
370
-3
390
F
  0
LAYER
  5
203
100
AcDbSymbolTableRecord
100
AcDbLayerTableRecord
  2
05_CURVES
 70
0
 62
7
  6
CONTINUOUS
370
-3
390
F
  0
LAYER
  5
204
100
AcDbSymbolTableRecord
100
AcDbLayerTableRecord
  2
06_SURFS
 70
0
 62
7
  6
CONTINUOUS
370
-3
390
F
  0
LAYER
  5
205
100
AcDbSymbolTableRecord
100
AcDbLayerTableRecord
  2
07_COSMETICS
 70
0
 62
7
  6
CONTINUOUS
370
-3
390
F
  0
LAYER
  5
206
100
AcDbSymbolTableRecord
100
AcDbLayerTableRecord
  2
10_NOTES
 70
0
 62
7
  6
CONTINUOUS
370
-3
390
F
  0
LAYER
  5
207
100
AcDbSymbolTableRecord
100
AcDbLayerTableRecord
  2
11_NOTES_PUB
 70
0
 62
7
  6
CONTINUOUS
370
-3
390
F
  0
LAYER
  5
208
100
AcDbSymbolTableRecord
100
AcDbLayerTableRecord
  2
13_REF_GTOL
 70
0
 62
7
  6
CONTINUOUS
370
-3
390
F
  0
LAYER
  5
209
100
AcDbSymbolTableRecord
100
AcDbLayerTableRecord
  2
16_MISC
 70
0
 62
7
  6
CONTINUOUS
370
-3
390
F
  0
LAYER
  5
20A
100
AcDbSymbolTableRecord
100
AcDbLayerTableRecord
  2
17_NO_PRINT
 70
0
 62
7
  6
CONTINUOUS
370
-3
390
F
  0
LAYER
  5
20B
100
AcDbSymbolTableRecord
100
AcDbLayerTableRecord
  2
18_DATUM_CAMS_JOINTS
 70
0
 62
7
  6
CONTINUOUS
370
-3
390
F
  0
LAYER
  5
20C
100
AcDbSymbolTableRecord
100
AcDbLayerTableRecord
  2
19_DATUM_FUNCTIONAL
 70
0
 62
7
  6
CONTINUOUS
370
-3
390
F
  0
LAYER
  5
20D
100
AcDbSymbolTableRecord
100
AcDbLayerTableRecord
  2
20_DATUM_KINEMATIC_SCHEME
 70
0
 62
7
  6
CONTINUOUS
370
-3
390
F
  0
ENDTAB
  0
TABLE
  2
STYLE
  5
3
100
AcDbSymbolTable
 70
1
  0
STYLE
  5
11
100
AcDbSymbolTableRecord
100
AcDbTextStyleTableRecord
  2
STANDARD
 70
0
 40
0.0
 41
1.0
 50
0.0
 71
0
 42
0.2
  3
ARIAL.TTF
  4

  0
STYLE
  5
20E
100
AcDbSymbolTableRecord
100
AcDbTextStyleTableRecord
  2
TEXTSTYLE_1
 70
0
 40
0.0
 41
0.8
 50
0.0
 71
0
 42
0.2
  3
gdt
  4

  0
ENDTAB
  0
TABLE
  2
VIEW
  5
6
100
AcDbSymbolTable
 70
0
  0
ENDTAB
  0
TABLE
  2
UCS
  5
7
100
AcDbSymbolTable
 70
0
  0
ENDTAB
  0
TABLE
  2
APPID
  5
9
100
AcDbSymbolTable
 70
1
  0
APPID
  5
20F
100
AcDbSymbolTableRecord
100
AcDbRegAppTableRecord
  2
ACAD
 70
0
  0
ENDTAB
  0
TABLE
  2
BLOCK_RECORD
  5
1
100
AcDbSymbolTable
 70
0
  0
BLOCK_RECORD
  5
210
100
AcDbSymbolTableRecord
100
AcDbBlockTableRecord
  2
*Model_Space
  0
BLOCK_RECORD
  5
211
100
AcDbSymbolTableRecord
100
AcDbBlockTableRecord
  2
*Paper_Space
  0
BLOCK_RECORD
  5
212
100
AcDbSymbolTableRecord
100
AcDbBlockTableRecord
  2
_FILLED
  0
ENDTAB
  0
TABLE
  2
DIMSTYLE
  5
A
100
AcDbSymbolTable
 70
1
100
AcDbDimStyleTable
 71
0
  0
DIMSTYLE
105
213
100
AcDbSymbolTableRecord
100
AcDbDimStyleTableRecord
  2
STANDARD
 70
0
  3

  4

 40
1.0
 41
0.5634012624
 42
1.0
 43
0.38
 44
1.0
 45
0.0
 46
0.0
 47
0.01
 48
0.01
140
0.7887617673
141
0.09
142
0.0
143
25.4
144
1.0
145
0.0
146
1.0
147
0.625
 71
1
 72
0
 73
0
 74
0
 75
0
 76
0
 77
1
 78
8
 79
2
170
0
171
1
172
0
173
0
174
0
175
0
176
0
177
0
178
0
270
2
179
2
271
2
272
2
273
2
274
2
275
0
280
0
281
0
282
0
283
1
284
8
285
0
286
0
287
3
288
0
340
11
278
46
341
212
342
212
343
212
344
212
  0
ENDTAB
  0
ENDSEC
  0
SECTION
  2
BLOCKS
  0
BLOCK
  5
20
100
AcDbEntity
  8
0
100
AcDbBlockBegin
  2
*Model_Space
 70
0
 10
0.0
 20
0.0
 30
0.0
  3
*Model_Space
  1

  0
ENDBLK
  5
21
100
AcDbEntity
  8
0
100
AcDbBlockEnd
  0
BLOCK
  5
1C
100
AcDbEntity
  8
0
100
AcDbBlockBegin
  2
*Paper_Space
 70
0
 10
0.0
 20
0.0
 30
0.0
  3
*Paper_Space
  1

  0
ENDBLK
  5
1D
100
AcDbEntity
  8
0
100
AcDbBlockEnd
  0
BLOCK
  5
214
100
AcDbEntity
  8
0
100
AcDbBlockBegin
  2
_FILLED
 70
64
 10
0.0
 20
0.0
  3
_FILLED
  1

  0
SOLID
  5
215
100
AcDbEntity
  8
0
  6
BYBLOCK
 62
0
100
AcDbTrace
 10
0.0
 20
0.0
 11
-1.0
 21
0.25
 12
-1.0
 22
-0.25
 13
-1.0
 23
-0.25
  0
ENDBLK
  5
216
100
AcDbEntity
  8
0
  6
BYBLOCK
 62
0
100
AcDbBlockEnd
  0
ENDSEC
  0
SECTION
  2
ENTITIES
  0
LINE
  5
217
100
AcDbEntity
  8
0
100
AcDbLine
 62
7
  6
BYLAYER
 10
8.7182558634
 20
57.3979591837
 11
9.7682575667
 21
58.4479597606
  0
LINE
  5
218
100
AcDbEntity
  8
0
100
AcDbLine
 62
7
  6
BYLAYER
 10
34.7182459411
 20
5.4479591837
 11
32.7182459411
 21
5.4479591837
  0
LINE
  5
219
100
AcDbEntity
  8
0
100
AcDbLine
 62
7
  6
BYLAYER
 10
31.7182459411
 20
5.4479591837
 11
29.7182459411
 21
5.4479591837
  0
LINE
  5
21A
100
AcDbEntity
  8
0
100
AcDbLine
 62
7
  6
BYLAYER
 10
35.2182459411
 20
5.9479591837
 11
32.7182459411
 21
5.9479591837
  0
LINE
  5
21B
100
AcDbEntity
  8
0
100
AcDbLine
 62
7
  6
BYLAYER
 10
31.7182459411
 20
5.9479591837
 11
29.2182459411
 21
5.9479591837
  0
LINE
  5
21C
100
AcDbEntity
  8
0
100
AcDbLine
 62
7
  6
BYLAYER
 10
32.7182459411
 20
6.6479591837
 11
31.7182459411
 21
6.6479591837
  0
LINE
  5
21D
100
AcDbEntity
  8
0
100
AcDbLine
 62
7
  6
BYLAYER
 10
36.9182459411
 20
6.7979591837
 11
27.5182459411
 21
6.7979591837
  0
LINE
  5
21E
100
AcDbEntity
  8
0
100
AcDbLine
 62
7
  6
BYLAYER
 10
35.0325957211
 20
7.5979591837
 11
34.9033902576
 21
7.5979591837
  0
LINE
  5
21F
100
AcDbEntity
  8
0
100
AcDbLine
 62
7
  6
BYLAYER
 10
29.5331016247
 20
7.5979591837
 11
29.4038961612
 21
7.5979591837
  0
LINE
  5
220
100
AcDbEntity
  8
0
100
AcDbLine
 62
7
  6
BYLAYER
 10
29.4038961612
 20
10.9979591837
 11
29.5331016247
 21
10.9979591837
  0
LINE
  5
221
100
AcDbEntity
  8
0
100
AcDbLine
 62
7
  6
BYLAYER
 10
34.9033902576
 20
10.9979591837
 11
35.0325957211
 21
10.9979591837
  0
LINE
  5
222
100
AcDbEntity
  8
0
100
AcDbLine
 62
7
  6
BYLAYER
 10
27.5182459411
 20
11.7979591837
 11
36.9182459411
 21
11.7979591837
  0
LINE
  5
223
100
AcDbEntity
  8
0
100
AcDbLine
 62
7
  6
BYLAYER
 10
5.9182459411
 20
40.9384490007
 11
5.9182459411
 21
43.4987320974
  0
LINE
  5
224
100
AcDbEntity
  8
0
100
AcDbLine
 62
7
  6
BYLAYER
 10
5.9182459411
 20
52.79718627
 11
5.9182459411
 21
55.3574693667
  0
LINE
  5
225
100
AcDbEntity
  8
0
100
AcDbLine
 62
7
  6
BYLAYER
 10
7.5182459411
 20
38.8979591837
 11
7.5182459411
 21
40.9384490007
  0
LINE
  5
226
100
AcDbEntity
  8
0
100
AcDbLine
 62
7
  6
BYLAYER
 10
7.5182459411
 20
42.352662563
 11
7.5182459411
 21
53.9432558043
  0
LINE
  5
227
100
AcDbEntity
  8
0
100
AcDbLine
 62
7
  6
BYLAYER
 10
7.5182459411
 20
55.3574693667
 11
7.5182459411
 21
57.3979591837
  0
LINE
  5
228
100
AcDbEntity
  8
0
100
AcDbLine
 62
7
  6
BYLAYER
 10
8.7182558634
 20
57.3979591837
 11
8.7182558634
 21
38.8979591837
  0
LINE
  5
229
100
AcDbEntity
  8
0
100
AcDbLine
 62
7
  6
BYLAYER
 10
39.2182459411
 20
17.5479591837
 11
25.2182459411
 21
17.5479591837
  0
LINE
  5
22A
100
AcDbEntity
  8
0
100
AcDbLine
 62
7
  6
BYLAYER
 10
26.2636174893
 20
17.8479591837
 11
24.7182459411
 21
17.8479591837
  0
LINE
  5
22B
100
AcDbEntity
  8
0
100
AcDbLine
 62
7
  6
BYLAYER
 10
27.5182459411
 20
6.7979591837
 11
26.7182459411
 21
7.5979591837
  0
LINE
  5
22C
100
AcDbEntity
  8
0
100
AcDbLine
 62
7
  6
BYLAYER
 10
29.2182459411
 20
5.9479591837
 11
29.7182459411
 21
5.4479591837
  0
LINE
  5
22D
100
AcDbEntity
  8
0
100
AcDbLine
 62
7
  6
BYLAYER
 10
9.7682581436
 20
37.8479591837
 11
9.7682581436
 21
58.4479591837
  0
LINE
  5
22E
100
AcDbEntity
  8
0
100
AcDbLine
 62
7
  6
BYLAYER
 10
24.7182459411
 20
19.8479591837
 11
31.2182459411
 21
19.8479591837
  0
LINE
  5
22F
100
AcDbEntity
  8
0
100
AcDbLine
 62
7
  6
BYLAYER
 10
33.2182459411
 20
19.8479591837
 11
39.1464491714
 21
19.8479591837
  0
LINE
  5
230
100
AcDbEntity
  8
0
100
AcDbLine
 62
7
  6
BYLAYER
 10
25.2182459411
 20
20.6479591837
 11
27.2172460411
 21
20.6479591837
  0
LINE
  5
231
100
AcDbEntity
  8
0
100
AcDbLine
 62
7
  6
BYLAYER
 10
31.2182459411
 20
20.6479591837
 11
33.2182459411
 21
20.6479591837
  0
LINE
  5
232
100
AcDbEntity
  8
0
100
AcDbLine
 62
7
  6
BYLAYER
 10
37.2192458412
 20
20.6479591837
 11
39.2182459411
 21
20.6479591837
  0
LINE
  5
233
100
AcDbEntity
  8
0
100
AcDbLine
 62
7
  6
BYLAYER
 10
39.968245163
 20
21.3479591837
 11
24.4686909335
 21
21.3479591837
  0
LINE
  5
234
100
AcDbEntity
  8
0
100
AcDbLine
 62
7
  6
BYLAYER
 10
40.9682459411
 20
22.3479591837
 11
23.4687474734
 21
22.3479591837
  0
LINE
  5
235
100
AcDbEntity
  8
0
100
AcDbLine
 62
7
  6
BYLAYER
 10
16.1182459411
 20
35.9332648186
 11
16.1182459411
 21
42.0930266756
  0
LINE
  5
236
100
AcDbEntity
  8
0
100
AcDbLine
 62
7
  6
BYLAYER
 10
16.1182459411
 20
54.2028916918
 11
16.1182459411
 21
60.3626535487
  0
LINE
  5
237
100
AcDbEntity
  8
0
100
AcDbLine
 62
7
  6
BYLAYER
 10
16.7182459411
 20
35.053840968
 11
16.7182459411
 21
61.2420773994
  0
LINE
  5
238
100
AcDbEntity
  8
0
100
AcDbLine
 62
7
  6
BYLAYER
 10
8.7182558634
 20
38.8979591837
 11
9.7682575667
 21
37.8479586067
  0
LINE
  5
239
100
AcDbEntity
  8
0
100
AcDbLine
 62
7
  6
BYLAYER
 10
36.9182459411
 20
11.7979591837
 11
37.7182459411
 21
10.9979591837
  0
LINE
  5
23A
100
AcDbEntity
  8
0
100
AcDbLine
 62
7
  6
BYLAYER
 10
23.4682459411
 20
22.3479591837
 11
23.4682459411
 21
34.6822487161
  0
LINE
  5
23B
100
AcDbEntity
  8
0
100
AcDbLine
 62
7
  6
BYLAYER
 10
24.7182459411
 20
19.8479591837
 11
24.7182459411
 21
17.8479591837
  0
LINE
  5
23C
100
AcDbEntity
  8
0
100
AcDbLine
 62
7
  6
BYLAYER
 10
25.2182459411
 20
20.6479591837
 11
25.2182459411
 21
19.8479591837
  0
LINE
  5
23D
100
AcDbEntity
  8
0
100
AcDbLine
 62
7
  6
BYLAYER
 10
25.2182459411
 20
17.8479591837
 11
25.2182459411
 21
17.5479591837
  0
LINE
  5
23E
100
AcDbEntity
  8
0
100
AcDbLine
 62
7
  6
BYLAYER
 10
25.2900427109
 20
19.8479591837
 11
25.2900427109
 21
20.6479591837
  0
LINE
  5
23F
100
AcDbEntity
  8
0
100
AcDbLine
 62
7
  6
BYLAYER
 10
25.8304233976
 20
17.8479591837
 11
25.8304233976
 21
19.8479591837
  0
LINE
  5
240
100
AcDbEntity
  8
0
100
AcDbLine
 62
7
  6
BYLAYER
 10
26.2636174893
 20
19.8479591837
 11
26.2636174893
 21
17.8479591837
  0
LINE
  5
241
100
AcDbEntity
  8
0
100
AcDbLine
 62
7
  6
BYLAYER
 10
26.7187518448
 20
7.5979591837
 11
26.7187518448
 21
10.9979591837
  0
LINE
  5
242
100
AcDbEntity
  8
0
100
AcDbLine
 62
7
  6
BYLAYER
 10
40.9682459411
 20
34.6822480155
 11
32.2284104051
 21
34.4481638181
  0
LINE
  5
243
100
AcDbEntity
  8
0
100
AcDbLine
 62
7
  6
BYLAYER
 10
42.2313344153
 20
34.9101611331
 11
39.281172282
 21
34.8329084189
  0
LINE
  5
244
100
AcDbEntity
  8
0
100
AcDbLine
 62
7
  6
BYLAYER
 10
38.2313344153
 20
34.8054174468
 11
32.2182459411
 21
34.6479591837
  0
LINE
  5
245
100
AcDbEntity
  8
0
100
AcDbLine
 62
7
  6
BYLAYER
 10
39.2768032493
 20
35.3327369036
 11
41.7356983453
 21
35.3971253384
  0
LINE
  5
246
100
AcDbEntity
  8
0
100
AcDbLine
 62
7
  6
BYLAYER
 10
32.2182459411
 20
35.6476165086
 11
38.2313344153
 21
35.8050747719
  0
LINE
  5
247
100
AcDbEntity
  8
0
100
AcDbLine
 62
7
  6
BYLAYER
 10
42.7182459411
 20
35.4099901578
 11
41.7356982905
 21
35.397125337
  0
LINE
  5
248
100
AcDbEntity
  8
0
100
AcDbLine
 62
7
  6
BYLAYER
 10
38.7182459411
 20
35.805074775
 11
38.2313349898
 21
35.805074775
  0
LINE
  5
249
100
AcDbEntity
  8
0
100
AcDbLine
 62
7
  6
BYLAYER
 10
16.1182459411
 20
35.9332648186
 11
16.7182459411
 21
35.9332648186
  0
LINE
  5
24A
100
AcDbEntity
  8
0
100
AcDbLine
 62
7
  6
BYLAYER
 10
32.2182459411
 20
34.6479591837
 11
16.7182459411
 21
35.053840968
  0
LINE
  5
24B
100
AcDbEntity
  8
0
100
AcDbLine
 62
7
  6
BYLAYER
 10
16.7182459411
 20
36.053498293
 11
32.2182459411
 21
35.6476165087
  0
LINE
  5
24C
100
AcDbEntity
  8
0
100
AcDbLine
 62
7
  6
BYLAYER
 10
32.2080169928
 20
34.4481643387
 11
23.4682459411
 21
34.6822487161
  0
LWPOLYLINE
  5
24D
100
AcDbEntity
  8
0
100
AcDbPolyline
 62
7
  6
BYLAYER
 90
4
 70
0
 10
23.2737011282
 20
34.8821802126
 10
23.4113042163
 20
34.8220206921
 10
23.4532837446
 20
34.7581578758
 10
23.4682467373
 20
34.6822546057
  0
LINE
  5
24E
100
AcDbEntity
  8
0
100
AcDbLine
 62
7
  6
BYLAYER
 10
27.2172460411
 20
20.6479591837
 11
27.2172460411
 21
19.8479591837
  0
LINE
  5
24F
100
AcDbEntity
  8
0
100
AcDbLine
 62
7
  6
BYLAYER
 10
27.2182459411
 20
21.3479591837
 11
27.2182459411
 21
20.6479591837
  0
LINE
  5
250
100
AcDbEntity
  8
0
100
AcDbLine
 62
7
  6
BYLAYER
 10
41.7356982357
 20
38.2011446078
 11
38.9147554599
 21
38.1519984895
  0
LINE
  5
251
100
AcDbEntity
  8
0
100
AcDbLine
 62
7
  6
BYLAYER
 10
9.7682581436
 20
37.8479591837
 11
16.1182459411
 21
37.8479591837
  0
LINE
  5
252
100
AcDbEntity
  8
0
100
AcDbLine
 62
7
  6
BYLAYER
 10
38.7182459422
 20
38.1519984895
 11
38.9147554598
 21
38.1519984895
  0
LINE
  5
253
100
AcDbEntity
  8
0
100
AcDbLine
 62
7
  6
BYLAYER
 10
41.7356982905
 20
38.2012382306
 11
42.7182459411
 21
38.2012382306
  0
LINE
  5
254
100
AcDbEntity
  8
0
100
AcDbLine
 62
7
  6
BYLAYER
 10
29.2182459411
 20
5.9479591837
 11
29.2182459411
 21
6.7979591837
  0
LINE
  5
255
100
AcDbEntity
  8
0
100
AcDbLine
 62
7
  6
BYLAYER
 10
29.2182459411
 20
11.7979591837
 11
29.2182459411
 21
17.5479591837
  0
LINE
  5
256
100
AcDbEntity
  8
0
100
AcDbLine
 62
7
  6
BYLAYER
 10
29.4038961612
 20
10.9979591837
 11
29.4038961612
 21
7.5979591837
  0
LINE
  5
257
100
AcDbEntity
  8
0
100
AcDbLine
 62
7
  6
BYLAYER
 10
29.5331016247
 20
7.5979591837
 11
29.5331016247
 21
10.9979591837
  0
LINE
  5
258
100
AcDbEntity
  8
0
100
AcDbLine
 62
7
  6
BYLAYER
 10
31.2182459411
 20
20.6479591837
 11
31.2182459411
 21
19.8479591837
  0
LINE
  5
259
100
AcDbEntity
  8
0
100
AcDbLine
 62
7
  6
BYLAYER
 10
16.7182459411
 20
38.3827545614
 11
16.1182459411
 21
38.3827545614
  0
LINE
  5
25A
100
AcDbEntity
  8
0
100
AcDbLine
 62
7
  6
BYLAYER
 10
8.7182558634
 20
38.8979591837
 11
7.5182459411
 21
38.8979591837
  0
LINE
  5
25B
100
AcDbEntity
  8
0
100
AcDbLine
 62
7
  6
BYLAYER
 10
32.228482756
 20
34.4481657659
 11
32.2208617508
 21
34.6479763168
  0
LINE
  5
25C
100
AcDbEntity
  8
0
100
AcDbLine
 62
7
  6
BYLAYER
 10
31.7182459411
 20
5.4479591837
 11
31.7182459411
 21
6.6479591837
  0
LINE
  5
25D
100
AcDbEntity
  8
0
100
AcDbLine
 62
7
  6
BYLAYER
 10
32.218246068
 20
34.647959187
 11
32.2182460681
 21
61.6479591804
  0
LINE
  5
25E
100
AcDbEntity
  8
0
100
AcDbLine
 62
7
  6
BYLAYER
 10
32.7182459411
 20
6.6479591837
 11
32.7182459411
 21
5.4479591837
  0
LINE
  5
25F
100
AcDbEntity
  8
0
100
AcDbLine
 62
7
  6
BYLAYER
 10
33.2182459411
 20
19.8479591837
 11
33.2182459411
 21
20.6479591837
  0
LINE
  5
260
100
AcDbEntity
  8
0
100
AcDbLine
 62
7
  6
BYLAYER
 10
32.2130105836
 20
34.6480941914
 11
32.2080092098
 21
34.4481638909
  0
LINE
  5
261
100
AcDbEntity
  8
0
100
AcDbLine
 62
7
  6
BYLAYER
 10
41.7356983476
 20
42.2006290113
 11
38.9147554598
 21
42.1513892701
  0
LINE
  5
262
100
AcDbEntity
  8
0
100
AcDbLine
 62
7
  6
BYLAYER
 10
5.9182459411
 20
40.9384490007
 11
7.5182459411
 21
40.9384490007
  0
LINE
  5
263
100
AcDbEntity
  8
0
100
AcDbLine
 62
7
  6
BYLAYER
 10
38.2313349898
 20
42.0689220157
 11
38.7182459411
 21
42.0689220157
  0
LINE
  5
264
100
AcDbEntity
  8
0
100
AcDbLine
 62
7
  6
BYLAYER
 10
16.1182459411
 20
42.0930266756
 11
16.7182459411
 21
42.0930266756
  0
LINE
  5
265
100
AcDbEntity
  8
0
100
AcDbLine
 62
7
  6
BYLAYER
 10
7.5182459411
 20
42.352662563
 11
5.9182459411
 21
42.352662563
  0
LINE
  5
266
100
AcDbEntity
  8
0
100
AcDbLine
 62
7
  6
BYLAYER
 10
34.9033902576
 20
10.9979591837
 11
34.9033902576
 21
7.5979591837
  0
LINE
  5
267
100
AcDbEntity
  8
0
100
AcDbLine
 62
7
  6
BYLAYER
 10
35.0325957211
 20
7.5979591837
 11
35.0325957211
 21
10.9979591837
  0
LINE
  5
268
100
AcDbEntity
  8
0
100
AcDbLine
 62
7
  6
BYLAYER
 10
35.2182459411
 20
5.9479591837
 11
35.2182459411
 21
6.7979591837
  0
LINE
  5
269
100
AcDbEntity
  8
0
100
AcDbLine
 62
7
  6
BYLAYER
 10
35.2182459411
 20
11.7979591837
 11
35.2182459411
 21
17.5479591837
  0
LINE
  5
26A
100
AcDbEntity
  8
0
100
AcDbLine
 62
7
  6
BYLAYER
 10
38.9130104131
 20
43.1510553452
 11
41.7444228895
 21
43.2004767067
  0
LINE
  5
26B
100
AcDbEntity
  8
0
100
AcDbLine
 62
7
  6
BYLAYER
 10
42.7182459411
 20
43.2004767065
 11
41.7444228894
 21
43.2004767065
  0
LINE
  5
26C
100
AcDbEntity
  8
0
100
AcDbLine
 62
7
  6
BYLAYER
 10
5.9182459411
 20
43.4987320974
 11
7.5182459411
 21
43.4987320974
  0
LINE
  5
26D
100
AcDbEntity
  8
0
100
AcDbLine
 62
7
  6
BYLAYER
 10
37.2182459411
 20
21.3479591837
 11
37.2182459411
 21
20.6479591837
  0
LINE
  5
26E
100
AcDbEntity
  8
0
100
AcDbLine
 62
7
  6
BYLAYER
 10
37.2192458412
 20
19.8479591837
 11
37.2192458412
 21
20.6479591837
  0
LINE
  5
26F
100
AcDbEntity
  8
0
100
AcDbLine
 62
7
  6
BYLAYER
 10
37.7177400375
 20
10.9979591837
 11
37.7177400375
 21
7.5979591837
  0
LWPOLYLINE
  5
270
100
AcDbEntity
  8
0
100
AcDbPolyline
 62
7
  6
BYLAYER
 90
3
 70
0
 10
38.9133099036
 20
55.3158745726
 10
38.913685513
 20
54.4489789135
 10
38.9147553006
 20
54.1445291
  0
LINE
  5
271
100
AcDbEntity
  8
0
100
AcDbLine
 62
7
  6
BYLAYER
 10
38.2313344153
 20
35.8050747719
 11
38.2313355642
 21
42.068924024
  0
LINE
  5
272
100
AcDbEntity
  8
0
100
AcDbLine
 62
7
  6
BYLAYER
 10
38.2313355642
 20
54.2269943456
 11
38.2313344153
 21
60.4908435946
  0
LINE
  5
273
100
AcDbEntity
  8
0
100
AcDbLine
 62
7
  6
BYLAYER
 10
38.7182459411
 20
35.2312429636
 11
38.7182459411
 21
42.068916287
  0
LINE
  5
274
100
AcDbEntity
  8
0
100
AcDbLine
 62
7
  6
BYLAYER
 10
38.7182459411
 20
54.2270039193
 11
38.7182459411
 21
60.990672258
  0
LINE
  5
275
100
AcDbEntity
  8
0
100
AcDbLine
 62
7
  6
BYLAYER
 10
38.9147552563
 20
54.1445290998
 11
38.9147554598
 21
60.4727191241
  0
LINE
  5
276
100
AcDbEntity
  8
0
100
AcDbLine
 62
7
  6
BYLAYER
 10
38.9147552926
 20
42.1513892672
 11
38.914777338
 21
35.2646775424
  0
LINE
  5
277
100
AcDbEntity
  8
0
100
AcDbLine
 62
7
  6
BYLAYER
 10
39.1464491714
 20
20.6479591837
 11
39.1464491714
 21
19.8479591837
  0
LINE
  5
278
100
AcDbEntity
  8
0
100
AcDbLine
 62
7
  6
BYLAYER
 10
39.2182459411
 20
17.5479591837
 11
39.2182459411
 21
20.6479591837
  0
LINE
  5
279
100
AcDbEntity
  8
0
100
AcDbLine
 62
7
  6
BYLAYER
 10
38.9147554171
 20
58.1439666348
 11
38.9133099036
 21
55.3158745726
  0
LWPOLYLINE
  5
27A
100
AcDbEntity
  8
0
100
AcDbPolyline
 62
7
  6
BYLAYER
 90
4
 70
0
 10
38.9147552926
 20
42.1513892672
 10
38.9136855075
 20
41.8469392048
 10
38.9133099019
 20
40.9800431796
 10
38.9147554219
 20
38.1519516783
  0
LINE
  5
27B
100
AcDbEntity
  8
0
100
AcDbLine
 62
7
  6
BYLAYER
 10
40.9682459411
 20
22.3479591837
 11
40.9682459411
 21
34.6822480155
  0
LINE
  5
27C
100
AcDbEntity
  8
0
100
AcDbLine
 62
7
  6
BYLAYER
 10
41.7356982359
 20
58.0947736508
 11
41.7356983476
 21
60.3988501355
  0
LINE
  5
27D
100
AcDbEntity
  8
0
100
AcDbLine
 62
7
  6
BYLAYER
 10
41.7356983453
 20
35.3971253384
 11
41.7356982357
 21
38.2011446078
  0
LINE
  5
27E
100
AcDbEntity
  8
0
100
AcDbLine
 62
7
  6
BYLAYER
 10
41.7444228894
 20
53.0954416608
 11
41.7444228895
 21
43.2004767067
  0
LWPOLYLINE
  5
27F
100
AcDbEntity
  8
0
100
AcDbPolyline
 62
7
  6
BYLAYER
 90
4
 70
0
 10
40.9682451449
 20
34.6822546057
 10
40.9831798409
 20
34.7580888573
 10
41.0252307613
 20
34.8220647887
 10
41.1630234679
 20
34.882186426
  0
LINE
  5
280
100
AcDbEntity
  8
0
100
AcDbLine
 62
7
  6
BYLAYER
 10
27.5182459411
 20
11.7979591837
 11
26.7182459411
 21
10.9979591837
  0
LINE
  5
281
100
AcDbEntity
  8
0
100
AcDbLine
 62
7
  6
BYLAYER
 10
42.7182459411
 20
35.4099897956
 11
42.7182459411
 21
60.3988501363
  0
LINE
  5
282
100
AcDbEntity
  8
0
100
AcDbLine
 62
7
  6
BYLAYER
 10
5.9182459411
 20
52.79718627
 11
7.5182459411
 21
52.79718627
  0
LINE
  5
283
100
AcDbEntity
  8
0
100
AcDbLine
 62
7
  6
BYLAYER
 10
41.7444228894
 20
53.0954416608
 11
42.7182459411
 21
53.0954416608
  0
LINE
  5
284
100
AcDbEntity
  8
0
100
AcDbLine
 62
7
  6
BYLAYER
 10
5.9182459411
 20
53.9432558043
 11
7.5182459411
 21
53.9432558043
  0
LINE
  5
285
100
AcDbEntity
  8
0
100
AcDbLine
 62
7
  6
BYLAYER
 10
41.7444228894
 20
53.0954416608
 11
38.9130104945
 21
53.1448630206
  0
LINE
  5
286
100
AcDbEntity
  8
0
100
AcDbLine
 62
7
  6
BYLAYER
 10
16.7182459411
 20
54.2028916918
 11
16.1182459411
 21
54.2028916918
  0
LINE
  5
287
100
AcDbEntity
  8
0
100
AcDbLine
 62
7
  6
BYLAYER
 10
38.2313349897
 20
54.2269822282
 11
38.7182459411
 21
54.2269822282
  0
LINE
  5
288
100
AcDbEntity
  8
0
100
AcDbLine
 62
7
  6
BYLAYER
 10
7.5182459411
 20
55.3574693667
 11
5.9182459411
 21
55.3574693667
  0
LINE
  5
289
100
AcDbEntity
  8
0
100
AcDbLine
 62
7
  6
BYLAYER
 10
38.9147554598
 20
54.1445290973
 11
41.7356983476
 21
54.095289356
  0
LINE
  5
28A
100
AcDbEntity
  8
0
100
AcDbLine
 62
7
  6
BYLAYER
 10
8.7182558634
 20
57.3979591837
 11
7.5182459411
 21
57.3979591837
  0
LINE
  5
28B
100
AcDbEntity
  8
0
100
AcDbLine
 62
7
  6
BYLAYER
 10
16.1182459411
 20
57.9131638059
 11
16.7182459411
 21
57.9131638059
  0
LINE
  5
28C
100
AcDbEntity
  8
0
100
AcDbLine
 62
7
  6
BYLAYER
 10
42.7182459411
 20
58.0946801629
 11
41.7356982917
 21
58.0946801629
  0
LINE
  5
28D
100
AcDbEntity
  8
0
100
AcDbLine
 62
7
  6
BYLAYER
 10
38.9147554598
 20
58.1439198779
 11
38.7182459411
 21
58.1439198779
  0
LINE
  5
28E
100
AcDbEntity
  8
0
100
AcDbLine
 62
7
  6
BYLAYER
 10
9.7682581436
 20
58.4479591837
 11
16.1182459411
 21
58.4479591837
  0
LINE
  5
28F
100
AcDbEntity
  8
0
100
AcDbLine
 62
7
  6
BYLAYER
 10
38.9147554598
 20
58.1439198779
 11
41.7356982359
 21
58.0947736508
  0
LINE
  5
290
100
AcDbEntity
  8
0
100
AcDbLine
 62
7
  6
BYLAYER
 10
32.2182459411
 20
60.6483018587
 11
16.7182459411
 21
60.2424200744
  0
LINE
  5
291
100
AcDbEntity
  8
0
100
AcDbLine
 62
7
  6
BYLAYER
 10
16.1182459411
 20
60.3626535487
 11
16.7182459411
 21
60.3626535467
  0
LINE
  5
292
100
AcDbEntity
  8
0
100
AcDbLine
 62
7
  6
BYLAYER
 10
41.7356982917
 20
60.3988501363
 11
42.7182459411
 21
60.3988501363
  0
LINE
  5
293
100
AcDbEntity
  8
0
100
AcDbLine
 62
7
  6
BYLAYER
 10
38.7182459411
 20
60.4727191163
 11
38.9147554598
 21
60.4727191163
  0
LINE
  5
294
100
AcDbEntity
  8
0
100
AcDbLine
 62
7
  6
BYLAYER
 10
38.2313349897
 20
60.4908435947
 11
38.7182459411
 21
60.4908435947
  0
LINE
  5
295
100
AcDbEntity
  8
0
100
AcDbLine
 62
7
  6
BYLAYER
 10
35.2182459411
 20
5.9479591837
 11
34.7182459411
 21
5.4479591837
  0
LINE
  5
296
100
AcDbEntity
  8
0
100
AcDbLine
 62
7
  6
BYLAYER
 10
36.9182459411
 20
6.7979591837
 11
37.7182459411
 21
7.5979591837
  0
LINE
  5
297
100
AcDbEntity
  8
0
100
AcDbLine
 62
7
  6
BYLAYER
 10
16.7182459411
 20
61.2420773994
 11
32.2182459411
 21
61.6479591837
  0
LINE
  5
298
100
AcDbEntity
  8
0
100
AcDbLine
 62
7
  6
BYLAYER
 10
41.7356983476
 20
60.3988501355
 11
38.9147554598
 21
60.4727191241
  0
LINE
  5
299
100
AcDbEntity
  8
0
100
AcDbLine
 62
7
  6
BYLAYER
 10
38.2313344153
 20
60.4908435946
 11
32.2182459411
 21
60.6483018587
  0
LINE
  5
29A
100
AcDbEntity
  8
0
100
AcDbLine
 62
7
  6
BYLAYER
 10
32.2182459411
 20
61.6479591837
 11
41.7444228895
 21
61.3985074613
  0
ARC
  5
29B
100
AcDbEntity
  8
0
100
AcDbCircle
 62
7
  6
BYLAYER
 10
24.4682459411
 20
22.3479591837
 40
1.0
100
AcDbArc
 50
180.0
 51
270.0000445854
  0
ARC
  5
29C
100
AcDbEntity
  8
0
100
AcDbCircle
 62
7
  6
BYLAYER
 10
32.2182384917
 20
34.8487473196
 40
0.4007222648
100
AcDbArc
 50
268.5383268278
 51
271.4545836513
  0
ARC
  5
29D
100
AcDbEntity
  8
0
100
AcDbCircle
 62
7
  6
BYLAYER
 10
39.3158563429
 20
33.5182473853
 40
1.3151224178
100
AcDbArc
 50
91.5114245201
 51
100.6512224769
  0
ARC
  5
29E
100
AcDbEntity
  8
0
100
AcDbCircle
 62
7
  6
BYLAYER
 10
39.9682459411
 20
22.3479591837
 40
1.0
100
AcDbArc
 50
269.9999554146
 51
360.0
  0
ARC
  5
29F
100
AcDbEntity
  8
0
100
AcDbCircle
 62
7
  6
BYLAYER
 10
42.2182264938
 20
35.4099917952
 40
0.5000050211
100
AcDbArc
 50
271.5022217252
 51
359.9997708707
  0
ARC
  5
2A0
100
AcDbEntity
  8
0
100
AcDbCircle
 62
7
  6
BYLAYER
 10
38.2182450817
 20
35.3051130283
 40
0.4998394265
100
AcDbArc
 50
271.5004937483
 51
0.015249941
  0
ARC
  5
2A1
100
AcDbEntity
  8
0
100
AcDbCircle
 62
7
  6
BYLAYER
 10
38.9182458603
 20
41.9514143234
 40
0.1999998886
100
AcDbArc
 50
90.9999498004
 51
179.9984507728
  0
ARC
  5
2A2
100
AcDbEntity
  8
0
100
AcDbCircle
 62
7
  6
BYLAYER
 10
38.218246134
 20
60.9908045311
 40
0.4998392526
100
AcDbArc
 50
359.9848426154
 51
88.4995593492
  0
ARC
  5
2A3
100
AcDbEntity
  8
0
100
AcDbCircle
 62
7
  6
BYLAYER
 10
38.9182458748
 20
54.3445041067
 40
0.1999998876
100
AcDbArc
 50
180.0015672138
 51
269.0000463481
  0
ARC
  5
2A4
100
AcDbEntity
  8
0
100
AcDbCircle
 62
7
  6
BYLAYER
 10
41.7182459411
 20
43.2004767065
 40
1.0
100
AcDbArc
 50
270.9999969505
 51
360.0
  0
ARC
  5
2A5
100
AcDbEntity
  8
0
100
AcDbCircle
 62
7
  6
BYLAYER
 10
41.7182459411
 20
60.3988501363
 40
1.0
100
AcDbArc
 50
0.0
 51
88.4999999997
  0
ARC
  5
2A6
100
AcDbEntity
  8
0
100
AcDbCircle
 62
7
  6
BYLAYER
 10
41.7182459411
 20
53.0954416608
 40
1.0
100
AcDbArc
 50
0.0
 51
89.0000030596
  0
SPLINE
  5
2A7
100
AcDbEntity
  8
0
100
AcDbSpline
 62
7
  6
BYLAYER
 70
0
 71
3
 72
23
 73
19
 74
0
 42
0.0000001
 43
0.0000001
 44
0.0000000001
 40
0.0
 40
0.0
 40
0.0
 40
0.0
 40
0.0698215608
 40
0.1375824136
 40
0.2031205819
 40
0.2663451705
 40
0.3272939682
 40
0.3861978871
 40
0.4435297875
 40
0.5000000054
 40
0.5564702209
 40
0.613802121
 40
0.6727060386
 40
0.7336548345
 40
0.7968794226
 40
0.8624175883
 40
0.9301784389
 40
1.0
 40
1.0
 40
1.0
 40
1.0
 10
29.4038961612
 20
7.5979591837
 30
0.0
 10
29.3522070292
 20
7.5474890823
 30
0.0
 10
29.2481566271
 20
7.4502450734
 30
0.0
 10
29.0870482263
 20
7.3151066255
 30
0.0
 10
28.9229476437
 20
7.1947399016
 30
0.0
 10
28.7557930432
 20
7.0913705286
 30
0.0
 10
28.5856380786
 20
7.0073580143
 30
0.0
 10
28.4127358337
 20
6.945071016
 30
0.0
 10
28.2376490876
 20
6.9066491157
 30
0.0
 10
28.0613239886
 20
6.8936471156
 30
0.0
 10
27.8849988905
 20
6.9066491205
 30
0.0
 10
27.7099121491
 20
6.9450710233
 30
0.0
 10
27.5370099082
 20
7.007358022
 30
0.0
 10
27.3668549481
 20
7.0913705371
 30
0.0
 10
27.1997003524
 20
7.1947399079
 30
0.0
 10
27.0355997748
 20
7.3151066294
 30
0.0
 10
26.8744913777
 20
7.4502450746
 30
0.0
 10
26.7704409769
 20
7.5474890821
 30
0.0
 10
26.7187518448
 20
7.5979591837
 30
0.0
  0
SPLINE
  5
2A8
100
AcDbEntity
  8
0
100
AcDbSpline
 62
7
  6
BYLAYER
 70
0
 71
3
 72
19
 73
15
 74
0
 42
0.0000001
 43
0.0000001
 44
0.0000000001
 40
0.0
 40
0.0
 40
0.0
 40
0.0
 40
0.1249968604
 40
0.2499739531
 40
0.3124818274
 40
0.3749886817
 40
0.4374946147
 40
0.5000000059
 40
0.5625053946
 40
0.6250113269
 40
0.6875181798
 40
0.750026052
 40
0.8750031413
 40
1.0
 40
1.0
 40
1.0
 40
1.0
 10
34.9033902576
 20
7.5979591837
 30
0.0
 10
34.6938078729
 20
7.4956393748
 30
0.0
 10
34.2673079915
 20
7.3055586842
 30
0.0
 10
33.7142161914
 20
7.117461348
 30
0.0
 10
33.2609795314
 20
7.0061104807
 30
0.0
 10
32.9163122559
 20
6.9444066755
 30
0.0
 10
32.5682004089
 20
6.9064915114
 30
0.0
 10
32.2182459127
 20
6.8936930371
 30
0.0
 10
31.8682914179
 20
6.9064915162
 30
0.0
 10
31.5201795801
 20
6.9444066828
 30
0.0
 10
31.1755123126
 20
7.0061104883
 30
0.0
 10
30.722275666
 20
7.1174613562
 30
0.0
 10
30.169183879
 20
7.3055586891
 30
0.0
 10
29.7426840064
 20
7.4956393762
 30
0.0
 10
29.5331016247
 20
7.5979591837
 30
0.0
  0
SPLINE
  5
2A9
100
AcDbEntity
  8
0
100
AcDbSpline
 62
7
  6
BYLAYER
 70
0
 71
3
 72
23
 73
19
 74
0
 42
0.0000001
 43
0.0000001
 44
0.0000000001
 40
0.0
 40
0.0
 40
0.0
 40
0.0
 40
0.0698215608
 40
0.1375824136
 40
0.2031205819
 40
0.2663451705
 40
0.3272939682
 40
0.3861978871
 40
0.4435297875
 40
0.5000000054
 40
0.5564702209
 40
0.613802121
 40
0.6727060386
 40
0.7336548345
 40
0.7968794226
 40
0.8624175883
 40
0.9301784389
 40
1.0
 40
1.0
 40
1.0
 40
1.0
 10
37.7177400375
 20
7.5979591837
 30
0.0
 10
37.6660509056
 20
7.5474890823
 30
0.0
 10
37.5620005035
 20
7.4502450734
 30
0.0
 10
37.4008921026
 20
7.3151066255
 30
0.0
 10
37.23679152
 20
7.1947399016
 30
0.0
 10
37.0696369195
 20
7.0913705286
 30
0.0
 10
36.8994819549
 20
7.0073580143
 30
0.0
 10
36.7265797101
 20
6.945071016
 30
0.0
 10
36.5514929639
 20
6.9066491157
 30
0.0
 10
36.375167865
 20
6.8936471156
 30
0.0
 10
36.1988427668
 20
6.9066491205
 30
0.0
 10
36.0237560255
 20
6.9450710233
 30
0.0
 10
35.8508537845
 20
7.007358022
 30
0.0
 10
35.6806988245
 20
7.0913705371
 30
0.0
 10
35.5135442287
 20
7.1947399079
 30
0.0
 10
35.3494436512
 20
7.3151066294
 30
0.0
 10
35.1883352541
 20
7.4502450746
 30
0.0
 10
35.0842848533
 20
7.5474890821
 30
0.0
 10
35.0325957211
 20
7.5979591837
 30
0.0
  0
SPLINE
  5
2AA
100
AcDbEntity
  8
0
100
AcDbSpline
 62
7
  6
BYLAYER
 70
0
 71
3
 72
23
 73
19
 74
0
 42
0.0000001
 43
0.0000001
 44
0.0000000001
 40
0.0
 40
0.0
 40
0.0
 40
0.0
 40
0.0698215608
 40
0.1375824136
 40
0.2031205819
 40
0.2663451705
 40
0.3272939682
 40
0.3861978871
 40
0.4435297875
 40
0.5000000054
 40
0.5564702209
 40
0.613802121
 40
0.6727060386
 40
0.7336548345
 40
0.7968794226
 40
0.8624175883
 40
0.9301784389
 40
1.0
 40
1.0
 40
1.0
 40
1.0
 10
26.7187518448
 20
10.9979591837
 30
0.0
 10
26.7704409767
 20
11.0484292851
 30
0.0
 10
26.8744913788
 20
11.1456732939
 30
0.0
 10
27.0355997796
 20
11.2808117419
 30
0.0
 10
27.1997003623
 20
11.4011784657
 30
0.0
 10
27.3668549628
 20
11.5045478387
 30
0.0
 10
27.5370099274
 20
11.588560353
 30
0.0
 10
27.7099121722
 20
11.6508473514
 30
0.0
 10
27.8849989184
 20
11.6892692517
 30
0.0
 10
28.0613240173
 20
11.7022712518
 30
0.0
 10
28.2376491154
 20
11.6892692468
 30
0.0
 10
28.4127358568
 20
11.650847344
 30
0.0
 10
28.5856380977
 20
11.5885603453
 30
0.0
 10
28.7557930578
 20
11.5045478302
 30
0.0
 10
28.9229476536
 20
11.4011784594
 30
0.0
 10
29.0870482311
 20
11.2808117379
 30
0.0
 10
29.2481566282
 20
11.1456732927
 30
0.0
 10
29.352207029
 20
11.0484292853
 30
0.0
 10
29.4038961612
 20
10.9979591837
 30
0.0
  0
SPLINE
  5
2AB
100
AcDbEntity
  8
0
100
AcDbSpline
 62
7
  6
BYLAYER
 70
0
 71
3
 72
23
 73
19
 74
0
 42
0.0000001
 43
0.0000001
 44
0.0000000001
 40
0.0
 40
0.0
 40
0.0
 40
0.0
 40
0.0698215608
 40
0.1375824136
 40
0.2031205819
 40
0.2663451705
 40
0.3272939682
 40
0.3861978871
 40
0.4435297875
 40
0.5000000054
 40
0.5564702209
 40
0.613802121
 40
0.6727060386
 40
0.7336548345
 40
0.7968794226
 40
0.8624175883
 40
0.9301784389
 40
1.0
 40
1.0
 40
1.0
 40
1.0
 10
35.0325957211
 20
10.9979591837
 30
0.0
 10
35.084284853
 20
11.0484292851
 30
0.0
 10
35.1883352552
 20
11.1456732939
 30
0.0
 10
35.349443656
 20
11.2808117419
 30
0.0
 10
35.5135442386
 20
11.4011784657
 30
0.0
 10
35.6806988391
 20
11.5045478387
 30
0.0
 10
35.8508538037
 20
11.588560353
 30
0.0
 10
36.0237560485
 20
11.6508473514
 30
0.0
 10
36.1988427947
 20
11.6892692517
 30
0.0
 10
36.3751678936
 20
11.7022712518
 30
0.0
 10
36.5514929917
 20
11.6892692468
 30
0.0
 10
36.7265797331
 20
11.650847344
 30
0.0
 10
36.8994819741
 20
11.5885603453
 30
0.0
 10
37.0696369341
 20
11.5045478302
 30
0.0
 10
37.2367915299
 20
11.4011784594
 30
0.0
 10
37.4008921074
 20
11.2808117379
 30
0.0
 10
37.5620005045
 20
11.1456732927
 30
0.0
 10
37.6660509053
 20
11.0484292853
 30
0.0
 10
37.7177400375
 20
10.9979591837
 30
0.0
  0
SPLINE
  5
2AC
100
AcDbEntity
  8
0
100
AcDbSpline
 62
7
  6
BYLAYER
 70
0
 71
3
 72
19
 73
15
 74
0
 42
0.0000001
 43
0.0000001
 44
0.0000000001
 40
0.0
 40
0.0
 40
0.0
 40
0.0
 40
0.1249968604
 40
0.2499739531
 40
0.3124818274
 40
0.3749886817
 40
0.4374946147
 40
0.5000000059
 40
0.5625053946
 40
0.6250113269
 40
0.6875181798
 40
0.750026052
 40
0.8750031413
 40
1.0
 40
1.0
 40
1.0
 40
1.0
 10
29.5331016247
 20
10.9979591837
 30
0.0
 10
29.7426840094
 20
11.1002789926
 30
0.0
 10
30.1691838908
 20
11.2903596832
 30
0.0
 10
30.7222756909
 20
11.4784570193
 30
0.0
 10
31.1755123509
 20
11.5898078867
 30
0.0
 10
31.5201796264
 20
11.6515116919
 30
0.0
 10
31.8682914734
 20
11.6894268559
 30
0.0
 10
32.2182459695
 20
11.7022253302
 30
0.0
 10
32.5682004644
 20
11.6894268511
 30
0.0
 10
32.9163123021
 20
11.6515116846
 30
0.0
 10
33.2609795697
 20
11.589807879
 30
0.0
 10
33.7142162163
 20
11.4784570111
 30
0.0
 10
34.2673080033
 20
11.2903596783
 30
0.0
 10
34.6938078759
 20
11.1002789911
 30
0.0
 10
34.9033902576
 20
10.9979591837
 30
0.0
  0
SPLINE
  5
2AD
100
AcDbEntity
  8
0
100
AcDbSpline
 62
7
  6
BYLAYER
 70
0
 71
3
 72
11
 73
7
 74
0
 42
0.0000001
 43
0.0000001
 44
0.0000000001
 40
0.0
 40
0.0
 40
0.0
 40
0.0
 40
0.2407589929
 40
0.4952923481
 40
0.7519798538
 40
1.0
 40
1.0
 40
1.0
 40
1.0
 10
38.385737658
 20
34.7883104847
 30
0.0
 10
38.4305886954
 20
34.8033026778
 30
0.0
 10
38.5191389915
 20
34.8469846386
 30
0.0
 10
38.6287672452
 20
34.9494101859
 30
0.0
 10
38.7015340467
 20
35.0826307408
 30
0.0
 10
38.7182821262
 20
35.1825128767
 30
0.0
 10
38.7182858501
 20
35.2312295222
 30
0.0
  0
SPLINE
  5
2AE
100
AcDbEntity
  8
0
100
AcDbSpline
 62
7
  6
BYLAYER
 70
0
 71
3
 72
36
 73
32
 74
0
 42
0.0000001
 43
0.0000001
 44
0.0000000001
 40
0.0
 40
0.0
 40
0.0
 40
0.0
 40
0.1950640095
 40
0.2902827466
 40
0.3827003806
 40
0.4713985193
 40
0.5555619897
 40
0.634401434
 40
0.7071275
 40
0.7729940358
 40
0.8314276924
 40
0.8576915288
 40
0.8818983541
 40
0.9039819112
 40
0.9238759497
 40
0.9415214759
 40
0.9568885043
 40
0.9699543236
 40
0.975617197
 40
0.9806962757
 40
0.9851887429
 40
0.9890917962
 40
0.9924026578
 40
0.9951185965
 40
0.9972369808
 40
0.9980713418
 40
0.9987554753
 40
0.9992892399
 40
0.9996727485
 40
0.9999070223
 40
1.0
 40
1.0
 40
1.0
 40
1.0
 10
41.7356983677
 20
38.2011914102
 30
0.0
 10
41.7368323288
 20
38.4612491691
 30
0.0
 10
41.7383555987
 20
38.8482525232
 30
0.0
 10
41.7400274439
 20
39.3584676967
 30
0.0
 10
41.741063617
 20
39.7268766894
 30
0.0
 10
41.7418798276
 20
40.0805472658
 30
0.0
 10
41.7424710677
 20
40.4161157611
 30
0.0
 10
41.7428332855
 20
40.7303905311
 30
0.0
 10
41.7429631632
 20
41.020271932
 30
0.0
 10
41.7428565206
 20
41.2829482551
 30
0.0
 10
41.7425666905
 20
41.4836807539
 30
0.0
 10
41.7422046396
 20
41.628872051
 30
0.0
 10
41.7418860768
 20
41.7256011555
 30
0.0
 10
41.7415117579
 20
41.8138377505
 30
0.0
 10
41.741082522
 20
41.8933264321
 30
0.0
 10
41.7405990892
 20
41.9638601207
 30
0.0
 10
41.7400636655
 20
42.0252897267
 30
0.0
 10
41.7395561172
 20
42.0707435385
 30
0.0
 10
41.7391141627
 20
42.1024811204
 30
0.0
 10
41.7387867622
 20
42.1227890763
 30
0.0
 10
41.7384479872
 20
42.1407503784
 30
0.0
 10
41.7380982723
 20
42.1563532895
 30
0.0
 10
41.7377388294
 20
42.1695876292
 30
0.0
 10
41.7373702315
 20
42.1804389508
 30
0.0
 10
41.7370379357
 20
42.1879933301
 30
0.0
 10
41.7367545864
 20
42.1928279243
 30
0.0
 10
41.7365567674
 20
42.1955694344
 30
0.0
 10
41.7363624871
 20
42.1976634045
 30
0.0
 10
41.7361633482
 20
42.1992603617
 30
0.0
 10
41.7359911637
 20
42.2000579223
 30
0.0
 10
41.7358225455
 20
42.200622273
 30
0.0
 10
41.7356985878
 20
42.2006226405
 30
0.0
  0
SPLINE
  5
2AF
100
AcDbEntity
  8
0
100
AcDbSpline
 62
7
  6
BYLAYER
 70
0
 71
3
 72
29
 73
25
 74
0
 42
0.0000001
 43
0.0000001
 44
0.0000000001
 40
0.0
 40
0.0
 40
0.0
 40
0.0
 40
0.000317389
 40
0.0012333174
 40
0.002751138
 40
0.0048689579
 40
0.0075842806
 40
0.0108944443
 40
0.0192883539
 40
0.030028615
 40
0.0430929655
 40
0.0584590795
 40
0.0761046011
 40
0.095999792
 40
0.1180854426
 40
0.1685617984
 40
0.2270009947
 40
0.2928703211
 40
0.3655945092
 40
0.4444281231
 40
0.5285831839
 40
0.6172717086
 40
0.8048971133
 40
1.0
 40
1.0
 40
1.0
 40
1.0
 10
38.9130105478
 20
61.4726296796
 30
0.0
 10
38.9129047872
 20
61.4726271929
 30
0.0
 10
38.9129654321
 20
61.4719968712
 30
0.0
 10
38.9127840691
 20
61.4712928513
 30
0.0
 10
38.9127761356
 20
61.4696584374
 30
0.0
 10
38.9126770247
 20
61.4675950658
 30
0.0
 10
38.9126189745
 20
61.4648614606
 30
0.0
 10
38.9125179358
 20
61.4600658193
 30
0.0
 10
38.9124162482
 20
61.4525792723
 30
0.0
 10
38.9123076895
 20
61.4418503356
 30
0.0
 10
38.9122143799
 20
61.4287935822
 30
0.0
 10
38.9121339858
 20
61.4134364078
 30
0.0
 10
38.9120681905
 20
61.3958018985
 30
0.0
 10
38.9120170572
 20
61.3759277719
 30
0.0
 10
38.9119664384
 20
61.3451106382
 30
0.0
 10
38.9119457322
 20
61.301446273
 30
0.0
 10
38.9119799802
 20
61.2431882535
 30
0.0
 10
38.9120733726
 20
61.17751481
 30
0.0
 10
38.9122257824
 20
61.1050437427
 30
0.0
 10
38.9124352847
 20
61.0264779284
 30
0.0
 10
38.9126998112
 20
60.9425911361
 30
0.0
 10
38.9131312502
 20
60.8224430159
 30
0.0
 10
38.9137913762
 20
60.6653151762
 30
0.0
 10
38.9144152662
 20
60.5377484915
 30
0.0
 10
38.9147554222
 20
60.4727191117
 30
0.0
  0
SPLINE
  5
2B0
100
AcDbEntity
  8
0
100
AcDbSpline
 62
7
  6
BYLAYER
 70
0
 71
3
 72
36
 73
32
 74
0
 42
0.0000001
 43
0.0000001
 44
0.0000000001
 40
0.0
 40
0.0
 40
0.0
 40
0.0
 40
0.0000929805
 40
0.000327257
 40
0.0007107675
 40
0.0012445336
 40
0.0019286678
 40
0.002763029
 40
0.0048814123
 40
0.0075973481
 40
0.0109082053
 40
0.0148112529
 40
0.0193037133
 40
0.0243827844
 40
0.0300456497
 40
0.0431114522
 40
0.0584784647
 40
0.076123978
 40
0.096018008
 40
0.1181015601
 40
0.1423083822
 40
0.1685722161
 40
0.2270058625
 40
0.2928723716
 40
0.3655983898
 40
0.4444377913
 40
0.5286012584
 40
0.6172994671
 40
0.7097172545
 40
0.8049361418
 40
1.0
 40
1.0
 40
1.0
 40
1.0
 10
41.7356986463
 20
54.0952957822
 30
0.0
 10
41.7358226078
 20
54.0952961582
 30
0.0
 10
41.7359912169
 20
54.0958605086
 30
0.0
 10
41.7361634114
 20
54.0966580874
 30
0.0
 10
41.7363625463
 20
54.0982550473
 30
0.0
 10
41.7365568294
 20
54.1003490253
 30
0.0
 10
41.7367546481
 20
54.1030905375
 30
0.0
 10
41.7370379983
 20
54.107925132
 30
0.0
 10
41.7373702943
 20
54.1154795058
 30
0.0
 10
41.7377388927
 20
54.1263308161
 30
0.0
 10
41.7380983355
 20
54.139565138
 30
0.0
 10
41.7384480503
 20
54.1551680261
 30
0.0
 10
41.738786825
 20
54.173129301
 30
0.0
 10
41.739114225
 20
54.1934372263
 30
0.0
 10
41.7395561786
 20
54.2251747639
 30
0.0
 10
41.7400637258
 20
54.27062852
 30
0.0
 10
41.7405991479
 20
54.3320580634
 30
0.0
 10
41.7410825795
 20
54.4025917002
 30
0.0
 10
41.7415118145
 20
54.4820803442
 30
0.0
 10
41.741886133
 20
54.5703169147
 30
0.0
 10
41.7422046956
 20
54.6670460022
 30
0.0
 10
41.7425667469
 20
54.8122372741
 30
0.0
 10
41.7428565779
 20
55.0129697145
 30
0.0
 10
41.742963222
 20
55.2756459172
 30
0.0
 10
41.7428333458
 20
55.5655271534
 30
0.0
 10
41.7424711288
 20
55.8798017891
 30
0.0
 10
41.7418798888
 20
56.2153703067
 30
0.0
 10
41.7410636771
 20
56.5690411663
 30
0.0
 10
41.7400275019
 20
56.9374506465
 30
0.0
 10
41.7383556559
 20
57.4476660085
 30
0.0
 10
41.7368323873
 20
57.8346693501
 30
0.0
 10
41.735698427
 20
58.0947268999
 30
0.0
  0
SPLINE
  5
2B1
100
AcDbEntity
  8
0
100
AcDbSpline
 62
7
  6
BYLAYER
 70
0
 71
3
 72
16
 73
12
 74
0
 42
0.0000001
 43
0.0000001
 44
0.0000000001
 40
0.0
 40
0.0
 40
0.0
 40
0.0
 40
0.2759397965
 40
0.4087277844
 40
0.5359323451
 40
0.6572552668
 40
0.7735686427
 40
0.8301519582
 40
0.885881728
 40
0.9416641469
 40
1.0
 40
1.0
 40
1.0
 40
1.0
 10
38.9130105644
 20
43.1510595317
 30
0.0
 10
38.8967715922
 20
43.051165262
 30
0.0
 10
38.8708791261
 20
42.9035010961
 30
0.0
 10
38.8355722886
 20
42.710135111
 30
0.0
 10
38.8085946614
 20
42.5729012797
 30
0.0
 10
38.7807302871
 20
42.4420195847
 30
0.0
 10
38.7571856878
 20
42.3367068967
 30
0.0
 10
38.740383985
 20
42.2545506885
 30
0.0
 10
38.7292784305
 20
42.1939015962
 30
0.0
 10
38.7204983157
 20
42.1321937367
 30
0.0
 10
38.7182463965
 20
42.0903121085
 30
0.0
 10
38.718246386
 20
42.0689164494
 30
0.0
  0
SPLINE
  5
2B2
100
AcDbEntity
  8
0
100
AcDbSpline
 62
7
  6
BYLAYER
 70
0
 71
3
 72
17
 73
13
 74
0
 42
0.0000001
 43
0.0000001
 44
0.0000000001
 40
0.0
 40
0.0
 40
0.0
 40
0.0
 40
0.1249616987
 40
0.1876737729
 40
0.2502719679
 40
0.3752501415
 40
0.5002702371
 40
0.6252409745
 40
0.7501672766
 40
0.8126657661
 40
0.8751401663
 40
1.0
 40
1.0
 40
1.0
 40
1.0
 10
38.2313355642
 20
42.068924024
 30
0.0
 10
38.2303009868
 20
42.1240263891
 30
0.0
 10
38.23884836
 20
42.2071536083
 30
0.0
 10
38.2646237925
 20
42.3145204217
 30
0.0
 10
38.2987047274
 20
42.4196319119
 30
0.0
 10
38.3561343739
 20
42.5455558898
 30
0.0
 10
38.4451378177
 20
42.6854607749
 30
0.0
 10
38.5497408708
 20
42.8139094863
 30
0.0
 10
38.6460123812
 20
42.9126197373
 30
0.0
 10
38.7257286666
 20
42.9887292979
 30
0.0
 10
38.806910545
 20
43.0632339534
 30
0.0
 10
38.8698986907
 20
43.1167950109
 30
0.0
 10
38.9130104131
 20
43.1510553452
 30
0.0
  0
SPLINE
  5
2B3
100
AcDbEntity
  8
0
100
AcDbSpline
 62
7
  6
BYLAYER
 70
0
 71
3
 72
20
 73
16
 74
0
 42
0.0000001
 43
0.0000001
 44
0.0000000001
 40
0.0
 40
0.0
 40
0.0
 40
0.0
 40
0.0236514679
 40
0.0509477857
 40
0.0837129655
 40
0.1228953892
 40
0.1689379286
 40
0.221933593
 40
0.3480747616
 40
0.4968948828
 40
0.6608442808
 40
0.7469655487
 40
0.8353314628
 40
0.9225951921
 40
1.0
 40
1.0
 40
1.0
 40
1.0
 10
38.9130105644
 20
61.47262968
 30
0.0
 10
38.9087821067
 20
61.472736025
 30
0.0
 10
38.8995833886
 20
61.4709776926
 30
0.0
 10
38.8864606245
 20
61.4634185149
 30
0.0
 10
38.8733588416
 20
61.4512952205
 30
0.0
 10
38.8602828821
 20
61.4346569542
 30
0.0
 10
38.8472367898
 20
61.4136213298
 30
0.0
 10
38.8286281598
 20
61.3778801845
 30
0.0
 10
38.8057381826
 20
61.3238035851
 30
0.0
 10
38.7788298595
 20
61.2500644545
 30
0.0
 10
38.7564267885
 20
61.1823035163
 30
0.0
 10
38.7401313927
 20
61.1240013723
 30
0.0
 10
38.7293349838
 20
61.0784307347
 30
0.0
 10
38.7211330538
 20
61.0339229087
 30
0.0
 10
38.7182463981
 20
61.0045026547
 30
0.0
 10
38.718246386
 20
60.9906596892
 30
0.0
  0
SPLINE
  5
2B4
100
AcDbEntity
  8
0
100
AcDbSpline
 62
7
  6
BYLAYER
 70
0
 71
3
 72
14
 73
10
 74
0
 42
0.0000001
 43
0.0000001
 44
0.0000000001
 40
0.0
 40
0.0
 40
0.0
 40
0.0
 40
0.0759048398
 40
0.1625181255
 40
0.2623895325
 40
0.3782764199
 40
0.5121746549
 40
0.6628167717
 40
1.0
 40
1.0
 40
1.0
 40
1.0
 10
38.7182513902
 20
54.2270551124
 30
0.0
 10
38.7182519405
 20
54.1992158062
 30
0.0
 10
38.7230025801
 20
54.1396187387
 30
0.0
 10
38.7392221708
 20
54.0447231093
 30
0.0
 10
38.7624305412
 20
53.936266691
 30
0.0
 10
38.7901435992
 20
53.8110572938
 30
0.0
 10
38.8198019203
 20
53.6672127987
 30
0.0
 10
38.8626252074
 20
53.4432339617
 30
0.0
 10
38.892256251
 20
53.2667730076
 30
0.0
 10
38.9129379324
 20
53.1448473296
 30
0.0
  0
SPLINE
  5
2B5
100
AcDbEntity
  8
0
100
AcDbSpline
 62
7
  6
BYLAYER
 70
0
 71
3
 72
27
 73
23
 74
0
 42
0.0000001
 43
0.0000001
 44
0.0000000001
 40
0.0
 40
0.0
 40
0.0
 40
0.0
 40
0.00044268
 40
0.0014065834
 40
0.002951011
 40
0.0050857838
 40
0.0111323977
 40
0.0195447235
 40
0.0303111764
 40
0.0434164091
 40
0.0588272938
 40
0.076499365
 40
0.1184473491
 40
0.1688896647
 40
0.2273331302
 40
0.2932057436
 40
0.3659022339
 40
0.444690275
 40
0.528805316
 40
0.6174584609
 40
0.8050555729
 40
1.0
 40
1.0
 40
1.0
 40
1.0
 10
38.2313344602
 20
34.805417448
 30
0.0
 10
38.231481985
 20
34.8054206245
 30
0.0
 10
38.2317803565
 20
34.8059197719
 30
0.0
 10
38.2320089482
 20
34.8067989832
 30
0.0
 10
38.2323140836
 20
34.8083579886
 30
0.0
 10
38.2327250073
 20
34.8115512901
 30
0.0
 10
38.2332012193
 20
34.8170806438
 30
0.0
 10
38.2336988966
 20
34.8254664112
 30
0.0
 10
38.234170628
 20
34.8362208508
 30
0.0
 10
38.2346073169
 20
34.8493066608
 30
0.0
 10
38.2350077858
 20
34.8646979025
 30
0.0
 10
38.2355198675
 20
34.889702725
 30
0.0
 10
38.2360279246
 20
34.9263868582
 30
0.0
 10
38.2364483553
 20
34.9766627693
 30
0.0
 10
38.2366998781
 20
35.0349147622
 30
0.0
 10
38.2367792512
 20
35.1005851868
 30
0.0
 10
38.2366825702
 20
35.1730370638
 30
0.0
 10
38.23641179
 20
35.251569287
 30
0.0
 10
38.235968347
 20
35.3354196464
 30
0.0
 10
38.2351353273
 20
35.4555377278
 30
0.0
 10
38.2336910291
 20
35.6125950992
 30
0.0
 10
38.2321856469
 20
35.7400993266
 30
0.0
 10
38.2313344153
 20
35.8050747718
 30
0.0
  0
SPLINE
  5
2B6
100
AcDbEntity
  8
0
100
AcDbSpline
 62
7
  6
BYLAYER
 70
0
 71
3
 72
29
 73
25
 74
0
 42
0.0000001
 43
0.0000001
 44
0.0000000001
 40
0.0
 40
0.0
 40
0.0
 40
0.0
 40
0.0003306407
 40
0.001250454
 40
0.0027700153
 40
0.0048885586
 40
0.0076039688
 40
0.0109137593
 40
0.0193058738
 40
0.0300432605
 40
0.0431038491
 40
0.058465425
 40
0.076105707
 40
0.0959950361
 40
0.1180743626
 40
0.1685373653
 40
0.2269633758
 40
0.2928209729
 40
0.3655361641
 40
0.4443647813
 40
0.5285201006
 40
0.6172153888
 40
0.8048712381
 40
1.0
 40
1.0
 40
1.0
 40
1.0
 10
38.9147553708
 20
54.1445069023
 30
0.0
 10
38.9146451944
 20
54.1445059203
 30
0.0
 10
38.9146194172
 20
54.1438934144
 30
0.0
 10
38.914451807
 20
54.1431654413
 30
0.0
 10
38.9143714119
 20
54.1415445411
 30
0.0
 10
38.9142406662
 20
54.139477073
 30
0.0
 10
38.914131221
 20
54.1367477091
 30
0.0
 10
38.9139636521
 20
54.1319546974
 30
0.0
 10
38.9137751967
 20
54.1244738939
 30
0.0
 10
38.9135669163
 20
54.1137514544
 30
0.0
 10
38.9133694539
 20
54.1007027454
 30
0.0
 10
38.913182005
 20
54.0853545856
 30
0.0
 10
38.9130062876
 20
54.0677301949
 30
0.0
 10
38.912842862
 20
54.0478671487
 30
0.0
 10
38.9126324203
 20
54.0170664495
 30
0.0
 10
38.9124107911
 20
53.9734238467
 30
0.0
 10
38.9122079125
 20
53.9151926189
 30
0.0
 10
38.9120614148
 20
53.8495460141
 30
0.0
 10
38.9119738107
 20
53.7771004541
 30
0.0
 10
38.91194529
 20
53.6985574203
 30
0.0
 10
38.911976135
 20
53.6146892719
 30
0.0
 10
38.9120992385
 20
53.4945562151
 30
0.0
 10
38.9124042069
 20
53.3374432073
 30
0.0
 10
38.9127837969
 20
53.2098867898
 30
0.0
 10
38.9130104964
 20
53.1448635909
 30
0.0
  0
SPLINE
  5
2B7
100
AcDbEntity
  8
0
100
AcDbSpline
 62
7
  6
BYLAYER
 70
0
 71
3
 72
17
 73
13
 74
0
 42
0.0000001
 43
0.0000001
 44
0.0000000001
 40
0.0
 40
0.0
 40
0.0
 40
0.0
 40
0.1249547237
 40
0.1876706608
 40
0.2502667942
 40
0.3752309067
 40
0.5002576884
 40
0.6252300539
 40
0.7501631169
 40
0.8126630184
 40
0.8751379991
 40
1.0
 40
1.0
 40
1.0
 40
1.0
 10
38.2313355642
 20
54.2269943456
 30
0.0
 10
38.2301536293
 20
54.1718980026
 30
0.0
 10
38.2388060854
 20
54.0887555846
 30
0.0
 10
38.2646595255
 20
53.9814186553
 30
0.0
 10
38.2987097655
 20
53.8763035542
 30
0.0
 10
38.3560830595
 20
53.7503558873
 30
0.0
 10
38.4451307714
 20
53.6104769639
 30
0.0
 10
38.5497781847
 20
53.482059424
 30
0.0
 10
38.646022965
 20
53.3833194719
 30
0.0
 10
38.7257061605
 20
53.3071692348
 30
0.0
 10
38.8068918814
 20
53.2326653518
 30
0.0
 10
38.8698976101
 20
53.1791234588
 30
0.0
 10
38.9130104945
 20
53.1448630206
 30
0.0
  0
SPLINE
  5
2B8
100
AcDbEntity
  8
0
100
AcDbSpline
 62
7
  6
BYLAYER
 70
0
 71
3
 72
27
 73
23
 74
0
 42
0.0000001
 43
0.0000001
 44
0.0000000001
 40
0.0
 40
0.0
 40
0.0
 40
0.0
 40
0.1949444297
 40
0.3825415459
 40
0.4711946918
 40
0.555309733
 40
0.6340977741
 40
0.7067942653
 40
0.7726668806
 40
0.8311103464
 40
0.8815526585
 40
0.9235006368
 40
0.9411727075
 40
0.9565835952
 40
0.969688836
 40
0.980455301
 40
0.988867638
 40
0.994914257
 40
0.997049028
 40
0.9985934497
 40
0.9995573414
 40
1.0
 40
1.0
 40
1.0
 40
1.0
 10
38.2313344602
 20
60.4908435944
 30
0.0
 10
38.2321857829
 20
60.5558190388
 30
0.0
 10
38.2336910913
 20
60.6833232688
 30
0.0
 10
38.2351353225
 20
60.8403806423
 30
0.0
 10
38.2359683611
 20
60.9604987246
 30
0.0
 10
38.2364118074
 20
61.0443490837
 30
0.0
 10
38.236682581
 20
61.1228813068
 30
0.0
 10
38.2367792515
 20
61.1953331843
 30
0.0
 10
38.2366998692
 20
61.2610036095
 30
0.0
 10
38.2364483403
 20
61.3192556015
 30
0.0
 10
38.2360279096
 20
61.3695315093
 30
0.0
 10
38.2355198565
 20
61.4062156391
 30
0.0
 10
38.235007772
 20
61.4312204603
 30
0.0
 10
38.2346072969
 20
61.4466117054
 30
0.0
 10
38.2341705955
 20
61.4596975224
 30
0.0
 10
38.2336988454
 20
61.4704519721
 30
0.0
 10
38.2332011513
 20
61.4788377465
 30
0.0
 10
38.2327249285
 20
61.4843671069
 30
0.0
 10
38.2323140061
 20
61.4875604037
 30
0.0
 10
38.2320088733
 20
61.4891194095
 30
0.0
 10
38.2317802946
 20
61.4899985989
 30
0.0
 10
38.2314819331
 20
61.4904977513
 30
0.0
 10
38.2313344153
 20
61.4905009205
 30
0.0
  0
SPLINE
  5
2B9
100
AcDbEntity
  8
0
100
AcDbSpline
 62
7
  6
BYLAYER
 70
0
 71
3
 72
8
 73
4
 74
0
 42
0.0000001
 43
0.0000001
 44
0.0000000001
 40
0.0
 40
0.0
 40
0.0
 40
0.0
 40
1.0
 40
1.0
 40
1.0
 40
1.0
 10
38.3857388769
 20
34.7883129247
 30
0.0
 10
38.3355503017
 20
34.801206685
 30
0.0
 10
38.2830277719
 20
34.8067942384
 30
0.0
 10
38.2312277
 20
34.8054177617
 30
0.0
  0
SPLINE
  5
2BA
100
AcDbEntity
  8
0
100
AcDbSpline
 62
7
  6
BYLAYER
 70
0
 71
3
 72
13
 73
9
 74
0
 42
0.0000001
 43
0.0000001
 44
0.0000000001
 40
0.0
 40
0.0
 40
0.0
 40
0.0
 40
0.2229545295
 40
0.3463489022
 40
0.4758316454
 40
0.609365144
 40
0.7437889486
 40
1.0
 40
1.0
 40
1.0
 40
1.0
 10
39.8533211086
 20
34.8478906401
 30
0.0
 10
39.8320684702
 20
34.8473342466
 30
0.0
 10
39.7987506326
 20
34.8388876117
 30
0.0
 10
39.7604587637
 20
34.814105422
 30
0.0
 10
39.734006931
 20
34.7880466242
 30
0.0
 10
39.7129792909
 20
34.7562149719
 30
0.0
 10
39.6932397418
 20
34.7100829742
 30
0.0
 10
39.6876488637
 20
34.6723890581
 30
0.0
 10
39.6878224583
 20
34.6479585653
 30
0.0
  0
SPLINE
  5
2BB
100
AcDbEntity
  8
0
100
AcDbSpline
 62
7
  6
BYLAYER
 70
0
 71
3
 72
23
 73
19
 74
0
 42
0.0000001
 43
0.0000001
 44
0.0000000001
 40
0.0
 40
0.0
 40
0.0
 40
0.0
 40
0.194821112
 40
0.3824815075
 40
0.5551750955
 40
0.6339041463
 40
0.7065650272
 40
0.7724614505
 40
0.8309052
 40
0.881339903
 40
0.9233221131
 40
0.9564151336
 40
0.969515315
 40
0.9802888096
 40
0.9887194113
 40
0.9947949565
 40
0.9985177334
 40
1.0
 40
1.0
 40
1.0
 40
1.0
 10
41.7356983454
 20
35.3971253384
 30
0.0
 10
41.7365482412
 20
35.3646592392
 30
0.0
 10
41.7381085632
 20
35.300917452
 30
0.0
 10
41.7400520623
 20
35.2083884447
 30
0.0
 10
41.7413022559
 20
35.1352024961
 30
0.0
 10
41.7420223173
 20
35.0811815977
 30
0.0
 10
41.7424022137
 20
35.0449613319
 30
0.0
 10
41.7426370075
 20
35.012121347
 30
0.0
 10
41.742723759
 20
34.9829863041
 30
0.0
 10
41.7426632912
 20
34.9578361525
 30
0.0
 10
41.7424580404
 20
34.936917357
 30
0.0
 10
41.7421567083
 20
34.9222132349
 30
0.0
 10
41.7418168513
 20
34.9127341017
 30
0.0
 10
41.7415476176
 20
34.9073310185
 30
0.0
 10
41.7412541571
 20
34.9031901201
 30
0.0
 10
41.740927849
 20
34.9000219892
 30
0.0
 10
41.7406188122
 20
34.8984316913
 30
0.0
 10
41.7403076061
 20
34.8973031037
 30
0.0
 10
41.7400605918
 20
34.8972966753
 30
0.0
  0
SPLINE
  5
2BC
100
AcDbEntity
  8
0
100
AcDbSpline
 62
7
  6
BYLAYER
 70
0
 71
3
 72
26
 73
22
 74
0
 42
0.0000001
 43
0.0000001
 44
0.0000000001
 40
0.0
 40
0.0
 40
0.0
 40
0.0
 40
0.0005230975
 40
0.0015244011
 40
0.0052375545
 40
0.0113016283
 40
0.0197232491
 40
0.0304945043
 40
0.0436019351
 40
0.0590133111
 40
0.0766845375
 40
0.11862741
 40
0.1690604553
 40
0.2274911741
 40
0.2933485125
 40
0.3660279634
 40
0.4447977958
 40
0.5288939682
 40
0.617528072
 40
0.8050884351
 40
1.0
 40
1.0
 40
1.0
 40
1.0
 10
41.7444238369
 20
61.3985074364
 30
0.0
 10
41.7445981891
 20
61.3985028765
 30
0.0
 10
41.7449960119
 20
61.3980561599
 30
0.0
 10
41.7455330418
 20
61.3964532515
 30
0.0
 10
41.746183121
 20
61.3928484828
 30
0.0
 10
41.7468031712
 20
61.3868463602
 30
0.0
 10
41.7474043811
 20
61.3784302578
 30
0.0
 10
41.7479364308
 20
61.367679236
 30
0.0
 10
41.7484063625
 20
61.3545851264
 30
0.0
 10
41.748805811
 20
61.339190102
 30
0.0
 10
41.7492707379
 20
61.3141788654
 30
0.0
 10
41.7496278473
 20
61.2774881043
 30
0.0
 10
41.7497497791
 20
61.2272057934
 30
0.0
 10
41.7495769159
 20
61.1689501102
 30
0.0
 10
41.7491097117
 20
61.1032784677
 30
0.0
 10
41.7483483701
 20
61.0308277066
 30
0.0
 10
41.7473017637
 20
60.9522987308
 30
0.0
 10
41.7459786094
 20
60.8684536123
 30
0.0
 10
41.7438196262
 20
60.7483443778
 30
0.0
 10
41.7405215547
 20
60.5913018515
 30
0.0
 10
41.7373999657
 20
60.4638155138
 30
0.0
 10
41.7356993049
 20
60.3988501112
 30
0.0
  0
SPLINE
  5
2BD
100
AcDbEntity
  8
0
100
AcDbSpline
 62
7
  6
BYLAYER
 70
0
 71
3
 72
29
 73
25
 74
0
 42
0.0000001
 43
0.0000001
 44
0.0000000001
 40
0.0
 40
0.0
 40
0.0
 40
0.0
 40
0.1951287457
 40
0.3827845693
 40
0.4714798532
 40
0.5556351741
 40
0.6344637962
 40
0.7071789924
 40
0.7730365931
 40
0.8314626065
 40
0.881925612
 40
0.9040049401
 40
0.923894271
 40
0.9415345552
 40
0.9568961338
 40
0.9699567252
 40
0.980694115
 40
0.9890862326
 40
0.9923960246
 40
0.9951114362
 40
0.997229981
 40
0.9987495437
 40
0.9996693582
 40
1.0
 40
1.0
 40
1.0
 40
1.0
 10
38.9130105478
 20
43.1510547769
 30
0.0
 10
38.9127838483
 20
43.086031583
 30
0.0
 10
38.9124042583
 20
42.9584751787
 30
0.0
 10
38.9120992899
 20
42.8013621853
 30
0.0
 10
38.9119761865
 20
42.6812291372
 30
0.0
 10
38.9119453414
 20
42.5973609876
 30
0.0
 10
38.9119738621
 20
42.5188179495
 30
0.0
 10
38.9120614661
 20
42.4463723846
 30
0.0
 10
38.9122079638
 20
42.3807257755
 30
0.0
 10
38.9124108424
 20
42.3224945443
 30
0.0
 10
38.9126324716
 20
42.2788519388
 30
0.0
 10
38.9128429133
 20
42.2480512373
 30
0.0
 10
38.9130063389
 20
42.2281881892
 30
0.0
 10
38.9131820562
 20
42.2105637961
 30
0.0
 10
38.9133695052
 20
42.1952156336
 30
0.0
 10
38.9135669677
 20
42.1821669218
 30
0.0
 10
38.913775248
 20
42.1714444791
 30
0.0
 10
38.9139637035
 20
42.1639636731
 30
0.0
 10
38.9141312724
 20
42.1591706593
 30
0.0
 10
38.9142407176
 20
42.1564412941
 30
0.0
 10
38.9143714634
 20
42.1543738241
 30
0.0
 10
38.9144518582
 20
42.1527529235
 30
0.0
 10
38.9146194691
 20
42.1520249475
 30
0.0
 10
38.9146452454
 20
42.1514124423
 30
0.0
 10
38.9147554222
 20
42.1514114593
 30
0.0
  0
SPLINE
  5
2BE
100
AcDbEntity
  8
0
100
AcDbSpline
 62
7
  6
BYLAYER
 70
0
 71
3
 72
9
 73
5
 74
0
 42
0.0000001
 43
0.0000001
 44
0.0000000001
 40
0.0
 40
0.0
 40
0.0
 40
0.0
 40
0.2503916939
 40
1.0
 40
1.0
 40
1.0
 40
1.0
 10
39.2768032493
 20
35.3327369036
 30
0.0
 10
39.2459945598
 20
35.3319338966
 30
0.0
 10
39.1231381982
 20
35.3238030152
 30
0.0
 10
39.0015108287
 20
35.2961427683
 30
0.0
 10
38.914777338
 20
35.2646775424
 30
0.0
  0
SPLINE
  5
2BF
100
AcDbEntity
  8
0
100
AcDbSpline
 62
7
  6
BYLAYER
 70
0
 71
3
 72
23
 73
19
 74
0
 42
0.0000001
 43
0.0000001
 44
0.0000000001
 40
0.0
 40
0.0
 40
0.0
 40
0.0
 40
0.0012765853
 40
0.004461063
 40
0.0097513057
 40
0.0172407353
 40
0.0270086
 40
0.0391301592
 40
0.0707281877
 40
0.1124228529
 40
0.1638161843
 40
0.2243129935
 40
0.293317288
 40
0.3700706809
 40
0.4531662871
 40
0.6321069708
 40
0.81795404
 40
1.0
 40
1.0
 40
1.0
 40
1.0
 10
39.2811636543
 20
34.8329121314
 30
0.0
 10
39.2813763944
 20
34.8329175988
 30
0.0
 10
39.2816877415
 20
34.833852414
 30
0.0
 10
39.2819634124
 20
34.8352458713
 30
0.0
 10
39.2822876636
 20
34.8380052351
 30
0.0
 10
39.2825719625
 20
34.8417016797
 30
0.0
 10
39.2828442484
 20
34.846612384
 30
0.0
 10
39.2831966129
 20
34.8555121236
 30
0.0
 10
39.2835203929
 20
34.8697547772
 30
0.0
 10
39.2837461736
 20
34.8905361976
 30
0.0
 10
39.2838256323
 20
34.9161404205
 30
0.0
 10
39.2837496467
 20
34.9462956538
 30
0.0
 10
39.2835101815
 20
34.9806782395
 30
0.0
 10
39.2831033419
 20
35.0188265788
 30
0.0
 10
39.2823363897
 20
35.0752986239
 30
0.0
 10
39.2810458776
 20
35.1499511422
 30
0.0
 10
39.2791062379
 20
35.2410893806
 30
0.0
 10
39.277599509
 20
35.302399779
 30
0.0
 10
39.276805468
 20
35.3327369557
 30
0.0
  0
SPLINE
  5
2C0
100
AcDbEntity
  8
0
100
AcDbSpline
 62
7
  6
BYLAYER
 70
0
 71
3
 72
23
 73
19
 74
0
 42
0.0000001
 43
0.0000001
 44
0.0000000001
 40
0.0
 40
0.0
 40
0.0
 40
0.0
 40
0.1947685243
 40
0.3821942021
 40
0.5548067301
 40
0.6335268844
 40
0.7061642502
 40
0.7719884325
 40
0.8303964039
 40
0.8808190615
 40
0.9227667416
 40
0.9558738196
 40
0.9690040691
 40
0.9798078832
 40
0.9882760242
 40
0.9944096099
 40
0.9982405423
 40
1.0
 40
1.0
 40
1.0
 40
1.0
 10
41.7444238369
 20
53.0954410805
 30
0.0
 10
41.7455572541
 20
53.1604189802
 30
0.0
 10
41.7474583699
 20
53.2879309943
 30
0.0
 10
41.7492480782
 20
53.4730437265
 30
0.0
 10
41.7498045359
 20
53.6194429567
 30
0.0
 10
41.7496078856
 20
53.7275410891
 30
0.0
 10
41.7491688658
 20
53.8000062927
 30
0.0
 10
41.7484370264
 20
53.8656915141
 30
0.0
 10
41.7474245643
 20
53.9239592526
 30
0.0
 10
41.7461464907
 20
53.9742547649
 30
0.0
 10
41.7446173843
 20
54.0160919415
 30
0.0
 10
41.7430691443
 20
54.0454861164
 30
0.0
 10
41.7416455806
 20
54.0644546056
 30
0.0
 10
41.7405914619
 20
54.0752412397
 30
0.0
 10
41.7395584253
 20
54.0835892973
 30
0.0
 10
41.7383684859
 20
54.0897908853
 30
0.0
 10
41.7374756894
 20
54.0932899825
 30
0.0
 10
41.736286288
 20
54.0952790929
 30
0.0
 10
41.7356993049
 20
54.0952893393
 30
0.0
  0
SPLINE
  5
2C1
100
AcDbEntity
  8
0
100
AcDbSpline
 62
7
  6
BYLAYER
 70
0
 71
3
 72
23
 73
19
 74
0
 42
0.0000001
 43
0.0000001
 44
0.0000000001
 40
0.0
 40
0.0
 40
0.0
 40
0.0
 40
0.1428959872
 40
0.2847700897
 40
0.4245528077
 40
0.4928910779
 40
0.5590621044
 40
0.5906932029
 40
0.620701466
 40
0.6726817342
 40
0.6960219162
 40
0.7197210112
 40
0.7448287555
 40
0.7710874188
 40
0.8261857846
 40
0.8834619903
 40
0.941561602
 40
1.0
 40
1.0
 40
1.0
 40
1.0
 10
38.9147554598
 20
35.2646775424
 30
0.0
 10
38.9044657623
 20
35.2515681011
 30
0.0
 10
38.8851522396
 20
35.2245105021
 30
0.0
 10
38.8581206595
 20
35.1830320437
 30
0.0
 10
38.8360233815
 20
35.1487014999
 30
0.0
 10
38.8175088774
 20
35.12260494
 30
0.0
 10
38.805400721
 20
35.1074509659
 30
0.0
 10
38.7948449252
 20
35.0968515814
 30
0.0
 10
38.7846831341
 20
35.0884943823
 30
0.0
 10
38.7726388346
 20
35.0829838974
 30
0.0
 10
38.7609766987
 20
35.0854204581
 30
0.0
 10
38.753876229
 20
35.0902078951
 30
0.0
 10
38.7481126004
 20
35.096869468
 30
0.0
 10
38.7414111103
 20
35.1073537559
 30
0.0
 10
38.734973516
 20
35.1222784969
 30
0.0
 10
38.7292115163
 20
35.1413216876
 30
0.0
 10
38.7247603938
 20
35.1611152228
 30
0.0
 10
38.7226046208
 20
35.1745425567
 30
0.0
 10
38.7216959757
 20
35.1812971531
 30
0.0
  0
SPLINE
  5
2C2
100
AcDbEntity
  8
0
100
AcDbSpline
 62
7
  6
BYLAYER
 70
0
 71
3
 72
9
 73
5
 74
0
 42
0.0000001
 43
0.0000001
 44
0.0000000001
 40
0.0
 40
0.0
 40
0.0
 40
0.0
 40
0.2531076353
 40
1.0
 40
1.0
 40
1.0
 40
1.0
 10
38.7216959757
 20
35.1812971531
 30
0.0
 10
38.721132908
 20
35.185482831
 30
0.0
 10
38.7191740623
 20
35.2020537514
 30
0.0
 10
38.7182455466
 20
35.2187535049
 30
0.0
 10
38.7182459422
 20
35.2312162297
 30
0.0
  0
SPLINE
  5
2C3
100
AcDbEntity
  8
0
100
AcDbSpline
 62
7
  6
BYLAYER
 70
0
 71
3
 72
12
 73
8
 74
0
 42
0.0000001
 43
0.0000001
 44
0.0000000001
 40
0.0
 40
0.0
 40
0.0
 40
0.0
 40
0.0533196979
 40
0.1331566844
 40
0.3684631744
 40
0.6750614694
 40
1.0
 40
1.0
 40
1.0
 40
1.0
 10
39.0727770736
 20
34.8107053909
 30
0.0
 10
39.0703728294
 20
34.8189036832
 30
0.0
 10
39.0639517188
 20
34.8392534773
 30
0.0
 10
39.0454545341
 20
34.8953203998
 30
0.0
 10
39.0129654928
 20
34.9895017858
 30
0.0
 10
38.9667316069
 20
35.1204772686
 30
0.0
 10
38.9324896615
 20
35.2157015567
 30
0.0
 10
38.91475165
 20
35.2646526303
 30
0.0
  0
SPLINE
  5
2C4
100
AcDbEntity
  8
0
100
AcDbSpline
 62
7
  6
BYLAYER
 70
0
 71
3
 72
16
 73
12
 74
0
 42
0.0000001
 43
0.0000001
 44
0.0000000001
 40
0.0
 40
0.0
 40
0.0
 40
0.0
 40
0.1010732515
 40
0.1547471437
 40
0.2107943827
 40
0.3281102705
 40
0.4503543942
 40
0.5778882273
 40
0.7108161875
 40
0.85133307
 40
1.0
 40
1.0
 40
1.0
 40
1.0
 10
38.3857380232
 20
34.7883126164
 30
0.0
 10
38.4086596353
 20
34.7835605855
 30
0.0
 10
38.4435114022
 20
34.7751641849
 30
0.0
 10
38.4914365995
 20
34.765782768
 30
0.0
 10
38.5434734407
 20
34.7581124895
 30
0.0
 10
38.6117700977
 20
34.7523310703
 30
0.0
 10
38.6968937877
 20
34.7519657973
 30
0.0
 10
38.7853129501
 20
34.7593156659
 30
0.0
 10
38.8772606072
 20
34.7726550601
 30
0.0
 10
38.9732695875
 20
34.7911490305
 30
0.0
 10
39.0388360316
 20
34.8048973141
 30
0.0
 10
39.0727747078
 20
34.8107045348
 30
0.0
  0
SPLINE
  5
2C5
100
AcDbEntity
  8
0
100
AcDbSpline
 62
7
  6
BYLAYER
 70
0
 71
3
 72
23
 73
19
 74
0
 42
0.0000001
 43
0.0000001
 44
0.0000000001
 40
0.0
 40
0.0
 40
0.0
 40
0.0
 40
0.1947685242
 40
0.382194202
 40
0.5548067299
 40
0.6335268842
 40
0.7061642499
 40
0.7719884323
 40
0.8303964037
 40
0.8808190611
 40
0.9227667409
 40
0.9558738191
 40
0.9690040689
 40
0.9798078835
 40
0.9882760251
 40
0.9944096109
 40
0.998240543
 40
1.0
 40
1.0
 40
1.0
 40
1.0
 10
41.7444238369
 20
43.2004772868
 30
0.0
 10
41.7455572541
 20
43.1354993871
 30
0.0
 10
41.7474583699
 20
43.0079873731
 30
0.0
 10
41.7492480782
 20
42.8228746408
 30
0.0
 10
41.7498045359
 20
42.6764754107
 30
0.0
 10
41.7496078856
 20
42.5683772782
 30
0.0
 10
41.7491688658
 20
42.4959120746
 30
0.0
 10
41.7484370264
 20
42.4302268532
 30
0.0
 10
41.7474245643
 20
42.3719591147
 30
0.0
 10
41.7461464907
 20
42.3216636026
 30
0.0
 10
41.7446173843
 20
42.279826426
 30
0.0
 10
41.7430691442
 20
42.250432251
 30
0.0
 10
41.7416455806
 20
42.2314637616
 30
0.0
 10
41.7405914619
 20
42.2206771269
 30
0.0
 10
41.7395584255
 20
42.212329069
 30
0.0
 10
41.7383684857
 20
42.2061274806
 30
0.0
 10
41.73747569
 20
42.2026283841
 30
0.0
 10
41.7362862878
 20
42.2006392738
 30
0.0
 10
41.7356993049
 20
42.2006290281
 30
0.0
  0
ENDSEC
  0
SECTION
  2
OBJECTS
  0
DICTIONARY
  5
C
100
AcDbDictionary
280
0
281
1
  3
ACAD_GROUP
350
D
  3
ACAD_MLINESTYLE
350
17
  3
ACAD_LAYOUT
350
1A
  3
ACAD_PLOTSETTINGS
350
19
  3
ACAD_PLOTSTYLENAME
350
E
  0
DICTIONARY
  5
D
102
{ACAD_REACTORS
330
C
102
}
100
AcDbDictionary
280
0
281
1
  0
ACDBDICTIONARYWDFLT
  5
E
102
{ACAD_REACTORS
330
C
102
}
100
AcDbDictionary
281
1
  3
Normal
350
F
100
AcDbDictionaryWithDefault
340
F
  0
DICTIONARY
  5
17
102
{ACAD_REACTORS
330
C
102
}
100
AcDbDictionary
280
0
281
1
  3
Standard
350
18
  0
DICTIONARY
  5
19
102
{ACAD_REACTORS
330
C
102
}
100
AcDbDictionary
281
1
  0
DICTIONARY
  5
1A
102
{ACAD_REACTORS
330
C
102
}
100
AcDbDictionary
281
1
  3
Model
350
2C6
  3
Layout1
350
2C7
  0
ACDBPLACEHOLDER
  5
F
102
{ACAD_REACTORS
330
E
102
}
  0
MLINESTYLE
  5
18
102
{ACAD_REACTORS
330
17
102
}
100
AcDbMlineStyle
  2
STANDARD
 70
0
  3

 62
256
 51
90.0
 52
90.0
 71
2
 49
0.5
 62
256
  6
BYLAYER
 49
-0.5
 62
256
  6
BYLAYER
  0
LAYOUT
  5
2C6
102
{ACAD_REACTORS
330
1A
102
}
100
AcDbPlotSettings
  1

  2
none_device
  4

  6

 40
0.0
 41
0.0
 42
0.0
 43
0.0
 44
210.0
 45
297.0
 46
0.0
 47
0.0
 48
0.0
 49
0.0
140
0.0
141
0.0
142
1.0
143
1.0
 70
1024
 72
1
 73
0
 74
0
  7

 75
0
147
1.0
148
0.0
149
0.0
100
AcDbLayout
  1
Model
 70
0
 71
0
 10
0.0
 20
0.0
 11
210.0
 21
297.0
 12
0.0
 22
0.0
 32
0.0
 14
0.0
 24
0.0
 34
0.0
 15
0.0
 25
0.0
 35
0.0
146
0.0
 13
0.0
 23
0.0
 33
0.0
 16
1.0
 26
0.0
 36
0.0
 17
0.0
 27
1.0
 37
0.0
 76
0
330
210
345
0
346
0
  0
LAYOUT
  5
2C7
102
{ACAD_REACTORS
330
1A
102
}
100
AcDbPlotSettings
  1

  2
none_device
  4

  6

 40
0.0
 41
0.0
 42
0.0
 43
0.0
 44
210.0
 45
297.0
 46
0.0
 47
0.0
 48
0.0
 49
0.0
140
0.0
141
0.0
142
1.0
143
1.0
 70
0
 72
1
 73
0
 74
0
  7

 75
0
147
1.0
148
0.0
149
0.0
100
AcDbLayout
  1
Layout1
 70
0
 71
1
 10
0.0
 20
0.0
 11
210.0
 21
297.0
 12
0.0
 22
0.0
 32
0.0
 14
0.0
 24
0.0
 34
0.0
 15
0.0
 25
0.0
 35
0.0
146
0.0
 13
0.0
 23
0.0
 33
0.0
 16
1.0
 26
0.0
 36
0.0
 17
0.0
 27
1.0
 37
0.0
 76
0
330
211
345
0
346
0
  0
ENDSEC
  0
EOF
