999
DXF file: C:\Users\sesa63760\Dev\_Creo\CAD\MCADID0004740_3D-CAD\drw0001_7.dxf
999
Pro/ENGINEER 2019471 by Parametric Technology Corporation
  0
SECTION
  2
HEADER
  9
$ACADVER
  1
AC1024
  9
$DWGCODEPAGE
  3
ANSI_1252
  9
$EXTMAX
 10
20.2250071834
 20
28.6039387309
 30
0.0
  9
$EXTMIN
 10
0.0
 20
0.0
 30
0.0
  9
$LIMMIN
 10
0.0
 20
0.0
  9
$LIMMAX
 10
20.2250071834
 20
28.6039387309
  9
$VIEWCTR
 10
10.1125035917
 20
14.3019693654
  9
$VIEWSIZE
 40
28.6039387309
  9
$CLAYER
  8
0
  9
$LTSCALE
 40
1.8645530432
  9
$CELTYPE
  6
BYLAYER
  9
$DIMSCALE
 40
1.0
  9
$DIMASZ
 40
0.240773895
  9
$DIMEXO
 40
1.0
  9
$DIMDLI
 40
1.288236648
  9
$DIMEXE
 40
1.0
  9
$DIMCEN
 40
0.3051086798
  9
$DIMLFAC
 40
1.0
  9
$DIMBLK
  1
_FILLED
  9
$DIMALT
 70
0
  9
$DIMALTF
 40
0.0393700787
  9
$DIMTXT
 40
0.3370834531
  9
$DIMTOL
 70
1
  9
$DIMLIM
 70
0
  9
$DIMTFAC
 40
1.0
  9
$DIMTP
 40
0.01
  9
$DIMTM
 40
0.01
  9
$DIMGAP
 40
0.625
  9
$DIMDSEP
 70
46
  9
$AUNITS
 70
0
  9
$PDMODE
 70
3
  9
$PDSIZE
 40
0.3125
  9
$HANDSEED
  5
353
  9
$TILEMODE
 70
1
  9
$MEASUREMENT
 70
1
  9
$INSUNITS
 70
4
  0
ENDSEC
  0
SECTION
  2
CLASSES
  0
CLASS
  1
ACDBDICTIONARYWDFLT
  2
AcDbDictionaryWithDefault
  3
AutoCAD 2000
 90
0
 91
1
280
0
281
0
  0
CLASS
  1
ACDBPLACEHOLDER
  2
AcDbPlaceHolder
  3
AutoCAD 2000
 90
0
 91
1
280
0
281
0
  0
CLASS
  1
LAYOUT
  2
AcDbLayout
  3
AutoCAD 2000
 90
0
 91
0
280
0
281
0
  0
ENDSEC
  0
SECTION
  2
TABLES
  0
TABLE
  2
VPORT
  5
8
100
AcDbSymbolTable
 70
2
  0
VPORT
  5
1F4
100
AcDbSymbolTableRecord
100
AcDbViewportTableRecord
  2
*ACTIVE
 70
0
 10
0.0
 20
0.0
 11
1.0
 21
1.0
 12
10.1125035917
 22
14.3019693654
 13
0.0
 23
0.0
 14
1.0
 24
1.0
 15
0.0
 25
0.0
 16
0.0
 26
0.0
 36
1.0
 17
0.0
 27
0.0
 37
0.0
 40
28.6039387309
 41
0.7070707071
 42
50.0
 43
0.0
 44
0.0
 50
0.0
 51
0.0
 71
0
 72
100
 73
1
 74
1
 75
0
 76
0
 77
0
 78
0
  0
ENDTAB
  0
TABLE
  2
LTYPE
  5
5
100
AcDbSymbolTable
 70
6
  0
LTYPE
  5
14
100
AcDbSymbolTableRecord
100
AcDbLinetypeTableRecord
  2
BYBLOCK
 70
0
  3

 72
65
 73
0
 40
0.0
  0
LTYPE
  5
15
100
AcDbSymbolTableRecord
100
AcDbLinetypeTableRecord
  2
BYLAYER
 70
0
  3

 72
65
 73
0
 40
0.0
  0
LTYPE
  5
16
100
AcDbSymbolTableRecord
100
AcDbLinetypeTableRecord
  2
CONTINUOUS
 70
64
  3
Solid line
 72
65
 73
0
 40
0.0
  0
LTYPE
  5
1F5
100
AcDbSymbolTableRecord
100
AcDbLinetypeTableRecord
  2
CENTER
 70
64
  3
____ _ ____ _ ____ _ ____ _ ____ _ ____ _ ____
 72
65
 73
4
 40
0.6
 49
0.375
 74
0
 49
-0.075
 74
0
 49
0.075
 74
0
 49
-0.075
 74
0
  0
LTYPE
  5
1F6
100
AcDbSymbolTableRecord
100
AcDbLinetypeTableRecord
  2
HIDDEN
 70
64
  3
- - - - - - - - - - - - - - - - - - - -
 72
65
 73
2
 40
0.2
 49
0.1
 74
0
 49
-0.1
 74
0
  0
LTYPE
  5
1F7
100
AcDbSymbolTableRecord
100
AcDbLinetypeTableRecord
  2
PHANTOM
 70
64
  3
_____ _ _ _____ _ _ _____ _ _ _____
 72
65
 73
6
 40
0.8
 49
0.45
 74
0
 49
-0.05
 74
0
 49
0.1
 74
0
 49
-0.05
 74
0
 49
0.1
 74
0
 49
-0.05
 74
0
  0
LTYPE
  5
1F8
100
AcDbSymbolTableRecord
100
AcDbLinetypeTableRecord
  2
DOT
 70
64
  3
. . . . . . . . . . . . . . . . . . . .
 72
65
 73
2
 40
0.2
 49
0.1
 74
0
 49
-0.1
 74
0
  0
LTYPE
  5
1F9
100
AcDbSymbolTableRecord
100
AcDbLinetypeTableRecord
  2
DASHED
 70
64
  3
- - - - - - - - - - - - - - - - - - - -
 72
65
 73
2
 40
0.2
 49
0.1
 74
0
 49
-0.1
 74
0
  0
ENDTAB
  0
TABLE
  2
LAYER
  5
2
100
AcDbSymbolTable
 70
36
  0
LAYER
  5
10
100
AcDbSymbolTableRecord
100
AcDbLayerTableRecord
  2
0
 70
0
 62
7
  6
CONTINUOUS
370
-3
390
F
  0
LAYER
  5
1FA
100
AcDbSymbolTableRecord
100
AcDbLayerTableRecord
  2
DEFAULT_1
 70
0
 62
7
  6
CENTER
370
-3
390
F
  0
LAYER
  5
1FB
100
AcDbSymbolTableRecord
100
AcDbLayerTableRecord
  2
DEFAULT_2
 70
0
 62
7
  6
HIDDEN
370
-3
390
F
  0
LAYER
  5
1FC
100
AcDbSymbolTableRecord
100
AcDbLayerTableRecord
  2
DEFAULT_3
 70
0
 62
7
  6
PHANTOM
370
-3
390
F
  0
LAYER
  5
1FD
100
AcDbSymbolTableRecord
100
AcDbLayerTableRecord
  2
00_COMPONENTS
 70
0
 62
7
  6
CONTINUOUS
370
-3
390
F
  0
LAYER
  5
1FE
100
AcDbSymbolTableRecord
100
AcDbLayerTableRecord
  2
01_1_DEFAULT_DATUMS
 70
0
 62
7
  6
CONTINUOUS
370
-3
390
F
  0
LAYER
  5
1FF
100
AcDbSymbolTableRecord
100
AcDbLayerTableRecord
  2
01_PLANES
 70
0
 62
7
  6
CONTINUOUS
370
-3
390
F
  0
LAYER
  5
200
100
AcDbSymbolTableRecord
100
AcDbLayerTableRecord
  2
02_COORD_SYS
 70
0
 62
7
  6
CONTINUOUS
370
-3
390
F
  0
LAYER
  5
201
100
AcDbSymbolTableRecord
100
AcDbLayerTableRecord
  2
03_AXES
 70
0
 62
7
  6
CONTINUOUS
370
-3
390
F
  0
LAYER
  5
202
100
AcDbSymbolTableRecord
100
AcDbLayerTableRecord
  2
04_POINTS
 70
0
 62
7
  6
CONTINUOUS
370
-3
390
F
  0
LAYER
  5
203
100
AcDbSymbolTableRecord
100
AcDbLayerTableRecord
  2
05_CURVES
 70
0
 62
7
  6
CONTINUOUS
370
-3
390
F
  0
LAYER
  5
204
100
AcDbSymbolTableRecord
100
AcDbLayerTableRecord
  2
06_SURFS
 70
0
 62
7
  6
CONTINUOUS
370
-3
390
F
  0
LAYER
  5
205
100
AcDbSymbolTableRecord
100
AcDbLayerTableRecord
  2
07_COSMETICS
 70
0
 62
7
  6
CONTINUOUS
370
-3
390
F
  0
LAYER
  5
206
100
AcDbSymbolTableRecord
100
AcDbLayerTableRecord
  2
10_NOTES
 70
0
 62
7
  6
CONTINUOUS
370
-3
390
F
  0
LAYER
  5
207
100
AcDbSymbolTableRecord
100
AcDbLayerTableRecord
  2
11_NOTES_PUB
 70
0
 62
7
  6
CONTINUOUS
370
-3
390
F
  0
LAYER
  5
208
100
AcDbSymbolTableRecord
100
AcDbLayerTableRecord
  2
13_REF_GTOL
 70
0
 62
7
  6
CONTINUOUS
370
-3
390
F
  0
LAYER
  5
209
100
AcDbSymbolTableRecord
100
AcDbLayerTableRecord
  2
16_MISC
 70
0
 62
7
  6
CONTINUOUS
370
-3
390
F
  0
LAYER
  5
20A
100
AcDbSymbolTableRecord
100
AcDbLayerTableRecord
  2
17_NO_PRINT
 70
0
 62
7
  6
CONTINUOUS
370
-3
390
F
  0
LAYER
  5
20B
100
AcDbSymbolTableRecord
100
AcDbLayerTableRecord
  2
18_DATUM_CAMS_JOINTS
 70
0
 62
7
  6
CONTINUOUS
370
-3
390
F
  0
LAYER
  5
20C
100
AcDbSymbolTableRecord
100
AcDbLayerTableRecord
  2
19_DATUM_FUNCTIONAL
 70
0
 62
7
  6
CONTINUOUS
370
-3
390
F
  0
LAYER
  5
20D
100
AcDbSymbolTableRecord
100
AcDbLayerTableRecord
  2
20_DATUM_KINEMATIC_SCHEME
 70
0
 62
7
  6
CONTINUOUS
370
-3
390
F
  0
ENDTAB
  0
TABLE
  2
STYLE
  5
3
100
AcDbSymbolTable
 70
1
  0
STYLE
  5
11
100
AcDbSymbolTableRecord
100
AcDbTextStyleTableRecord
  2
STANDARD
 70
0
 40
0.0
 41
1.0
 50
0.0
 71
0
 42
0.2
  3
ARIAL.TTF
  4

  0
STYLE
  5
20E
100
AcDbSymbolTableRecord
100
AcDbTextStyleTableRecord
  2
TEXTSTYLE_1
 70
0
 40
0.0
 41
0.8
 50
0.0
 71
0
 42
0.2
  3
gdt
  4

  0
ENDTAB
  0
TABLE
  2
VIEW
  5
6
100
AcDbSymbolTable
 70
0
  0
ENDTAB
  0
TABLE
  2
UCS
  5
7
100
AcDbSymbolTable
 70
0
  0
ENDTAB
  0
TABLE
  2
APPID
  5
9
100
AcDbSymbolTable
 70
1
  0
APPID
  5
20F
100
AcDbSymbolTableRecord
100
AcDbRegAppTableRecord
  2
ACAD
 70
0
  0
ENDTAB
  0
TABLE
  2
BLOCK_RECORD
  5
1
100
AcDbSymbolTable
 70
0
  0
BLOCK_RECORD
  5
210
100
AcDbSymbolTableRecord
100
AcDbBlockTableRecord
  2
*Model_Space
  0
BLOCK_RECORD
  5
211
100
AcDbSymbolTableRecord
100
AcDbBlockTableRecord
  2
*Paper_Space
  0
BLOCK_RECORD
  5
212
100
AcDbSymbolTableRecord
100
AcDbBlockTableRecord
  2
_FILLED
  0
ENDTAB
  0
TABLE
  2
DIMSTYLE
  5
A
100
AcDbSymbolTable
 70
1
100
AcDbDimStyleTable
 71
0
  0
DIMSTYLE
105
213
100
AcDbSymbolTableRecord
100
AcDbDimStyleTableRecord
  2
STANDARD
 70
0
  3

  4

 40
1.0
 41
0.240773895
 42
1.0
 43
0.38
 44
1.0
 45
0.0
 46
0.0
 47
0.01
 48
0.01
140
0.3370834531
141
0.09
142
0.0
143
25.4
144
1.0
145
0.0
146
1.0
147
0.625
 71
1
 72
0
 73
0
 74
0
 75
0
 76
0
 77
1
 78
8
 79
2
170
0
171
1
172
0
173
0
174
0
175
0
176
0
177
0
178
0
270
2
179
2
271
2
272
2
273
2
274
2
275
0
280
0
281
0
282
0
283
1
284
8
285
0
286
0
287
3
288
0
340
11
278
46
341
212
342
212
343
212
344
212
  0
ENDTAB
  0
ENDSEC
  0
SECTION
  2
BLOCKS
  0
BLOCK
  5
20
100
AcDbEntity
  8
0
100
AcDbBlockBegin
  2
*Model_Space
 70
0
 10
0.0
 20
0.0
 30
0.0
  3
*Model_Space
  1

  0
ENDBLK
  5
21
100
AcDbEntity
  8
0
100
AcDbBlockEnd
  0
BLOCK
  5
1C
100
AcDbEntity
  8
0
100
AcDbBlockBegin
  2
*Paper_Space
 70
0
 10
0.0
 20
0.0
 30
0.0
  3
*Paper_Space
  1

  0
ENDBLK
  5
1D
100
AcDbEntity
  8
0
100
AcDbBlockEnd
  0
BLOCK
  5
214
100
AcDbEntity
  8
0
100
AcDbBlockBegin
  2
_FILLED
 70
64
 10
0.0
 20
0.0
  3
_FILLED
  1

  0
SOLID
  5
215
100
AcDbEntity
  8
0
  6
BYBLOCK
 62
0
100
AcDbTrace
 10
0.0
 20
0.0
 11
-1.0
 21
0.25
 12
-1.0
 22
-0.25
 13
-1.0
 23
-0.25
  0
ENDBLK
  5
216
100
AcDbEntity
  8
0
  6
BYBLOCK
 62
0
100
AcDbBlockEnd
  0
ENDSEC
  0
SECTION
  2
ENTITIES
  0
LINE
  5
217
100
AcDbEntity
  8
0
100
AcDbLine
 62
7
  6
BYLAYER
 10
7.1632375185
 20
15.001552104
 11
7.1734273197
 21
14.8374480057
  0
LINE
  5
218
100
AcDbEntity
  8
0
100
AcDbLine
 62
7
  6
BYLAYER
 10
7.2090566744
 20
14.2636465087
 11
7.2208279428
 21
14.0740732897
  0
LINE
  5
219
100
AcDbEntity
  8
0
100
AcDbLine
 62
7
  6
BYLAYER
 10
7.2155581778
 20
14.082678601
 11
7.2311062871
 21
13.8229434421
  0
LINE
  5
21A
100
AcDbEntity
  8
0
100
AcDbLine
 62
7
  6
BYLAYER
 10
7.2026414739
 20
14.2576759393
 11
7.2033732058
 21
14.0024814577
  0
LINE
  5
21B
100
AcDbEntity
  8
0
100
AcDbLine
 62
7
  6
BYLAYER
 10
7.2270206566
 20
14.8317715085
 11
7.2241302687
 21
14.7672484716
  0
LINE
  5
21C
100
AcDbEntity
  8
0
100
AcDbLine
 62
7
  6
BYLAYER
 10
7.1745655034
 20
14.1856462976
 11
7.146018153
 21
13.8964439263
  0
LINE
  5
21D
100
AcDbEntity
  8
0
100
AcDbLine
 62
7
  6
BYLAYER
 10
7.288401685
 20
15.3009208154
 11
7.2667073183
 21
15.1089154343
  0
LINE
  5
21E
100
AcDbEntity
  8
0
100
AcDbLine
 62
7
  6
BYLAYER
 10
7.4402687759
 20
15.7754067479
 11
7.3687335982
 21
15.4417374614
  0
LINE
  5
21F
100
AcDbEntity
  8
0
100
AcDbLine
 62
7
  6
BYLAYER
 10
7.4555646749
 20
15.8037691655
 11
7.1479122012
 21
14.4953232657
  0
LINE
  5
220
100
AcDbEntity
  8
0
100
AcDbLine
 62
7
  6
BYLAYER
 10
7.2395065985
 20
14.8681762294
 11
7.2203399378
 21
14.7942976066
  0
LINE
  5
221
100
AcDbEntity
  8
0
100
AcDbLine
 62
7
  6
BYLAYER
 10
7.5335591157
 20
15.9435234026
 11
7.4684461627
 21
15.7130820996
  0
LINE
  5
222
100
AcDbEntity
  8
0
100
AcDbLine
 62
7
  6
BYLAYER
 10
7.2646749933
 20
14.9919153938
 11
7.1064370562
 21
14.4318953861
  0
LINE
  5
223
100
AcDbEntity
  8
0
100
AcDbLine
 62
7
  6
BYLAYER
 10
7.3178061237
 20
15.1799518189
 11
7.1394976568
 21
14.6608992541
  0
LINE
  5
224
100
AcDbEntity
  8
0
100
AcDbLine
 62
7
  6
BYLAYER
 10
7.5438763152
 20
15.8033603351
 11
7.4784664452
 21
15.6340920423
  0
LINE
  5
225
100
AcDbEntity
  8
0
100
AcDbLine
 62
7
  6
BYLAYER
 10
7.2241115548
 20
15.0060161687
 11
7.1223104338
 21
14.7600935766
  0
LINE
  5
226
100
AcDbEntity
  8
0
100
AcDbLine
 62
7
  6
BYLAYER
 10
7.7478582148
 20
16.1495417951
 11
7.6371805524
 21
15.9286772402
  0
LINE
  5
227
100
AcDbEntity
  8
0
100
AcDbLine
 62
7
  6
BYLAYER
 10
7.3041682169
 20
15.2722726178
 11
7.1632375185
 21
15.001552104
  0
LINE
  5
228
100
AcDbEntity
  8
0
100
AcDbLine
 62
7
  6
BYLAYER
 10
7.3692325686
 20
15.4365987371
 11
7.3358756871
 21
15.3777269073
  0
LINE
  5
229
100
AcDbEntity
  8
0
100
AcDbLine
 62
7
  6
BYLAYER
 10
7.6182208094
 20
15.875551252
 11
7.4364427949
 21
15.5998189552
  0
LINE
  5
22A
100
AcDbEntity
  8
0
100
AcDbLine
 62
7
  6
BYLAYER
 10
7.9082007059
 20
16.2853926845
 11
7.7140846453
 21
16.0209635326
  0
LINE
  5
22B
100
AcDbEntity
  8
0
100
AcDbLine
 62
7
  6
BYLAYER
 10
7.4518683826
 20
15.7880488352
 11
7.4402687759
 21
15.7754067479
  0
LINE
  5
22C
100
AcDbEntity
  8
0
100
AcDbLine
 62
7
  6
BYLAYER
 10
7.6415259567
 20
16.0058955825
 11
7.4555646749
 21
15.8037691655
  0
LINE
  5
22D
100
AcDbEntity
  8
0
100
AcDbLine
 62
7
  6
BYLAYER
 10
7.6982364751
 20
16.1018374833
 11
7.5335591157
 21
15.9435234026
  0
LINE
  5
22E
100
AcDbEntity
  8
0
100
AcDbLine
 62
7
  6
BYLAYER
 10
7.736249728
 20
16.1661476649
 11
7.6857721467
 21
16.1212570265
  0
LINE
  5
22F
100
AcDbEntity
  8
0
100
AcDbLine
 62
7
  6
BYLAYER
 10
10.1317037829
 20
11.3233849762
 11
11.672209797
 21
11.7339300046
  0
LINE
  5
230
100
AcDbEntity
  8
0
100
AcDbLine
 62
7
  6
BYLAYER
 10
10.125635289
 20
11.3438594126
 11
10.2331901517
 21
11.368828076
  0
LWPOLYLINE
  5
231
100
AcDbEntity
  8
0
100
AcDbPolyline
 62
7
  6
BYLAYER
 90
3
 70
0
 10
10.8828456988
 20
11.5205154932
 10
11.5434837126
 20
11.6609685056
 10
11.6032866418
 20
11.7155619759
  0
LINE
  5
232
100
AcDbEntity
  8
0
100
AcDbLine
 62
7
  6
BYLAYER
 10
10.6975695642
 20
11.4811254026
 11
10.9095422428
 21
11.5171846975
  0
LINE
  5
233
100
AcDbEntity
  8
0
100
AcDbLine
 62
7
  6
BYLAYER
 10
9.7660508245
 20
11.3461175295
 11
9.9870645953
 21
11.3779933468
  0
LINE
  5
234
100
AcDbEntity
  8
0
100
AcDbLine
 62
7
  6
BYLAYER
 10
9.9001222802
 20
11.3994097313
 11
10.5502636944
 21
11.4592210075
  0
LINE
  5
235
100
AcDbEntity
  8
0
100
AcDbLine
 62
7
  6
BYLAYER
 10
10.4072516929
 20
11.4404134596
 11
10.604571822
 21
11.4550436472
  0
LINE
  5
236
100
AcDbEntity
  8
0
100
AcDbLine
 62
7
  6
BYLAYER
 10
9.7965218431
 20
11.4249294888
 11
10.2146296819
 21
11.4283435735
  0
LINE
  5
237
100
AcDbEntity
  8
0
100
AcDbLine
 62
7
  6
BYLAYER
 10
9.5190361189
 20
11.4468955317
 11
9.5693574727
 21
11.445540828
  0
LINE
  5
238
100
AcDbEntity
  8
0
100
AcDbLine
 62
7
  6
BYLAYER
 10
10.6316468808
 20
11.4027738097
 11
10.8097918851
 21
11.3948654591
  0
LINE
  5
239
100
AcDbEntity
  8
0
100
AcDbLine
 62
7
  6
BYLAYER
 10
10.1451349268
 20
11.4219502413
 11
10.2376308451
 21
11.4141313846
  0
LINE
  5
23A
100
AcDbEntity
  8
0
100
AcDbLine
 62
7
  6
BYLAYER
 10
9.0467110232
 20
11.5275730482
 11
9.3460984191
 21
11.4963791103
  0
LINE
  5
23B
100
AcDbEntity
  8
0
100
AcDbLine
 62
7
  6
BYLAYER
 10
9.2340721915
 20
11.5631562022
 11
9.6298094384
 21
11.4668185341
  0
LINE
  5
23C
100
AcDbEntity
  8
0
100
AcDbLine
 62
7
  6
BYLAYER
 10
8.5917348485
 20
11.7489734219
 11
10.1317037829
 21
11.3233849762
  0
LWPOLYLINE
  5
23D
100
AcDbEntity
  8
0
100
AcDbPolyline
 62
7
  6
BYLAYER
 90
3
 70
0
 10
8.5753037009
 20
11.7970328708
 10
9.9836500672
 20
11.3293446364
 10
10.0551414922
 20
11.3445438617
  0
LINE
  5
23E
100
AcDbEntity
  8
0
100
AcDbLine
 62
7
  6
BYLAYER
 10
8.5480714153
 20
11.823175427
 11
8.742581731
 21
11.7512525563
  0
LINE
  5
23F
100
AcDbEntity
  8
0
100
AcDbLine
 62
7
  6
BYLAYER
 10
9.2320879724
 20
11.5639657314
 11
9.7660508245
 21
11.3461175295
  0
LINE
  5
240
100
AcDbEntity
  8
0
100
AcDbLine
 62
7
  6
BYLAYER
 10
8.156009106
 20
12.0619467477
 11
8.3289577968
 21
11.9797561244
  0
LINE
  5
241
100
AcDbEntity
  8
0
100
AcDbLine
 62
7
  6
BYLAYER
 10
8.243511638
 20
12.0274428878
 11
8.4296209791
 21
11.9368859409
  0
LINE
  5
242
100
AcDbEntity
  8
0
100
AcDbLine
 62
7
  6
BYLAYER
 10
8.9756108973
 20
11.6640975572
 11
9.0369608959
 21
11.6309395531
  0
LINE
  5
243
100
AcDbEntity
  8
0
100
AcDbLine
 62
7
  6
BYLAYER
 10
8.2833504556
 20
12.0773032912
 11
8.7313724773
 21
11.7885160909
  0
LINE
  5
244
100
AcDbEntity
  8
0
100
AcDbLine
 62
7
  6
BYLAYER
 10
8.100818332
 20
12.2102233365
 11
8.1661301868
 21
12.1645355683
  0
LINE
  5
245
100
AcDbEntity
  8
0
100
AcDbLine
 62
7
  6
BYLAYER
 10
8.8789568667
 20
11.6509520458
 11
9.0467110232
 21
11.5275730482
  0
LINE
  5
246
100
AcDbEntity
  8
0
100
AcDbLine
 62
7
  6
BYLAYER
 10
7.5816595689
 20
12.7495716051
 11
7.6891245137
 21
12.6474139084
  0
LINE
  5
247
100
AcDbEntity
  8
0
100
AcDbLine
 62
7
  6
BYLAYER
 10
7.5249839564
 20
12.8456074005
 11
8.5917348485
 21
11.7489734219
  0
LINE
  5
248
100
AcDbEntity
  8
0
100
AcDbLine
 62
7
  6
BYLAYER
 10
8.0823456414
 20
12.2760196641
 11
8.1457224756
 21
12.2074800204
  0
LINE
  5
249
100
AcDbEntity
  8
0
100
AcDbLine
 62
7
  6
BYLAYER
 10
7.5046635343
 20
12.9151787808
 11
8.0214357113
 21
12.3287372337
  0
LINE
  5
24A
100
AcDbEntity
  8
0
100
AcDbLine
 62
7
  6
BYLAYER
 10
7.5431388047
 20
12.9245729938
 11
7.9689969082
 21
12.3790776413
  0
LINE
  5
24B
100
AcDbEntity
  8
0
100
AcDbLine
 62
7
  6
BYLAYER
 10
7.8930457937
 20
12.4519894899
 11
8.156009106
 21
12.0619467477
  0
LINE
  5
24C
100
AcDbEntity
  8
0
100
AcDbLine
 62
7
  6
BYLAYER
 10
7.404512395
 20
13.2219719546
 11
7.4248499703
 21
13.1884378588
  0
LINE
  5
24D
100
AcDbEntity
  8
0
100
AcDbLine
 62
7
  6
BYLAYER
 10
7.5778796287
 20
12.9337073344
 11
7.6355428469
 21
12.8339330948
  0
LWPOLYLINE
  5
24E
100
AcDbEntity
  8
0
100
AcDbPolyline
 62
7
  6
BYLAYER
 90
3
 70
0
 10
7.8104661222
 20
12.5312646465
 10
7.9960877686
 20
12.2100848858
 10
8.0934686726
 20
12.1547104185
  0
LINE
  5
24F
100
AcDbEntity
  8
0
100
AcDbLine
 62
7
  6
BYLAYER
 10
7.7134571671
 20
12.6782363398
 11
7.7438312678
 21
12.6206294796
  0
LINE
  5
250
100
AcDbEntity
  8
0
100
AcDbLine
 62
7
  6
BYLAYER
 10
7.2043431399
 20
13.6642130316
 11
7.3006499369
 21
13.4745113077
  0
LINE
  5
251
100
AcDbEntity
  8
0
100
AcDbLine
 62
7
  6
BYLAYER
 10
7.5015810282
 20
13.0787243478
 11
7.6006319078
 21
12.8509282274
  0
LINE
  5
252
100
AcDbEntity
  8
0
100
AcDbLine
 62
7
  6
BYLAYER
 10
7.310762262
 20
13.5790419168
 11
7.4247090973
 21
13.2301439594
  0
LINE
  5
253
100
AcDbEntity
  8
0
100
AcDbLine
 62
7
  6
BYLAYER
 10
7.1365076991
 20
14.2645378283
 11
7.3159395837
 21
13.5613162312
  0
LINE
  5
254
100
AcDbEntity
  8
0
100
AcDbLine
 62
7
  6
BYLAYER
 10
7.1599709467
 20
14.2686199086
 11
7.2213145358
 21
13.9873686449
  0
LINE
  5
255
100
AcDbEntity
  8
0
100
AcDbLine
 62
7
  6
BYLAYER
 10
7.1650761837
 20
14.2687041093
 11
7.1958188808
 21
14.1149120678
  0
LINE
  5
256
100
AcDbEntity
  8
0
100
AcDbLine
 62
7
  6
BYLAYER
 10
7.380437612
 20
13.1913466618
 11
7.4153919538
 21
13.0164856353
  0
LINE
  5
257
100
AcDbEntity
  8
0
100
AcDbLine
 62
7
  6
BYLAYER
 10
7.2835893672
 20
13.662243591
 11
7.3191533786
 21
13.4380638824
  0
LINE
  5
258
100
AcDbEntity
  8
0
100
AcDbLine
 62
7
  6
BYLAYER
 10
7.1223104338
 20
14.7600935766
 11
7.1549109324
 21
14.5250888681
  0
LINE
  5
259
100
AcDbEntity
  8
0
100
AcDbLine
 62
7
  6
BYLAYER
 10
8.3881156662
 20
14.2270889245
 11
8.4139998154
 21
13.7746301353
  0
LINE
  5
25A
100
AcDbEntity
  8
0
100
AcDbLine
 62
7
  6
BYLAYER
 10
8.3247597062
 20
14.4795828036
 11
8.3513211368
 21
14.6246886409
  0
LWPOLYLINE
  5
25B
100
AcDbEntity
  8
0
100
AcDbPolyline
 62
7
  6
BYLAYER
 90
5
 70
0
 10
8.3513211368
 20
14.6246886409
 10
8.6176076075
 20
15.3790543132
 10
8.849918867
 20
15.7354124652
 10
9.5049695191
 20
16.1377346927
 10
10.1471952496
 20
16.2224538703
  0
LINE
  5
25C
100
AcDbEntity
  8
0
100
AcDbLine
 62
7
  6
BYLAYER
 10
8.907040689
 20
15.6391627227
 11
8.8417453422
 21
15.5601960098
  0
LINE
  5
25D
100
AcDbEntity
  8
0
100
AcDbLine
 62
7
  6
BYLAYER
 10
9.1628579353
 20
15.9143586418
 11
8.6317408771
 21
15.3207676812
  0
LINE
  5
25E
100
AcDbEntity
  8
0
100
AcDbLine
 62
7
  6
BYLAYER
 10
8.726872597
 20
15.4409722289
 11
8.5754301385
 21
15.2803174854
  0
LINE
  5
25F
100
AcDbEntity
  8
0
100
AcDbLine
 62
7
  6
BYLAYER
 10
8.8783879383
 20
15.5964271874
 11
8.5956572735
 21
15.3168709869
  0
LINE
  5
260
100
AcDbEntity
  8
0
100
AcDbLine
 62
7
  6
BYLAYER
 10
9.3892480178
 20
16.033475701
 11
9.2449523003
 21
15.9154814883
  0
LINE
  5
261
100
AcDbEntity
  8
0
100
AcDbLine
 62
7
  6
BYLAYER
 10
9.3436959356
 20
15.9952497146
 11
9.2120797608
 21
15.8878527443
  0
LINE
  5
262
100
AcDbEntity
  8
0
100
AcDbLine
 62
7
  6
BYLAYER
 10
8.9665562832
 20
15.711139534
 11
8.9077590519
 21
15.6737799177
  0
LINE
  5
263
100
AcDbEntity
  8
0
100
AcDbLine
 62
7
  6
BYLAYER
 10
9.7794322383
 20
16.1492823431
 11
9.6057247706
 21
16.0692399085
  0
LINE
  5
264
100
AcDbEntity
  8
0
100
AcDbLine
 62
7
  6
BYLAYER
 10
9.337505236
 20
15.9468395874
 11
9.1473055456
 21
15.8623254216
  0
LINE
  5
265
100
AcDbEntity
  8
0
100
AcDbLine
 62
7
  6
BYLAYER
 10
9.4636175069
 20
16.0037584901
 11
9.1876298674
 21
15.9021969869
  0
LINE
  5
266
100
AcDbEntity
  8
0
100
AcDbLine
 62
7
  6
BYLAYER
 10
10.8355522714
 20
12.7183138191
 11
10.9583004491
 21
12.7471642235
  0
LINE
  5
267
100
AcDbEntity
  8
0
100
AcDbLine
 62
7
  6
BYLAYER
 10
9.7679240582
 20
12.5632237304
 11
10.2938764418
 21
12.6132810825
  0
LINE
  5
268
100
AcDbEntity
  8
0
100
AcDbLine
 62
7
  6
BYLAYER
 10
10.3044559408
 20
12.5987320156
 11
10.5631871599
 21
12.5887124328
  0
LINE
  5
269
100
AcDbEntity
  8
0
100
AcDbLine
 62
7
  6
BYLAYER
 10
9.5280472337
 20
12.6333822379
 11
9.7742108658
 21
12.6206855792
  0
LINE
  5
26A
100
AcDbEntity
  8
0
100
AcDbLine
 62
7
  6
BYLAYER
 10
9.4731843922
 20
12.6741174905
 11
9.7037996572
 21
12.6477307807
  0
LINE
  5
26B
100
AcDbEntity
  8
0
100
AcDbLine
 62
7
  6
BYLAYER
 10
10.0671876739
 20
12.5917060506
 11
10.2587089603
 21
12.5559608187
  0
LINE
  5
26C
100
AcDbEntity
  8
0
100
AcDbLine
 62
7
  6
BYLAYER
 10
9.8587236312
 20
12.6289628595
 11
10.3017966818
 21
12.5300631554
  0
LINE
  5
26D
100
AcDbEntity
  8
0
100
AcDbLine
 62
7
  6
BYLAYER
 10
9.1637336263
 20
12.8342258889
 11
9.4241399805
 21
12.7522591243
  0
LINE
  5
26E
100
AcDbEntity
  8
0
100
AcDbLine
 62
7
  6
BYLAYER
 10
9.4658187583
 20
12.7391401104
 11
9.6055145976
 21
12.6854824299
  0
LINE
  5
26F
100
AcDbEntity
  8
0
100
AcDbLine
 62
7
  6
BYLAYER
 10
9.5547925352
 20
12.6804176437
 11
9.7679240582
 21
12.5632237304
  0
LINE
  5
270
100
AcDbEntity
  8
0
100
AcDbLine
 62
7
  6
BYLAYER
 10
9.1260845096
 20
12.9269041237
 11
9.4369631278
 21
12.7482228483
  0
LINE
  5
271
100
AcDbEntity
  8
0
100
AcDbLine
 62
7
  6
BYLAYER
 10
8.9649677083
 20
13.0514646063
 11
9.3265860496
 21
12.7829656718
  0
LINE
  5
272
100
AcDbEntity
  8
0
100
AcDbLine
 62
7
  6
BYLAYER
 10
8.8048966628
 20
13.2132098261
 11
8.9721629403
 21
13.0461222
  0
LINE
  5
273
100
AcDbEntity
  8
0
100
AcDbLine
 62
7
  6
BYLAYER
 10
8.6767804838
 20
13.3664352194
 11
9.1165822972
 21
12.8857593427
  0
LINE
  5
274
100
AcDbEntity
  8
0
100
AcDbLine
 62
7
  6
BYLAYER
 10
9.0906048488
 20
12.8978995938
 11
9.1084681887
 21
12.877264777
  0
LINE
  5
275
100
AcDbEntity
  8
0
100
AcDbLine
 62
7
  6
BYLAYER
 10
8.9795684786
 20
12.9967141599
 11
9.086744963
 21
12.8584592132
  0
LINE
  5
276
100
AcDbEntity
  8
0
100
AcDbLine
 62
7
  6
BYLAYER
 10
8.6202999353
 20
13.4708173025
 11
8.6813458198
 21
13.3885213485
  0
LINE
  5
277
100
AcDbEntity
  8
0
100
AcDbLine
 62
7
  6
BYLAYER
 10
8.4858138379
 20
13.6803864669
 11
8.6070070124
 21
13.5029447003
  0
LINE
  5
278
100
AcDbEntity
  8
0
100
AcDbLine
 62
7
  6
BYLAYER
 10
8.8168969942
 20
13.1614060126
 11
8.883743409
 21
13.0494051685
  0
LINE
  5
279
100
AcDbEntity
  8
0
100
AcDbLine
 62
7
  6
BYLAYER
 10
8.4659225931
 20
13.7789716837
 11
8.7071763737
 21
13.3069666697
  0
LINE
  5
27A
100
AcDbEntity
  8
0
100
AcDbLine
 62
7
  6
BYLAYER
 10
8.5646576534
 20
13.5458286601
 11
8.5948815148
 21
13.4559456705
  0
LWPOLYLINE
  5
27B
100
AcDbEntity
  8
0
100
AcDbPolyline
 62
7
  6
BYLAYER
 90
5
 70
0
 10
8.3217133418
 20
14.4937032378
 10
8.525702923
 20
13.4826877237
 10
9.3117410443
 20
12.7215656611
 10
10.3912666124
 20
12.5388046475
 10
10.9234768226
 20
12.693302951
  0
LINE
  5
27C
100
AcDbEntity
  8
0
100
AcDbLine
 62
7
  6
BYLAYER
 10
8.3337804271
 20
14.4399383547
 11
8.3589707836
 21
14.309047475
  0
LINE
  5
27D
100
AcDbEntity
  8
0
100
AcDbLine
 62
7
  6
BYLAYER
 10
8.3429340209
 20
14.5788695926
 11
8.4101990916
 21
14.0551491442
  0
LINE
  5
27E
100
AcDbEntity
  8
0
100
AcDbLine
 62
7
  6
BYLAYER
 10
8.3970779854
 20
14.1201801222
 11
8.4232463871
 21
13.8852962587
  0
LINE
  5
27F
100
AcDbEntity
  8
0
100
AcDbLine
 62
7
  6
BYLAYER
 10
11.9270718615
 20
14.2160790622
 11
11.9152765844
 21
14.4113444416
  0
LINE
  5
280
100
AcDbEntity
  8
0
100
AcDbLine
 62
7
  6
BYLAYER
 10
11.9138572433
 20
14.1273263255
 11
11.9166720237
 21
14.6905796768
  0
LINE
  5
281
100
AcDbEntity
  8
0
100
AcDbLine
 62
7
  6
BYLAYER
 10
11.9177973087
 20
14.6442849475
 11
11.9191608063
 21
14.77037064
  0
LINE
  5
282
100
AcDbEntity
  8
0
100
AcDbLine
 62
7
  6
BYLAYER
 10
11.9382808398
 20
14.5942762674
 11
11.951819225
 21
14.7727665169
  0
LINE
  5
283
100
AcDbEntity
  8
0
100
AcDbLine
 62
7
  6
BYLAYER
 10
11.8322203686
 20
13.7013843274
 11
11.859257048
 21
13.884268245
  0
LWPOLYLINE
  5
284
100
AcDbEntity
  8
0
100
AcDbPolyline
 62
7
  6
BYLAYER
 90
3
 70
0
 10
11.7113127238
 20
13.4027216946
 10
11.996568281
 20
14.4232257211
 10
11.9849595842
 20
14.4572926468
  0
LINE
  5
285
100
AcDbEntity
  8
0
100
AcDbLine
 62
7
  6
BYLAYER
 10
11.6473849596
 20
13.3451569732
 11
11.6758534653
 21
13.4218150659
  0
LINE
  5
286
100
AcDbEntity
  8
0
100
AcDbLine
 62
7
  6
BYLAYER
 10
11.6052070935
 20
13.2884756588
 11
11.6758232663
 21
13.4540832154
  0
LINE
  5
287
100
AcDbEntity
  8
0
100
AcDbLine
 62
7
  6
BYLAYER
 10
11.8568444015
 20
13.8679484066
 11
11.9131811578
 21
13.9920378031
  0
LINE
  5
288
100
AcDbEntity
  8
0
100
AcDbLine
 62
7
  6
BYLAYER
 10
11.8216533563
 20
13.7768084482
 11
11.9130242507
 21
13.9606398246
  0
LINE
  5
289
100
AcDbEntity
  8
0
100
AcDbLine
 62
7
  6
BYLAYER
 10
11.4051610434
 20
13.0487858878
 11
11.4947758379
 21
13.1960702059
  0
LINE
  5
28A
100
AcDbEntity
  8
0
100
AcDbLine
 62
7
  6
BYLAYER
 10
11.3125796697
 20
12.9371527616
 11
11.6367330112
 21
13.4138825794
  0
LINE
  5
28B
100
AcDbEntity
  8
0
100
AcDbLine
 62
7
  6
BYLAYER
 10
11.5739063879
 20
13.3252653016
 11
11.6553073943
 21
13.4421328674
  0
LINE
  5
28C
100
AcDbEntity
  8
0
100
AcDbLine
 62
7
  6
BYLAYER
 10
11.4466022651
 20
13.1643591615
 11
11.7739769573
 21
13.5781446457
  0
LINE
  5
28D
100
AcDbEntity
  8
0
100
AcDbLine
 62
7
  6
BYLAYER
 10
10.9113095667
 20
12.7078437092
 11
11.3116001388
 21
13.0427944567
  0
LINE
  5
28E
100
AcDbEntity
  8
0
100
AcDbLine
 62
7
  6
BYLAYER
 10
11.1466670906
 20
12.9077843742
 11
11.4265101681
 21
13.1389637408
  0
LINE
  5
28F
100
AcDbEntity
  8
0
100
AcDbLine
 62
7
  6
BYLAYER
 10
10.9541857319
 20
12.7928107528
 11
11.1211409846
 21
12.8938605685
  0
LINE
  5
290
100
AcDbEntity
  8
0
100
AcDbLine
 62
7
  6
BYLAYER
 10
10.88449107
 20
12.7647743915
 11
11.0673154173
 21
12.8645001661
  0
LINE
  5
291
100
AcDbEntity
  8
0
100
AcDbLine
 62
7
  6
BYLAYER
 10
10.343556611
 20
12.546881833
 11
10.5748114685
 21
12.640018985
  0
LINE
  5
292
100
AcDbEntity
  8
0
100
AcDbLine
 62
7
  6
BYLAYER
 10
11.0985555438
 20
12.8509552314
 11
11.3125796697
 21
12.9371527616
  0
LINE
  5
293
100
AcDbEntity
  8
0
100
AcDbLine
 62
7
  6
BYLAYER
 10
10.4241172198
 20
12.5940980325
 11
10.6226405859
 21
12.6682716241
  0
LINE
  5
294
100
AcDbEntity
  8
0
100
AcDbLine
 62
7
  6
BYLAYER
 10
10.2906310582
 20
12.5659052692
 11
10.7328270492
 21
12.7036592533
  0
LINE
  5
295
100
AcDbEntity
  8
0
100
AcDbLine
 62
7
  6
BYLAYER
 10
11.0044847404
 20
12.7903270266
 11
11.1292284377
 21
12.8284274496
  0
LINE
  5
296
100
AcDbEntity
  8
0
100
AcDbLine
 62
7
  6
BYLAYER
 10
10.1232564777
 20
16.2008089607
 11
10.0477373424
 21
16.1794047362
  0
LINE
  5
297
100
AcDbEntity
  8
0
100
AcDbLine
 62
7
  6
BYLAYER
 10
10.1555193911
 20
16.1866881246
 11
9.9664742031
 21
16.1421088383
  0
LINE
  5
298
100
AcDbEntity
  8
0
100
AcDbLine
 62
7
  6
BYLAYER
 10
9.8662644989
 20
16.1184781015
 11
9.6863516638
 21
16.0794834479
  0
LINE
  5
299
100
AcDbEntity
  8
0
100
AcDbLine
 62
7
  6
BYLAYER
 10
10.0316598842
 20
16.1396088122
 11
9.3831215665
 21
16.0324635476
  0
LINE
  5
29A
100
AcDbEntity
  8
0
100
AcDbLine
 62
7
  6
BYLAYER
 10
10.1472350123
 20
16.2218192826
 11
10.1475190161
 21
16.2218139555
  0
LWPOLYLINE
  5
29B
100
AcDbEntity
  8
0
100
AcDbPolyline
 62
7
  6
BYLAYER
 90
3
 70
0
 10
10.7295926597
 20
16.112841428
 10
9.6548786263
 20
16.1540592708
 10
9.2097797275
 20
15.9549030004
  0
LINE
  5
29C
100
AcDbEntity
  8
0
100
AcDbLine
 62
7
  6
BYLAYER
 10
10.3417098716
 20
16.1311487286
 11
10.1439602914
 21
16.1389645086
  0
LINE
  5
29D
100
AcDbEntity
  8
0
100
AcDbLine
 62
7
  6
BYLAYER
 10
10.6184726622
 20
16.0820147754
 11
10.5323580203
 21
16.0978031824
  0
LINE
  5
29E
100
AcDbEntity
  8
0
100
AcDbLine
 62
7
  6
BYLAYER
 10
10.6603870594
 20
16.065567345
 11
10.5089608966
 21
16.1036942356
  0
LINE
  5
29F
100
AcDbEntity
  8
0
100
AcDbLine
 62
7
  6
BYLAYER
 10
10.5193677818
 20
16.1209040528
 11
10.3354206687
 21
16.1930858694
  0
LINE
  5
2A0
100
AcDbEntity
  8
0
100
AcDbLine
 62
7
  6
BYLAYER
 10
11.2018113305
 20
15.8472558529
 11
11.030711988
 21
15.9172738818
  0
LINE
  5
2A1
100
AcDbEntity
  8
0
100
AcDbLine
 62
7
  6
BYLAYER
 10
11.4121743654
 20
15.720002953
 11
10.8486995501
 21
15.9916725312
  0
LINE
  5
2A2
100
AcDbEntity
  8
0
100
AcDbLine
 62
7
  6
BYLAYER
 10
10.7424420188
 20
16.0653679782
 11
10.65322204
 21
16.1157704232
  0
LINE
  5
2A3
100
AcDbEntity
  8
0
100
AcDbLine
 62
7
  6
BYLAYER
 10
11.6442784208
 20
15.4570568827
 11
11.1937728928
 21
15.7950616561
  0
LINE
  5
2A4
100
AcDbEntity
  8
0
100
AcDbLine
 62
7
  6
BYLAYER
 10
11.5483937908
 20
15.5280236587
 11
11.4044980452
 21
15.6362203363
  0
LINE
  5
2A5
100
AcDbEntity
  8
0
100
AcDbLine
 62
7
  6
BYLAYER
 10
11.1180904087
 20
15.8617904159
 11
11.0649555459
 21
15.9068125388
  0
LWPOLYLINE
  5
2A6
100
AcDbEntity
  8
0
100
AcDbPolyline
 62
7
  6
BYLAYER
 90
3
 70
0
 10
11.2745939696
 20
15.7344233108
 10
10.9671095512
 20
16.0284884842
 10
10.8589997605
 20
16.0462348596
  0
LINE
  5
2A7
100
AcDbEntity
  8
0
100
AcDbLine
 62
7
  6
BYLAYER
 10
11.7332444593
 20
15.2764290665
 11
11.6643266095
 21
15.3457437362
  0
LINE
  5
2A8
100
AcDbEntity
  8
0
100
AcDbLine
 62
7
  6
BYLAYER
 10
11.7444271841
 20
15.2433499198
 11
11.6732561821
 21
15.3225598987
  0
LINE
  5
2A9
100
AcDbEntity
  8
0
100
AcDbLine
 62
7
  6
BYLAYER
 10
11.4827527292
 20
15.5353490225
 11
11.3283517363
 21
15.7343739268
  0
LWPOLYLINE
  5
2AA
100
AcDbEntity
  8
0
100
AcDbPolyline
 62
7
  6
BYLAYER
 90
3
 70
0
 10
11.7193848394
 20
15.202796128
 10
11.3081153859
 20
15.8113953361
 10
11.0227564253
 20
15.9233716961
  0
LINE
  5
2AB
100
AcDbEntity
  8
0
100
AcDbLine
 62
7
  6
BYLAYER
 10
11.951819225
 20
14.7727665169
 11
11.7667784433
 21
15.0975678515
  0
LINE
  5
2AC
100
AcDbEntity
  8
0
100
AcDbLine
 62
7
  6
BYLAYER
 10
11.4817180824
 20
15.5979331482
 11
11.4121743654
 21
15.720002953
  0
LINE
  5
2AD
100
AcDbEntity
  8
0
100
AcDbLine
 62
7
  6
BYLAYER
 10
11.7845174072
 20
15.0455110208
 11
11.6950266148
 21
15.2283831915
  0
LINE
  5
2AE
100
AcDbEntity
  8
0
100
AcDbLine
 62
7
  6
BYLAYER
 10
11.7703401401
 20
15.0705009493
 11
11.6507961909
 21
15.3187387973
  0
LINE
  5
2AF
100
AcDbEntity
  8
0
100
AcDbLine
 62
7
  6
BYLAYER
 10
11.819451818
 20
14.9429923661
 11
11.6442784208
 21
15.4570568827
  0
LINE
  5
2B0
100
AcDbEntity
  8
0
100
AcDbLine
 62
7
  6
BYLAYER
 10
11.884465618
 20
14.7026662023
 11
11.8729018163
 21
14.7465415439
  0
LINE
  5
2B1
100
AcDbEntity
  8
0
100
AcDbLine
 62
7
  6
BYLAYER
 10
11.9290508058
 20
14.4725873772
 11
11.8525381287
 21
14.8458971531
  0
LINE
  5
2B2
100
AcDbEntity
  8
0
100
AcDbLine
 62
7
  6
BYLAYER
 10
13.066073356
 20
15.0685471089
 11
13.0617639393
 21
15.174327617
  0
LINE
  5
2B3
100
AcDbEntity
  8
0
100
AcDbLine
 62
7
  6
BYLAYER
 10
13.0993943057
 20
13.8588975506
 11
13.0963381963
 21
14.0215592884
  0
LINE
  5
2B4
100
AcDbEntity
  8
0
100
AcDbLine
 62
7
  6
BYLAYER
 10
13.1024768569
 20
14.7256808162
 11
13.1031742141
 21
14.747345254
  0
LINE
  5
2B5
100
AcDbEntity
  8
0
100
AcDbLine
 62
7
  6
BYLAYER
 10
13.086013855
 20
14.2142331994
 11
13.0930432486
 21
14.3101427998
  0
LINE
  5
2B6
100
AcDbEntity
  8
0
100
AcDbLine
 62
7
  6
BYLAYER
 10
13.0175451615
 20
13.7052767195
 11
13.0720291462
 21
14.0659657055
  0
LINE
  5
2B7
100
AcDbEntity
  8
0
100
AcDbLine
 62
7
  6
BYLAYER
 10
12.917693577
 20
13.2954429301
 11
12.9969904452
 21
13.628856113
  0
LWPOLYLINE
  5
2B8
100
AcDbEntity
  8
0
100
AcDbPolyline
 62
7
  6
BYLAYER
 90
3
 70
0
 10
12.8020586492
 20
12.8979479485
 10
13.196861304
 20
14.3874483713
 10
13.1919097732
 20
14.4051924853
  0
LINE
  5
2B9
100
AcDbEntity
  8
0
100
AcDbLine
 62
7
  6
BYLAYER
 10
13.1463123623
 20
14.1314753459
 11
13.1636588146
 21
14.1904591282
  0
LWPOLYLINE
  5
2BA
100
AcDbEntity
  8
0
100
AcDbPolyline
 62
7
  6
BYLAYER
 90
3
 70
0
 10
12.7733259024
 20
12.907462531
 10
13.1924237241
 20
14.2591943479
 10
13.1785775152
 20
14.3184678038
  0
LINE
  5
2BB
100
AcDbEntity
  8
0
100
AcDbLine
 62
7
  6
BYLAYER
 10
12.9245597505
 20
13.3952426951
 11
13.1824272835
 21
14.0790979753
  0
LINE
  5
2BC
100
AcDbEntity
  8
0
100
AcDbLine
 62
7
  6
BYLAYER
 10
12.723575731
 20
12.9423032969
 11
12.7953016671
 21
13.0799231695
  0
LINE
  5
2BD
100
AcDbEntity
  8
0
100
AcDbLine
 62
7
  6
BYLAYER
 10
12.212847508
 20
12.1697531291
 11
12.28994965
 21
12.2834668999
  0
LWPOLYLINE
  5
2BE
100
AcDbEntity
  8
0
100
AcDbPolyline
 62
7
  6
BYLAYER
 90
3
 70
0
 10
12.8676530942
 20
13.1035960229
 10
12.9941716187
 20
13.2774732024
 10
13.005737494
 20
13.3946051773
  0
LINE
  5
2BF
100
AcDbEntity
  8
0
100
AcDbLine
 62
7
  6
BYLAYER
 10
11.9813089192
 20
11.968066421
 11
12.0350265372
 21
12.0337791275
  0
LINE
  5
2C0
100
AcDbEntity
  8
0
100
AcDbLine
 62
7
  6
BYLAYER
 10
11.672209797
 20
11.7339300046
 11
12.7892321585
 21
12.8495565228
  0
LINE
  5
2C1
100
AcDbEntity
  8
0
100
AcDbLine
 62
7
  6
BYLAYER
 10
12.0884175371
 20
12.1629482748
 11
12.2776188945
 21
12.3415466228
  0
LINE
  5
2C2
100
AcDbEntity
  8
0
100
AcDbLine
 62
7
  6
BYLAYER
 10
11.6232834472
 20
11.733816851
 11
12.2253534996
 21
12.2834403224
  0
LINE
  5
2C3
100
AcDbEntity
  8
0
100
AcDbLine
 62
7
  6
BYLAYER
 10
11.5218739698
 20
11.7046033496
 11
12.1824260851
 21
12.2390030452
  0
LINE
  5
2C4
100
AcDbEntity
  8
0
100
AcDbLine
 62
7
  6
BYLAYER
 10
12.0290136405
 20
12.1042037127
 11
12.106147037
 21
12.1600410754
  0
LINE
  5
2C5
100
AcDbEntity
  8
0
100
AcDbLine
 62
7
  6
BYLAYER
 10
11.1419276661
 20
11.5136525149
 11
11.2043041281
 21
11.5535503033
  0
LINE
  5
2C6
100
AcDbEntity
  8
0
100
AcDbLine
 62
7
  6
BYLAYER
 10
11.9606547764
 20
12.02201454
 11
11.9886571589
 21
12.0384187895
  0
LINE
  5
2C7
100
AcDbEntity
  8
0
100
AcDbLine
 62
7
  6
BYLAYER
 10
11.6883537258
 20
11.865233579
 11
11.7700688012
 21
11.9103661872
  0
LINE
  5
2C8
100
AcDbEntity
  8
0
100
AcDbLine
 62
7
  6
BYLAYER
 10
11.1614756496
 20
11.6007817235
 11
11.5020670529
 21
11.7533664199
  0
LINE
  5
2C9
100
AcDbEntity
  8
0
100
AcDbLine
 62
7
  6
BYLAYER
 10
11.5222865905
 20
11.7049371678
 11
11.6239619983
 21
11.7344362932
  0
LWPOLYLINE
  5
2CA
100
AcDbEntity
  8
0
100
AcDbPolyline
 62
7
  6
BYLAYER
 90
6
 70
0
 10
10.147515006
 20
17.4215283819
 10
9.0325914285
 20
17.2463264853
 10
7.9526246982
 20
16.5322071984
 10
7.4038500752
 20
15.6037995257
 10
7.1637598931
 20
14.8052955951
 10
7.101282227
 20
14.4334606887
  0
LINE
  5
2CB
100
AcDbEntity
  8
0
100
AcDbLine
 62
7
  6
BYLAYER
 10
10.5526546289
 20
17.3946734304
 11
10.1576889534
 21
17.3433781733
  0
LINE
  5
2CC
100
AcDbEntity
  8
0
100
AcDbLine
 62
7
  6
BYLAYER
 10
10.7026180546
 20
17.3315630348
 11
10.4421977808
 21
17.3236259759
  0
LINE
  5
2CD
100
AcDbEntity
  8
0
100
AcDbLine
 62
7
  6
BYLAYER
 10
10.4409021449
 20
17.3029989056
 11
10.3853591686
 21
17.3064544098
  0
LINE
  5
2CE
100
AcDbEntity
  8
0
100
AcDbLine
 62
7
  6
BYLAYER
 10
10.9141992266
 20
17.2425215142
 11
10.7461255784
 21
17.2639977839
  0
LINE
  5
2CF
100
AcDbEntity
  8
0
100
AcDbLine
 62
7
  6
BYLAYER
 10
11.3521297278
 20
17.1153034001
 11
11.0544980556
 21
17.1827587011
  0
LINE
  5
2D0
100
AcDbEntity
  8
0
100
AcDbLine
 62
7
  6
BYLAYER
 10
11.6306131285
 20
17.0349263307
 11
10.1414318741
 21
17.3966905073
  0
LINE
  5
2D1
100
AcDbEntity
  8
0
100
AcDbLine
 62
7
  6
BYLAYER
 10
10.5033808038
 20
17.3279475989
 11
10.3565181449
 21
17.3692006564
  0
LINE
  5
2D2
100
AcDbEntity
  8
0
100
AcDbLine
 62
7
  6
BYLAYER
 10
11.6771254977
 20
16.9976797261
 11
10.6556644553
 21
17.2878292839
  0
LINE
  5
2D3
100
AcDbEntity
  8
0
100
AcDbLine
 62
7
  6
BYLAYER
 10
11.0020842087
 20
17.1876137531
 11
10.3703695801
 21
17.4119229594
  0
LINE
  5
2D4
100
AcDbEntity
  8
0
100
AcDbLine
 62
7
  6
BYLAYER
 10
11.4694131255
 20
17.00414162
 11
11.1662127903
 21
17.1293349826
  0
LINE
  5
2D5
100
AcDbEntity
  8
0
100
AcDbLine
 62
7
  6
BYLAYER
 10
11.0590703582
 20
17.1815541524
 11
10.5526546289
 21
17.3946734304
  0
LINE
  5
2D6
100
AcDbEntity
  8
0
100
AcDbLine
 62
7
  6
BYLAYER
 10
11.8557275504
 20
16.8040390475
 11
11.5509797314
 21
16.9608226902
  0
LINE
  5
2D7
100
AcDbEntity
  8
0
100
AcDbLine
 62
7
  6
BYLAYER
 10
11.0987007737
 20
17.2260902394
 11
11.0455822306
 21
17.2570483783
  0
LINE
  5
2D8
100
AcDbEntity
  8
0
100
AcDbLine
 62
7
  6
BYLAYER
 10
12.0838155575
 20
16.6397512822
 11
12.0034267968
 21
16.6881912168
  0
LINE
  5
2D9
100
AcDbEntity
  8
0
100
AcDbLine
 62
7
  6
BYLAYER
 10
11.5085332614
 20
17.0077838427
 11
11.377964739
 21
17.0975431302
  0
LINE
  5
2DA
100
AcDbEntity
  8
0
100
AcDbLine
 62
7
  6
BYLAYER
 10
11.6361674456
 20
17.0295210056
 11
11.6306131285
 21
17.0349263307
  0
LINE
  5
2DB
100
AcDbEntity
  8
0
100
AcDbLine
 62
7
  6
BYLAYER
 10
12.3958092796
 20
16.2747034083
 11
12.3515560126
 21
16.3206295912
  0
LINE
  5
2DC
100
AcDbEntity
  8
0
100
AcDbLine
 62
7
  6
BYLAYER
 10
12.7466789467
 20
15.91044494
 11
12.2229689209
 21
16.4584602034
  0
LINE
  5
2DD
100
AcDbEntity
  8
0
100
AcDbLine
 62
7
  6
BYLAYER
 10
12.849522816
 20
15.7270995314
 11
12.2773549519
 21
16.4090703461
  0
LINE
  5
2DE
100
AcDbEntity
  8
0
100
AcDbLine
 62
7
  6
BYLAYER
 10
12.9204413942
 20
15.5772020351
 11
12.8872876202
 21
15.6213761127
  0
LINE
  5
2DF
100
AcDbEntity
  8
0
100
AcDbLine
 62
7
  6
BYLAYER
 10
12.4414642804
 20
16.2134673082
 11
12.3453271156
 21
16.3424140818
  0
LINE
  5
2E0
100
AcDbEntity
  8
0
100
AcDbLine
 62
7
  6
BYLAYER
 10
12.8745000579
 20
15.551203937
 11
12.844837825
 21
15.6003406253
  0
LINE
  5
2E1
100
AcDbEntity
  8
0
100
AcDbLine
 62
7
  6
BYLAYER
 10
12.5600048062
 20
16.0721780397
 11
12.4716568328
 21
16.2185300305
  0
LINE
  5
2E2
100
AcDbEntity
  8
0
100
AcDbLine
 62
7
  6
BYLAYER
 10
12.7310080584
 20
15.7735164822
 11
12.6727978463
 21
15.8763919234
  0
LINE
  5
2E3
100
AcDbEntity
  8
0
100
AcDbLine
 62
7
  6
BYLAYER
 10
12.9411311414
 20
15.3349386113
 11
12.8179196685
 21
15.5976399686
  0
LINE
  5
2E4
100
AcDbEntity
  8
0
100
AcDbLine
 62
7
  6
BYLAYER
 10
12.6975030102
 20
15.9082929842
 11
12.6378358785
 21
16.0555681092
  0
LINE
  5
2E5
100
AcDbEntity
  8
0
100
AcDbLine
 62
7
  6
BYLAYER
 10
12.8631180495
 20
15.5700586941
 11
12.7900061829
 21
15.8166224675
  0
LINE
  5
2E6
100
AcDbEntity
  8
0
100
AcDbLine
 62
7
  6
BYLAYER
 10
12.9856834535
 20
15.1442171278
 11
12.8261095744
 21
15.8273279589
  0
LINE
  5
2E7
100
AcDbEntity
  8
0
100
AcDbLine
 62
7
  6
BYLAYER
 10
13.0635646866
 20
14.7885649905
 11
13.0536274759
 21
14.8433209453
  0
LINE
  5
2E8
100
AcDbEntity
  8
0
100
AcDbLine
 62
7
  6
BYLAYER
 10
13.1824272835
 20
14.0790979753
 11
13.1534722069
 21
14.2509005197
  0
LINE
  5
2E9
100
AcDbEntity
  8
0
100
AcDbLine
 62
7
  6
BYLAYER
 10
13.1539093264
 20
14.0034693947
 11
13.1342947332
 21
14.1739203569
  0
LINE
  5
2EA
100
AcDbEntity
  8
0
100
AcDbLine
 62
7
  6
BYLAYER
 10
13.0010182516
 20
15.3416214326
 11
12.9849776284
 21
15.4870275559
  0
CIRCLE
  5
2EB
100
AcDbEntity
  8
0
100
AcDbCircle
 62
7
  6
BYLAYER
 10
7.6975145326
 20
14.3719912473
 40
0.6
  0
ARC
  5
2EC
100
AcDbEntity
  8
0
100
AcDbCircle
 62
7
  6
BYLAYER
 10
10.164651561
 20
14.2716139753
 40
2.9482008181
100
AcDbArc
 50
282.640015432
 51
284.2335656908
  0
ARC
  5
2ED
100
AcDbEntity
  8
0
100
AcDbCircle
 62
7
  6
BYLAYER
 10
10.1466151472
 20
14.2258782833
 40
2.9038842536
100
AcDbArc
 50
268.8517959201
 51
269.5832370361
  0
ARC
  5
2EE
100
AcDbEntity
  8
0
100
AcDbCircle
 62
7
  6
BYLAYER
 10
10.0721333942
 20
14.3326016775
 40
3.1320710672
100
AcDbArc
 50
28.6138642761
 51
30.6529979323
  0
ARC
  5
2EF
100
AcDbEntity
  8
0
100
AcDbCircle
 62
7
  6
BYLAYER
 10
10.1254728527
 20
14.345714167
 40
3.0803622561
100
AcDbArc
 50
29.8726888255
 51
30.8354219396
  0
ARC
  5
2F0
100
AcDbEntity
  8
0
100
AcDbCircle
 62
7
  6
BYLAYER
 10
10.135867274
 20
14.3516775572
 40
3.0683786848
100
AcDbArc
 50
28.7455712317
 51
29.8728033993
  0
ARC
  5
2F1
100
AcDbEntity
  8
0
100
AcDbCircle
 62
7
  6
BYLAYER
 10
10.1480073371
 20
14.3465330739
 40
3.0264888804
100
AcDbArc
 50
298.9486912498
 51
299.4516367735
  0
ARC
  5
2F2
100
AcDbEntity
  8
0
100
AcDbCircle
 62
7
  6
BYLAYER
 10
10.0826912287
 20
14.3250497002
 40
2.9700803856
100
AcDbArc
 50
209.1993939308
 51
210.0374732402
  0
ARC
  5
2F3
100
AcDbEntity
  8
0
100
AcDbCircle
 62
7
  6
BYLAYER
 10
10.0728424879
 20
14.3412568886
 40
2.969360915
100
AcDbArc
 50
208.0789869623
 51
209.0432468196
  0
ARC
  5
2F4
100
AcDbEntity
  8
0
100
AcDbCircle
 62
7
  6
BYLAYER
 10
10.0685917415
 20
14.3168811939
 40
2.953785606
100
AcDbArc
 50
210.0372068547
 51
211.173086506
  0
ARC
  5
2F5
100
AcDbEntity
  8
0
100
AcDbCircle
 62
7
  6
BYLAYER
 10
10.0541552011
 20
14.3313303363
 40
2.9482008181
100
AcDbArc
 50
206.4861692781
 51
208.079719537
  0
ARC
  5
2F6
100
AcDbEntity
  8
0
100
AcDbCircle
 62
7
  6
BYLAYER
 10
10.0527807755
 20
14.3073216786
 40
2.9353093793
100
AcDbArc
 50
211.1731833397
 51
212.2268201745
  0
ARC
  5
2F7
100
AcDbEntity
  8
0
100
AcDbCircle
 62
7
  6
BYLAYER
 10
10.1127910577
 20
14.3312293075
 40
1.9017096403
100
AcDbArc
 50
48.6490355323
 51
50.7094416161
  0
ARC
  5
2F8
100
AcDbEntity
  8
0
100
AcDbCircle
 62
7
  6
BYLAYER
 10
10.1012447466
 20
14.3462175242
 40
1.9011262669
100
AcDbArc
 50
27.105920318
 51
28.6350305294
  0
ARC
  5
2F9
100
AcDbEntity
  8
0
100
AcDbCircle
 62
7
  6
BYLAYER
 10
10.101955183
 20
14.3451012329
 40
1.9010652903
100
AcDbArc
 50
28.7601902447
 51
29.7242045705
  0
ARC
  5
2FA
100
AcDbEntity
  8
0
100
AcDbCircle
 62
7
  6
BYLAYER
 10
10.1414349675
 20
14.3197715749
 40
1.9007346364
100
AcDbArc
 50
84.0867914747
 51
85.8776015244
  0
ARC
  5
2FB
100
AcDbEntity
  8
0
100
AcDbCircle
 62
7
  6
BYLAYER
 10
10.1028787156
 20
14.3456089117
 40
1.9000114166
100
AcDbArc
 50
28.1020553536
 51
28.760169155
  0
ARC
  5
2FC
100
AcDbEntity
  8
0
100
AcDbCircle
 62
7
  6
BYLAYER
 10
10.1610522266
 20
14.3226462854
 40
1.8993295549
100
AcDbArc
 50
102.2715703045
 51
103.2597075313
  0
ARC
  5
2FD
100
AcDbEntity
  8
0
100
AcDbCircle
 62
7
  6
BYLAYER
 10
10.1428305867
 20
14.3214385396
 40
1.8989300148
100
AcDbArc
 50
87.2182156448
 51
87.7923990593
  0
ARC
  5
2FE
100
AcDbEntity
  8
0
100
AcDbCircle
 62
7
  6
BYLAYER
 10
10.1040192912
 20
14.3462174951
 40
1.8987186343
100
AcDbArc
 50
27.3722611465
 51
28.1020681245
  0
ARC
  5
2FF
100
AcDbEntity
  8
0
100
AcDbCircle
 62
7
  6
BYLAYER
 10
10.1035472826
 20
14.3473917279
 40
1.8985416178
100
AcDbArc
 50
25.3357787984
 51
27.1060375455
  0
ARC
  5
300
100
AcDbEntity
  8
0
100
AcDbCircle
 62
7
  6
BYLAYER
 10
10.1416195109
 20
14.3222737578
 40
1.8982256609
100
AcDbArc
 50
85.877728014
 51
86.9294354313
  0
ARC
  5
301
100
AcDbEntity
  8
0
100
AcDbCircle
 62
7
  6
BYLAYER
 10
10.1428894066
 20
14.3229919861
 40
1.8973754555
100
AcDbArc
 50
87.7923669563
 51
88.5717718222
  0
ARC
  5
302
100
AcDbEntity
  8
0
100
AcDbCircle
 62
7
  6
BYLAYER
 10
10.1606320227
 20
14.3245740159
 40
1.8973565583
100
AcDbArc
 50
101.4893442976
 51
102.2715439692
  0
ARC
  5
303
100
AcDbEntity
  8
0
100
AcDbCircle
 62
7
  6
BYLAYER
 10
10.1429567875
 20
14.3258452071
 40
1.8945214415
100
AcDbArc
 50
88.5716582373
 51
89.7572591113
  0
ARC
  5
304
100
AcDbEntity
  8
0
100
AcDbCircle
 62
7
  6
BYLAYER
 10
10.1600612522
 20
14.3274016122
 40
1.8944719327
100
AcDbArc
 50
100.2911067309
 51
101.4894617459
  0
ARC
  5
305
100
AcDbEntity
  8
0
100
AcDbCircle
 62
7
  6
BYLAYER
 10
10.1418848757
 20
14.327730894
 40
1.8927621451
100
AcDbArc
 50
86.9286080617
 51
89.5819829843
  0
ARC
  5
306
100
AcDbEntity
  8
0
100
AcDbCircle
 62
7
  6
BYLAYER
 10
10.1429756506
 20
14.3295399721
 40
1.8908266298
100
AcDbArc
 50
89.7573563717
 51
90.6051813618
  0
ARC
  5
307
100
AcDbEntity
  8
0
100
AcDbCircle
 62
7
  6
BYLAYER
 10
10.162517677
 20
14.3375651994
 40
1.8858373199
100
AcDbArc
 50
120.5010923507
 51
120.8059778841
  0
ARC
  5
308
100
AcDbEntity
  8
0
100
AcDbCircle
 62
7
  6
BYLAYER
 10
10.1595455535
 20
14.3396723994
 40
1.8825405586
100
AcDbArc
 50
99.3958457173
 51
101.8644753194
  0
ARC
  5
309
100
AcDbEntity
  8
0
100
AcDbCircle
 62
7
  6
BYLAYER
 10
10.1602041414
 20
14.3414087711
 40
1.8813512148
100
AcDbArc
 50
120.8054086027
 51
122.5489479454
  0
ARC
  5
30A
100
AcDbEntity
  8
0
100
AcDbCircle
 62
7
  6
BYLAYER
 10
10.1659184112
 20
14.3580227285
 40
1.8716282058
100
AcDbArc
 50
124.4926668753
 51
139.5189166327
  0
ARC
  5
30B
100
AcDbEntity
  8
0
100
AcDbCircle
 62
7
  6
BYLAYER
 10
10.1576569166
 20
14.350886148
 40
1.8711689256
100
AcDbArc
 50
97.9730368823
 51
99.3948473482
  0
ARC
  5
30C
100
AcDbEntity
  8
0
100
AcDbCircle
 62
7
  6
BYLAYER
 10
10.1493764177
 20
14.3502297385
 40
1.8695690285
100
AcDbArc
 50
111.8959149506
 51
114.3049213774
  0
ARC
  5
30D
100
AcDbEntity
  8
0
100
AcDbCircle
 62
7
  6
BYLAYER
 10
10.1340804508
 20
14.364945774
 40
1.8623556052
100
AcDbArc
 50
357.9675145412
 51
1.5304805647
  0
ARC
  5
30E
100
AcDbEntity
  8
0
100
AcDbCircle
 62
7
  6
BYLAYER
 10
10.1562940174
 20
14.3606293638
 40
1.8613308494
100
AcDbArc
 50
96.5152369285
 51
97.9730900827
  0
ARC
  5
30F
100
AcDbEntity
  8
0
100
AcDbCircle
 62
7
  6
BYLAYER
 10
10.1525238236
 20
14.3624654142
 40
1.8569716671
100
AcDbArc
 50
74.1184891326
 51
76.2401850109
  0
ARC
  5
310
100
AcDbEntity
  8
0
100
AcDbCircle
 62
7
  6
BYLAYER
 10
10.1680197476
 20
14.3475977493
 40
1.8183848875
100
AcDbArc
 50
319.746728236
 51
323.6137951208
  0
ARC
  5
311
100
AcDbEntity
  8
0
100
AcDbCircle
 62
7
  6
BYLAYER
 10
10.2135195698
 20
14.2612137412
 40
2.9210501456
100
AcDbArc
 50
301.136496254
 51
303.4565585332
  0
ARC
  5
312
100
AcDbEntity
  8
0
100
AcDbCircle
 62
7
  6
BYLAYER
 10
10.1925121634
 20
14.2498081204
 40
2.9197965932
100
AcDbArc
 50
288.3809375118
 51
289.1365547803
  0
ARC
  5
313
100
AcDbEntity
  8
0
100
AcDbCircle
 62
7
  6
BYLAYER
 10
10.2213683394
 20
14.2641338737
 40
2.9192798582
100
AcDbArc
 50
303.1331520753
 51
307.470571971
  0
ARC
  5
314
100
AcDbEntity
  8
0
100
AcDbCircle
 62
7
  6
BYLAYER
 10
10.2170829507
 20
14.2559943
 40
2.9147414222
100
AcDbArc
 50
299.1585556179
 51
300.5343162224
  0
ARC
  5
315
100
AcDbEntity
  8
0
100
AcDbCircle
 62
7
  6
BYLAYER
 10
10.2596742336
 20
14.283658877
 40
2.9072368441
100
AcDbArc
 50
320.8085986415
 51
322.5083718218
  0
ARC
  5
316
100
AcDbEntity
  8
0
100
AcDbCircle
 62
7
  6
BYLAYER
 10
10.2654534296
 20
14.2904810456
 40
2.906635214
100
AcDbArc
 50
324.5205237251
 51
324.9797314537
  0
ARC
  5
317
100
AcDbEntity
  8
0
100
AcDbCircle
 62
7
  6
BYLAYER
 10
10.2676592776
 20
14.2888892572
 40
2.9039152634
100
AcDbArc
 50
324.9804759284
 51
326.3403270196
  0
ARC
  5
318
100
AcDbEntity
  8
0
100
AcDbCircle
 62
7
  6
BYLAYER
 10
10.2249125849
 20
14.2426298005
 40
2.8992523653
100
AcDbArc
 50
300.5352259176
 51
301.1336830094
  0
ARC
  5
319
100
AcDbEntity
  8
0
100
AcDbCircle
 62
7
  6
BYLAYER
 10
10.2385203276
 20
14.3012675971
 40
2.9347591457
100
AcDbArc
 50
317.7969732328
 51
320.8031317163
  0
ARC
  5
31A
100
AcDbEntity
  8
0
100
AcDbCircle
 62
7
  6
BYLAYER
 10
10.2542282684
 20
14.2978542711
 40
2.9200634265
100
AcDbArc
 50
326.3399792219
 51
327.0388103593
  0
ARC
  5
31B
100
AcDbEntity
  8
0
100
AcDbCircle
 62
7
  6
BYLAYER
 10
10.286333664
 20
14.3636382656
 40
2.9109297399
100
AcDbArc
 50
356.5552533917
 51
358.2584192306
  0
ARC
  5
31C
100
AcDbEntity
  8
0
100
AcDbCircle
 62
7
  6
BYLAYER
 10
10.289921082
 20
14.3359522979
 40
2.9031039704
100
AcDbArc
 50
345.0055746382
 51
345.8314322892
  0
ARC
  5
31D
100
AcDbEntity
  8
0
100
AcDbCircle
 62
7
  6
BYLAYER
 10
10.1887395755
 20
14.3380044988
 40
1.9015913664
100
AcDbArc
 50
139.6722845774
 51
140.269777433
  0
ARC
  5
31E
100
AcDbEntity
  8
0
100
AcDbCircle
 62
7
  6
BYLAYER
 10
10.1823649531
 20
14.3423210734
 40
1.8943316699
100
AcDbArc
 50
139.4806267253
 51
140.256014107
  0
CIRCLE
  5
31F
100
AcDbEntity
  8
0
100
AcDbCircle
 62
7
  6
BYLAYER
 10
10.1475145326
 20
14.3719912473
 40
8.0
  0
CIRCLE
  5
320
100
AcDbEntity
  8
0
100
AcDbCircle
 62
7
  6
BYLAYER
 10
10.1475145326
 20
14.3719912473
 40
7.5
  0
CIRCLE
  5
321
100
AcDbEntity
  8
0
100
AcDbCircle
 62
7
  6
BYLAYER
 10
10.1475145326
 20
14.3719912473
 40
7.0
  0
CIRCLE
  5
322
100
AcDbEntity
  8
0
100
AcDbCircle
 62
7
  6
BYLAYER
 10
10.1475145326
 20
14.3719912473
 40
3.3601520154
  0
ARC
  5
323
100
AcDbEntity
  8
0
100
AcDbCircle
 62
7
  6
BYLAYER
 10
10.0637950257
 20
14.3773481055
 40
3.1308586872
100
AcDbArc
 50
358.9172751346
 51
359.2315076145
  0
ARC
  5
324
100
AcDbEntity
  8
0
100
AcDbCircle
 62
7
  6
BYLAYER
 10
10.1475145326
 20
14.3719912473
 40
3.0999999942
100
AcDbArc
 50
133.2648529062
 51
120.2724376256
  0
ARC
  5
325
100
AcDbEntity
  8
0
100
AcDbCircle
 62
7
  6
BYLAYER
 10
10.166199063
 20
14.4242936941
 40
1.9035933082
100
AcDbArc
 50
247.1031705882
 51
254.234588753
  0
ARC
  5
326
100
AcDbEntity
  8
0
100
AcDbCircle
 62
7
  6
BYLAYER
 10
10.1771010543
 20
14.4153030104
 40
1.9006147594
100
AcDbArc
 50
236.5804544416
 51
238.1853350452
  0
ARC
  5
327
100
AcDbEntity
  8
0
100
AcDbCircle
 62
7
  6
BYLAYER
 10
10.1748968091
 20
14.4162636494
 40
1.9002181717
100
AcDbArc
 50
235.0650065866
 51
237.4167239018
  0
ARC
  5
328
100
AcDbEntity
  8
0
100
AcDbCircle
 62
7
  6
BYLAYER
 10
10.1110816138
 20
14.4091729239
 40
1.9002181717
100
AcDbArc
 50
311.2188527413
 51
313.5705700563
  0
ARC
  5
329
100
AcDbEntity
  8
0
100
AcDbCircle
 62
7
  6
BYLAYER
 10
10.1760031309
 20
14.4135416132
 40
1.8985392026
100
AcDbArc
 50
238.1854680546
 51
238.9546040919
  0
ARC
  5
32A
100
AcDbEntity
  8
0
100
AcDbCircle
 62
7
  6
BYLAYER
 10
10.1487319984
 20
14.4128532836
 40
1.8890017102
100
AcDbArc
 50
274.6478384233
 51
275.9616454076
  0
ARC
  5
32B
100
AcDbEntity
  8
0
100
AcDbCircle
 62
7
  6
BYLAYER
 10
10.1272852388
 20
14.4036361335
 40
1.8856488609
100
AcDbArc
 50
293.5441160071
 51
294.8138163987
  0
ARC
  5
32C
100
AcDbEntity
  8
0
100
AcDbCircle
 62
7
  6
BYLAYER
 10
10.1366544088
 20
14.4060889558
 40
1.8838552391
100
AcDbArc
 50
296.3468698746
 51
297.389824013
  0
ARC
  5
32D
100
AcDbEntity
  8
0
100
AcDbCircle
 62
7
  6
BYLAYER
 10
10.1135834175
 20
14.3700149863
 40
1.88203419
100
AcDbArc
 50
12.5002794006
 51
14.2562184706
  0
ARC
  5
32E
100
AcDbEntity
  8
0
100
AcDbCircle
 62
7
  6
BYLAYER
 10
10.1291842433
 20
14.399301147
 40
1.8809161831
100
AcDbArc
 50
292.9641412162
 51
293.5438331601
  0
ARC
  5
32F
100
AcDbEntity
  8
0
100
AcDbCircle
 62
7
  6
BYLAYER
 10
10.1415370118
 20
14.3967781355
 40
1.8733419865
100
AcDbArc
 50
297.3882372821
 51
300.0958944926
  0
ARC
  5
330
100
AcDbEntity
  8
0
100
AcDbCircle
 62
7
  6
BYLAYER
 10
10.1544410903
 20
14.3685290925
 40
1.8513002932
100
AcDbArc
 50
226.0700285574
 51
228.1686895354
  0
ARC
  5
331
100
AcDbEntity
  8
0
100
AcDbCircle
 62
7
  6
BYLAYER
 10
10.1321389711
 20
14.4037880538
 40
1.8147801828
100
AcDbArc
 50
122.8616079471
 51
124.4319218289
  0
CIRCLE
  5
332
100
AcDbEntity
  8
0
100
AcDbCircle
 62
7
  6
BYLAYER
 10
10.1475145326
 20
14.3719912473
 40
0.9
  0
ARC
  5
333
100
AcDbEntity
  8
0
100
AcDbCircle
 62
7
  6
BYLAYER
 10
10.1482985057
 20
14.4597906721
 40
3.1347733006
100
AcDbArc
 50
268.2873978924
 51
268.9529841433
  0
ARC
  5
334
100
AcDbEntity
  8
0
100
AcDbCircle
 62
7
  6
BYLAYER
 10
10.1400622301
 20
14.4824376967
 40
2.9393289403
100
AcDbArc
 50
89.9727418601
 51
91.1407291263
  0
ARC
  5
335
100
AcDbEntity
  8
0
100
AcDbCircle
 62
7
  6
BYLAYER
 10
10.1397569584
 20
14.4988531088
 40
2.9229107042
100
AcDbArc
 50
91.1411523305
 51
91.8656891003
  0
ARC
  5
336
100
AcDbEntity
  8
0
100
AcDbCircle
 62
7
  6
BYLAYER
 10
10.2125391582
 20
14.4160456696
 40
3.1255004879
100
AcDbArc
 50
209.3850731702
 51
210.299478262
  0
ARC
  5
337
100
AcDbEntity
  8
0
100
AcDbCircle
 62
7
  6
BYLAYER
 10
10.2165085618
 20
14.3762884292
 40
3.1160423933
100
AcDbArc
 50
176.5518732679
 51
177.3959682077
  0
ARC
  5
338
100
AcDbEntity
  8
0
100
AcDbCircle
 62
7
  6
BYLAYER
 10
10.2064179201
 20
14.3769269083
 40
3.105931618
100
AcDbArc
 50
174.7095410956
 51
176.5524344899
  0
ARC
  5
339
100
AcDbEntity
  8
0
100
AcDbCircle
 62
7
  6
BYLAYER
 10
10.2065206525
 20
14.4106191055
 40
2.9796562139
100
AcDbArc
 50
24.4698642044
 51
26.4783440423
  0
ARC
  5
33A
100
AcDbEntity
  8
0
100
AcDbCircle
 62
7
  6
BYLAYER
 10
10.2504709814
 20
14.4094922073
 40
2.9404558345
100
AcDbArc
 50
23.2324931834
 51
23.6224780858
  0
ARC
  5
33B
100
AcDbEntity
  8
0
100
AcDbCircle
 62
7
  6
BYLAYER
 10
10.2672837648
 20
14.4166332292
 40
2.922189501
100
AcDbArc
 50
21.4975324949
 51
23.2338667308
  0
ARC
  5
33C
100
AcDbEntity
  8
0
100
AcDbCircle
 62
7
  6
BYLAYER
 10
10.2767896316
 20
14.4117782471
 40
2.9147414223
100
AcDbArc
 50
15.3124017718
 51
16.6881623763
  0
ARC
  5
33D
100
AcDbEntity
  8
0
100
AcDbCircle
 62
7
  6
BYLAYER
 10
10.2909501786
 20
14.4159705476
 40
2.8999734199
100
AcDbArc
 50
16.6891631108
 51
17.4676196666
  0
ARC
  5
33E
100
AcDbEntity
  8
0
100
AcDbCircle
 62
7
  6
BYLAYER
 10
10.1904625427
 20
14.4039225284
 40
1.9016792813
100
AcDbArc
 50
212.5995887837
 51
219.2102219038
  0
ARC
  5
33F
100
AcDbEntity
  8
0
100
AcDbCircle
 62
7
  6
BYLAYER
 10
10.186296286
 20
14.4089421996
 40
1.9016221903
100
AcDbArc
 50
219.4704841096
 51
223.308364394
  0
ARC
  5
340
100
AcDbEntity
  8
0
100
AcDbCircle
 62
7
  6
BYLAYER
 10
10.1776110132
 20
14.4160818596
 40
1.9015457015
100
AcDbArc
 50
235.2074044329
 51
236.5805545067
  0
ARC
  5
341
100
AcDbEntity
  8
0
100
AcDbCircle
 62
7
  6
BYLAYER
 10
10.1923026549
 20
14.3805383058
 40
1.8939190791
100
AcDbArc
 50
192.1229881579
 51
196.6518528337
  0
ARC
  5
342
100
AcDbEntity
  8
0
100
AcDbCircle
 62
7
  6
BYLAYER
 10
10.1906902822
 20
14.382841896
 40
1.8926618976
100
AcDbArc
 50
198.8965972374
 51
200.4221221852
  0
ARC
  5
343
100
AcDbEntity
  8
0
100
AcDbCircle
 62
7
  6
BYLAYER
 10
10.1859811662
 20
14.3917746208
 40
1.8915707744
100
AcDbArc
 50
201.8706215238
 51
203.2580522108
  0
ARC
  5
344
100
AcDbEntity
  8
0
100
AcDbCircle
 62
7
  6
BYLAYER
 10
10.1810265421
 20
14.3897914381
 40
1.8862339883
100
AcDbArc
 50
200.2240359504
 51
201.8707797499
  0
ARC
  5
345
100
AcDbEntity
  8
0
100
AcDbCircle
 62
7
  6
BYLAYER
 10
10.1839748546
 20
14.373965756
 40
1.8848062961
100
AcDbArc
 50
174.3389854129
 51
176.3232402113
  0
ARC
  5
346
100
AcDbEntity
  8
0
100
AcDbCircle
 62
7
  6
BYLAYER
 10
10.1838418694
 20
14.3758431205
 40
1.8846110159
100
AcDbArc
 50
176.3761694247
 51
178.017605227
  0
ARC
  5
347
100
AcDbEntity
  8
0
100
AcDbCircle
 62
7
  6
BYLAYER
 10
10.1888463844
 20
14.5047775476
 40
2.9109297399
100
AcDbArc
 50
72.7090995454
 51
74.4122653843
  0
ARC
  5
348
100
AcDbEntity
  8
0
100
AcDbCircle
 62
7
  6
BYLAYER
 10
10.256358627
 20
14.4682377324
 40
2.9047053491
100
AcDbArc
 50
40.6747979968
 51
42.4937919387
  0
SPLINE
  5
349
100
AcDbEntity
  8
0
100
AcDbSpline
 62
7
  6
BYLAYER
 70
0
 71
3
 72
27
 73
23
 74
0
 42
0.0000001
 43
0.0000001
 44
0.0000000001
 40
0.0
 40
0.0
 40
0.0
 40
0.0
 40
0.0625392839
 40
0.1249898936
 40
0.1562213781
 40
0.1874663949
 40
0.2499756009
 40
0.3125301252
 40
0.3750286091
 40
0.4062690474
 40
0.4375007551
 40
0.4999623778
 40
0.5625058735
 40
0.6250428751
 40
0.6874925371
 40
0.718723002
 40
0.7499664833
 40
0.8124730011
 40
0.8750271242
 40
0.937527244
 40
0.9687683891
 40
1.0
 40
1.0
 40
1.0
 40
1.0
 10
7.1029248383
 20
14.244129589
 30
0.0
 10
7.1097715561
 20
14.0795684798
 30
0.0
 10
7.1494631829
 20
13.7512044521
 30
0.0
 10
7.2640431889
 20
13.3540359865
 30
0.0
 10
7.3944928721
 20
13.0516045786
 30
0.0
 10
7.5498233778
 20
12.7610294585
 30
0.0
 10
7.7877648565
 20
12.4227410099
 30
0.0
 10
8.1334217888
 20
12.0671485276
 30
0.0
 10
8.4648883381
 20
11.8198387602
 30
0.0
 10
8.7510705724
 20
11.6566187581
 30
0.0
 10
9.049906259
 20
11.518114276
 30
0.0
 10
9.4438282855
 20
11.3925172454
 30
0.0
 10
9.9342769378
 20
11.3190027002
 30
0.0
 10
10.4301575457
 20
11.3233950462
 30
0.0
 10
10.8376828566
 20
11.3930291553
 30
0.0
 10
11.1527597168
 20
11.4889215989
 30
0.0
 10
11.4588290563
 20
11.6108890451
 30
0.0
 10
11.8215096359
 20
11.8096573618
 30
0.0
 10
12.2133873032
 20
12.1135438137
 30
0.0
 10
12.4961220611
 20
12.4153855112
 30
0.0
 10
12.6902478763
 20
12.6815378332
 30
0.0
 10
12.775814218
 20
12.8223481533
 30
0.0
 10
12.8155310539
 20
12.8943752008
 30
0.0
  0
SPLINE
  5
34A
100
AcDbEntity
  8
0
100
AcDbSpline
 62
7
  6
BYLAYER
 70
0
 71
3
 72
25
 73
21
 74
0
 42
0.0000001
 43
0.0000001
 44
0.0000000001
 40
0.0
 40
0.0
 40
0.0
 40
0.0
 40
0.062519666
 40
0.1250724327
 40
0.1875525475
 40
0.21878932
 40
0.2500290667
 40
0.3125210232
 40
0.3750764345
 40
0.4375867424
 40
0.4688334025
 40
0.5000679419
 40
0.5625290892
 40
0.6250771453
 40
0.6876123782
 40
0.7500452031
 40
0.8124487658
 40
0.8749423885
 40
0.9374850136
 40
1.0
 40
1.0
 40
1.0
 40
1.0
 10
10.9234709387
 20
12.6933002078
 30
0.0
 10
11.0179586821
 20
12.7373859941
 30
0.0
 10
11.1998581673
 20
12.8418105245
 30
0.0
 10
11.4428860906
 20
13.0407860934
 30
0.0
 10
11.6153872462
 20
13.2379721446
 30
0.0
 10
11.7312971871
 20
13.4114415207
 30
0.0
 10
11.8314408409
 20
13.5944871327
 30
0.0
 10
11.9266322813
 20
13.8385796843
 30
0.0
 10
11.9909315668
 20
14.1460674425
 30
0.0
 10
12.0016643191
 20
14.407869695
 30
0.0
 10
11.9836182241
 20
14.6157683888
 30
0.0
 10
11.9474493272
 20
14.8212201528
 30
0.0
 10
11.8686009019
 20
15.0710319032
 30
0.0
 10
11.7255891739
 20
15.3507494589
 30
0.0
 10
11.5387077955
 20
15.603268998
 30
0.0
 10
11.3124088085
 20
15.8210275632
 30
0.0
 10
11.0513950183
 20
15.9955878399
 30
0.0
 10
10.7646520775
 20
16.1236840524
 30
0.0
 10
10.4607012718
 20
16.2030133802
 30
0.0
 10
10.251776705
 20
16.2215918618
 30
0.0
 10
10.1475183483
 20
16.2218323683
 30
0.0
  0
SPLINE
  5
34B
100
AcDbEntity
  8
0
100
AcDbSpline
 62
7
  6
BYLAYER
 70
0
 71
3
 72
24
 73
20
 74
0
 42
0.0000001
 43
0.0000001
 44
0.0000000001
 40
0.0
 40
0.0
 40
0.0
 40
0.0
 40
0.062458844
 40
0.1249915048
 40
0.1875551219
 40
0.2500816595
 40
0.3125334625
 40
0.3437596057
 40
0.3749928963
 40
0.4374810992
 40
0.5000349431
 40
0.5625935264
 40
0.6250893722
 40
0.6875041883
 40
0.7499151643
 40
0.8123963436
 40
0.8749356305
 40
0.9374820537
 40
1.0
 40
1.0
 40
1.0
 40
1.0
 10
12.8155310539
 20
12.8943752008
 30
0.0
 10
12.879131443
 20
13.0097154122
 30
0.0
 10
12.991093758
 20
13.2493293823
 30
0.0
 10
13.1113145687
 20
13.6271949427
 30
0.0
 10
13.1828966958
 20
14.017419101
 30
0.0
 10
13.2045537085
 20
14.4133575819
 30
0.0
 10
13.179898665
 20
14.7428845284
 30
0.0
 10
13.1338529695
 20
15.0024217376
 30
0.0
 10
13.0703807031
 20
15.2583294679
 30
0.0
 10
12.9595453455
 20
15.569755396
 30
0.0
 10
12.7799764319
 20
15.923424568
 30
0.0
 10
12.5572743907
 20
16.2517031176
 30
0.0
 10
12.2949011835
 20
16.5488722616
 30
0.0
 10
11.9961571792
 20
16.8091354158
 30
0.0
 10
11.6650029461
 20
17.026595631
 30
0.0
 10
11.3083046479
 20
17.1993495604
 30
0.0
 10
10.9322971673
 20
17.3255306009
 30
0.0
 10
10.5433531106
 20
17.4032332336
 30
0.0
 10
10.2793527145
 20
17.4213819475
 30
0.0
 10
10.1475152347
 20
17.4216989715
 30
0.0
  0
SPLINE
  5
34C
100
AcDbEntity
  8
0
100
AcDbSpline
 62
7
  6
BYLAYER
 70
0
 71
3
 72
11
 73
7
 74
0
 42
0.0000001
 43
0.0000001
 44
0.0000000001
 40
0.0
 40
0.0
 40
0.0
 40
0.0
 40
0.2497124629
 40
0.4995253659
 40
0.7496557435
 40
1.0
 40
1.0
 40
1.0
 40
1.0
 10
13.1967801728
 20
14.4052353447
 30
0.0
 10
13.1958458248
 20
14.5292438539
 30
0.0
 10
13.1783959361
 20
14.7774969424
 30
0.0
 10
13.1049525723
 20
15.143436638
 30
0.0
 10
12.9873782052
 20
15.4979235403
 30
0.0
 10
12.8812161245
 20
15.7234226491
 30
0.0
 10
12.8216755927
 20
15.8325639664
 30
0.0
  0
SPLINE
  5
34D
100
AcDbEntity
  8
0
100
AcDbSpline
 62
7
  6
BYLAYER
 70
0
 71
3
 72
12
 73
8
 74
0
 42
0.0000001
 43
0.0000001
 44
0.0000000001
 40
0.0
 40
0.0
 40
0.0
 40
0.0
 40
0.2502536716
 40
0.5001769892
 40
0.6251086554
 40
0.7500459081
 40
1.0
 40
1.0
 40
1.0
 40
1.0
 10
12.7559289309
 20
15.9472562407
 30
0.0
 10
12.6881937755
 20
16.0598383713
 30
0.0
 10
12.5384750164
 20
16.2765657635
 30
0.0
 10
12.3182349167
 20
16.521196644
 30
0.0
 10
12.1239686915
 20
16.6978693969
 30
0.0
 10
11.9181808655
 20
16.8609355718
 30
0.0
 10
11.7519131233
 20
16.9676358201
 30
0.0
 10
11.6371615958
 20
17.0313034603
 30
0.0
  0
SPLINE
  5
34E
100
AcDbEntity
  8
0
100
AcDbSpline
 62
7
  6
BYLAYER
 70
0
 71
3
 72
37
 73
33
 74
0
 42
0.0000001
 43
0.0000001
 44
0.0000000001
 40
0.0
 40
0.0
 40
0.0
 40
0.0
 40
0.0001699012
 40
0.0006427387
 40
0.0014142794
 40
0.0024802685
 40
0.0038364577
 40
0.0054786086
 40
0.0096038905
 40
0.0148224431
 40
0.0210993925
 40
0.0283796503
 40
0.0365928228
 40
0.0555356158
 40
0.0773660037
 40
0.1015778882
 40
0.1278255002
 40
0.1557964576
 40
0.1851835444
 40
0.247294381
 40
0.3129086728
 40
0.3811052899
 40
0.4514100237
 40
0.5235177429
 40
0.5601224198
 40
0.5971165602
 40
0.6725556767
 40
0.7111746869
 40
0.7504316507
 40
0.8310253828
 40
0.9145724177
 40
1.0
 40
1.0
 40
1.0
 40
1.0
 10
8.2864684077
 20
14.4865919728
 30
0.0
 10
8.2864354891
 20
14.4867611715
 30
0.0
 10
8.2865912083
 20
14.4874177063
 30
0.0
 10
8.2866498647
 20
14.4888383817
 30
0.0
 10
8.2869538843
 20
14.4911721002
 30
0.0
 10
8.2873011272
 20
14.4943896457
 30
0.0
 10
8.2877961166
 20
14.4984848368
 30
0.0
 10
8.2886753284
 20
14.5056576086
 30
0.0
 10
8.2901100863
 20
14.5167112062
 30
0.0
 10
8.2922666423
 20
14.5324115994
 30
0.0
 10
8.2950086412
 20
14.5512622151
 30
0.0
 10
8.2983565112
 20
14.5730940867
 30
0.0
 10
8.3039202891
 20
14.6075853905
 30
0.0
 10
8.3124440513
 20
14.6565499825
 30
0.0
 10
8.3248696959
 20
14.7213020031
 30
0.0
 10
8.3400770964
 20
14.7930537472
 30
0.0
 10
8.3581094146
 20
14.8705596571
 30
0.0
 10
8.3790544217
 20
14.9527614672
 30
0.0
 10
8.4116202485
 20
15.0695190614
 30
0.0
 10
8.4601683215
 20
15.2214253484
 30
0.0
 10
8.531269698
 20
15.4071673258
 30
0.0
 10
8.6180017959
 20
15.5954298426
 30
0.0
 10
8.7232336609
 20
15.7816819356
 30
0.0
 10
8.8280469887
 20
15.9305881309
 30
0.0
 10
8.9253660732
 20
16.0420488113
 30
0.0
 10
9.0338231532
 20
16.1476198392
 30
0.0
 10
9.1575041756
 20
16.2396096303
 30
0.0
 10
9.2929008188
 20
16.3164281315
 30
0.0
 10
9.4389387208
 20
16.3840811828
 30
0.0
 10
9.6359410218
 20
16.4481744903
 30
0.0
 10
9.8855229478
 20
16.4940966852
 30
0.0
 10
10.0570996451
 20
16.5049900129
 30
0.0
 10
10.1437689488
 20
16.5051816191
 30
0.0
  0
SPLINE
  5
34F
100
AcDbEntity
  8
0
100
AcDbSpline
 62
7
  6
BYLAYER
 70
0
 71
3
 72
19
 73
15
 74
0
 42
0.0000001
 43
0.0000001
 44
0.0000000001
 40
0.0
 40
0.0
 40
0.0
 40
0.0
 40
0.2124793152
 40
0.4051972387
 40
0.5744581709
 40
0.7181064637
 40
0.7795702548
 40
0.8334233263
 40
0.8791273332
 40
0.916452759
 40
0.945830174
 40
0.9681346105
 40
0.9850701751
 40
1.0
 40
1.0
 40
1.0
 40
1.0
 10
10.143781692
 20
16.5051287592
 30
0.0
 10
10.1461935187
 20
16.4847760902
 30
0.0
 10
10.1503614235
 20
16.4459054123
 30
0.0
 10
10.1537730155
 20
16.3905773965
 30
0.0
 10
10.1528063039
 20
16.3417021132
 30
0.0
 10
10.1474841093
 20
16.3059196393
 30
0.0
 10
10.1427179939
 20
16.2814024935
 30
0.0
 10
10.1397211057
 20
16.2661635255
 30
0.0
 10
10.1375828717
 20
16.2531256671
 30
0.0
 10
10.1368671038
 20
16.2422822317
 30
0.0
 10
10.1375343481
 20
16.2336795013
 30
0.0
 10
10.1394201008
 20
16.2272692098
 30
0.0
 10
10.1426728517
 20
16.2229150086
 30
0.0
 10
10.1457952247
 20
16.2218709524
 30
0.0
 10
10.147234384
 20
16.2218193797
 30
0.0
  0
SPLINE
  5
350
100
AcDbEntity
  8
0
100
AcDbSpline
 62
7
  6
BYLAYER
 70
0
 71
3
 72
28
 73
24
 74
0
 42
0.0000001
 43
0.0000001
 44
0.0000000001
 40
0.0
 40
0.0
 40
0.0
 40
0.0
 40
0.0083500534
 40
0.0117089226
 40
0.014919645
 40
0.0222087045
 40
0.0321906569
 40
0.0452615342
 40
0.0611343689
 40
0.0794503817
 40
0.1000256409
 40
0.1229020391
 40
0.1480904812
 40
0.2052304713
 40
0.2706233446
 40
0.3428955416
 40
0.4206440286
 40
0.5025076684
 40
0.5871542508
 40
0.6731724858
 40
0.7589911875
 40
0.8430538922
 40
1.0
 40
1.0
 40
1.0
 40
1.0
 10
10.1475133653
 20
17.4216989757
 30
0.0
 10
10.1449331184
 20
17.421705533
 30
0.0
 10
10.1411805997
 20
17.4213276747
 30
0.0
 10
10.1371521927
 20
17.4189370582
 30
0.0
 10
10.1343757308
 20
17.4155538744
 30
0.0
 10
10.1332464449
 20
17.4090047921
 30
0.0
 10
10.1348764023
 20
17.3997536705
 30
0.0
 10
10.1380055578
 20
17.3881341407
 30
0.0
 10
10.1418822189
 20
17.3740557166
 30
0.0
 10
10.1454593069
 20
17.3574949762
 30
0.0
 10
10.1477433377
 20
17.3385232841
 30
0.0
 10
10.1490260868
 20
17.3173454734
 30
0.0
 10
10.1497554625
 20
17.2848397044
 30
0.0
 10
10.1495147346
 20
17.2391896932
 30
0.0
 10
10.1489680869
 20
17.178996178
 30
0.0
 10
10.1478710927
 20
17.1124391675
 30
0.0
 10
10.1463822578
 20
17.0408004294
 30
0.0
 10
10.1453632143
 20
16.9653258381
 30
0.0
 10
10.145968782
 20
16.8872873254
 30
0.0
 10
10.148022402
 20
16.8080577517
 30
0.0
 10
10.1497778035
 20
16.7289982682
 30
0.0
 10
10.1494361012
 20
16.62799251
 30
0.0
 10
10.1463641948
 20
16.5535579682
 30
0.0
 10
10.143781692
 20
16.5051287592
 30
0.0
  0
ENDSEC
  0
SECTION
  2
OBJECTS
  0
DICTIONARY
  5
C
100
AcDbDictionary
280
0
281
1
  3
ACAD_GROUP
350
D
  3
ACAD_MLINESTYLE
350
17
  3
ACAD_LAYOUT
350
1A
  3
ACAD_PLOTSETTINGS
350
19
  3
ACAD_PLOTSTYLENAME
350
E
  0
DICTIONARY
  5
D
102
{ACAD_REACTORS
330
C
102
}
100
AcDbDictionary
280
0
281
1
  0
ACDBDICTIONARYWDFLT
  5
E
102
{ACAD_REACTORS
330
C
102
}
100
AcDbDictionary
281
1
  3
Normal
350
F
100
AcDbDictionaryWithDefault
340
F
  0
DICTIONARY
  5
17
102
{ACAD_REACTORS
330
C
102
}
100
AcDbDictionary
280
0
281
1
  3
Standard
350
18
  0
DICTIONARY
  5
19
102
{ACAD_REACTORS
330
C
102
}
100
AcDbDictionary
281
1
  0
DICTIONARY
  5
1A
102
{ACAD_REACTORS
330
C
102
}
100
AcDbDictionary
281
1
  3
Model
350
351
  3
Layout1
350
352
  0
ACDBPLACEHOLDER
  5
F
102
{ACAD_REACTORS
330
E
102
}
  0
MLINESTYLE
  5
18
102
{ACAD_REACTORS
330
17
102
}
100
AcDbMlineStyle
  2
STANDARD
 70
0
  3

 62
256
 51
90.0
 52
90.0
 71
2
 49
0.5
 62
256
  6
BYLAYER
 49
-0.5
 62
256
  6
BYLAYER
  0
LAYOUT
  5
351
102
{ACAD_REACTORS
330
1A
102
}
100
AcDbPlotSettings
  1

  2
none_device
  4

  6

 40
0.0
 41
0.0
 42
0.0
 43
0.0
 44
210.0
 45
297.0
 46
0.0
 47
0.0
 48
0.0
 49
0.0
140
0.0
141
0.0
142
1.0
143
1.0
 70
1024
 72
1
 73
0
 74
0
  7

 75
0
147
1.0
148
0.0
149
0.0
100
AcDbLayout
  1
Model
 70
0
 71
0
 10
0.0
 20
0.0
 11
210.0
 21
297.0
 12
0.0
 22
0.0
 32
0.0
 14
0.0
 24
0.0
 34
0.0
 15
0.0
 25
0.0
 35
0.0
146
0.0
 13
0.0
 23
0.0
 33
0.0
 16
1.0
 26
0.0
 36
0.0
 17
0.0
 27
1.0
 37
0.0
 76
0
330
210
345
0
346
0
  0
LAYOUT
  5
352
102
{ACAD_REACTORS
330
1A
102
}
100
AcDbPlotSettings
  1

  2
none_device
  4

  6

 40
0.0
 41
0.0
 42
0.0
 43
0.0
 44
210.0
 45
297.0
 46
0.0
 47
0.0
 48
0.0
 49
0.0
140
0.0
141
0.0
142
1.0
143
1.0
 70
0
 72
1
 73
0
 74
0
  7

 75
0
147
1.0
148
0.0
149
0.0
100
AcDbLayout
  1
Layout1
 70
0
 71
1
 10
0.0
 20
0.0
 11
210.0
 21
297.0
 12
0.0
 22
0.0
 32
0.0
 14
0.0
 24
0.0
 34
0.0
 15
0.0
 25
0.0
 35
0.0
146
0.0
 13
0.0
 23
0.0
 33
0.0
 16
1.0
 26
0.0
 36
0.0
 17
0.0
 27
1.0
 37
0.0
 76
0
330
211
345
0
346
0
  0
ENDSEC
  0
EOF
