999
DXF file: C:\Users\sesa63760\Dev\_Creo\CAD\MCADID0004752_3D-CAD\drw0001_4.dxf
999
Pro/ENGINEER 2019471 by Parametric Technology Corporation
  0
SECTION
  2
HEADER
  9
$ACADVER
  1
AC1024
  9
$DWGCODEPAGE
  3
ANSI_1252
  9
$EXTMAX
 10
59.0749194532
 20
83.5488146552
 30
0.0
  9
$EXTMIN
 10
0.0
 20
0.0
 30
0.0
  9
$LIMMIN
 10
0.0
 20
0.0
  9
$LIMMAX
 10
59.0749194532
 20
83.5488146552
  9
$VIEWCTR
 10
29.5374597266
 20
41.7744073276
  9
$VIEWSIZE
 40
83.5488146552
  9
$CLAYER
  8
0
  9
$LTSCALE
 40
5.4461449553
  9
$CELTYPE
  6
BYLAYER
  9
$DIMSCALE
 40
1.0
  9
$DIMASZ
 40
0.7032728506
  9
$DIMEXO
 40
1.0
  9
$DIMDLI
 40
3.76279106
  9
$DIMEXE
 40
1.0
  9
$DIMCEN
 40
0.8911873563
  9
$DIMLFAC
 40
1.0
  9
$DIMBLK
  1
_FILLED
  9
$DIMALT
 70
0
  9
$DIMALTF
 40
0.0393700787
  9
$DIMTXT
 40
0.9845819909
  9
$DIMTOL
 70
1
  9
$DIMLIM
 70
0
  9
$DIMTFAC
 40
1.0
  9
$DIMTP
 40
0.01
  9
$DIMTM
 40
0.01
  9
$DIMGAP
 40
0.625
  9
$DIMDSEP
 70
46
  9
$AUNITS
 70
0
  9
$PDMODE
 70
3
  9
$PDSIZE
 40
0.3125
  9
$HANDSEED
  5
2ED
  9
$TILEMODE
 70
1
  9
$MEASUREMENT
 70
1
  9
$INSUNITS
 70
4
  0
ENDSEC
  0
SECTION
  2
CLASSES
  0
CLASS
  1
ACDBDICTIONARYWDFLT
  2
AcDbDictionaryWithDefault
  3
AutoCAD 2000
 90
0
 91
1
280
0
281
0
  0
CLASS
  1
ACDBPLACEHOLDER
  2
AcDbPlaceHolder
  3
AutoCAD 2000
 90
0
 91
1
280
0
281
0
  0
CLASS
  1
LAYOUT
  2
AcDbLayout
  3
AutoCAD 2000
 90
0
 91
0
280
0
281
0
  0
ENDSEC
  0
SECTION
  2
TABLES
  0
TABLE
  2
VPORT
  5
8
100
AcDbSymbolTable
 70
2
  0
VPORT
  5
1F4
100
AcDbSymbolTableRecord
100
AcDbViewportTableRecord
  2
*ACTIVE
 70
0
 10
0.0
 20
0.0
 11
1.0
 21
1.0
 12
29.5374597266
 22
41.7744073276
 13
0.0
 23
0.0
 14
1.0
 24
1.0
 15
0.0
 25
0.0
 16
0.0
 26
0.0
 36
1.0
 17
0.0
 27
0.0
 37
0.0
 40
83.5488146552
 41
0.7070707071
 42
50.0
 43
0.0
 44
0.0
 50
0.0
 51
0.0
 71
0
 72
100
 73
1
 74
1
 75
0
 76
0
 77
0
 78
0
  0
ENDTAB
  0
TABLE
  2
LTYPE
  5
5
100
AcDbSymbolTable
 70
6
  0
LTYPE
  5
14
100
AcDbSymbolTableRecord
100
AcDbLinetypeTableRecord
  2
BYBLOCK
 70
0
  3

 72
65
 73
0
 40
0.0
  0
LTYPE
  5
15
100
AcDbSymbolTableRecord
100
AcDbLinetypeTableRecord
  2
BYLAYER
 70
0
  3

 72
65
 73
0
 40
0.0
  0
LTYPE
  5
16
100
AcDbSymbolTableRecord
100
AcDbLinetypeTableRecord
  2
CONTINUOUS
 70
64
  3
Solid line
 72
65
 73
0
 40
0.0
  0
LTYPE
  5
1F5
100
AcDbSymbolTableRecord
100
AcDbLinetypeTableRecord
  2
CENTER
 70
64
  3
____ _ ____ _ ____ _ ____ _ ____ _ ____ _ ____
 72
65
 73
4
 40
0.6
 49
0.375
 74
0
 49
-0.075
 74
0
 49
0.075
 74
0
 49
-0.075
 74
0
  0
LTYPE
  5
1F6
100
AcDbSymbolTableRecord
100
AcDbLinetypeTableRecord
  2
HIDDEN
 70
64
  3
- - - - - - - - - - - - - - - - - - - -
 72
65
 73
2
 40
0.2
 49
0.1
 74
0
 49
-0.1
 74
0
  0
LTYPE
  5
1F7
100
AcDbSymbolTableRecord
100
AcDbLinetypeTableRecord
  2
PHANTOM
 70
64
  3
_____ _ _ _____ _ _ _____ _ _ _____
 72
65
 73
6
 40
0.8
 49
0.45
 74
0
 49
-0.05
 74
0
 49
0.1
 74
0
 49
-0.05
 74
0
 49
0.1
 74
0
 49
-0.05
 74
0
  0
LTYPE
  5
1F8
100
AcDbSymbolTableRecord
100
AcDbLinetypeTableRecord
  2
DOT
 70
64
  3
. . . . . . . . . . . . . . . . . . . .
 72
65
 73
2
 40
0.2
 49
0.1
 74
0
 49
-0.1
 74
0
  0
LTYPE
  5
1F9
100
AcDbSymbolTableRecord
100
AcDbLinetypeTableRecord
  2
DASHED
 70
64
  3
- - - - - - - - - - - - - - - - - - - -
 72
65
 73
2
 40
0.2
 49
0.1
 74
0
 49
-0.1
 74
0
  0
ENDTAB
  0
TABLE
  2
LAYER
  5
2
100
AcDbSymbolTable
 70
36
  0
LAYER
  5
10
100
AcDbSymbolTableRecord
100
AcDbLayerTableRecord
  2
0
 70
0
 62
7
  6
CONTINUOUS
370
-3
390
F
  0
LAYER
  5
1FA
100
AcDbSymbolTableRecord
100
AcDbLayerTableRecord
  2
DEFAULT_1
 70
0
 62
7
  6
CENTER
370
-3
390
F
  0
LAYER
  5
1FB
100
AcDbSymbolTableRecord
100
AcDbLayerTableRecord
  2
DEFAULT_2
 70
0
 62
7
  6
HIDDEN
370
-3
390
F
  0
LAYER
  5
1FC
100
AcDbSymbolTableRecord
100
AcDbLayerTableRecord
  2
DEFAULT_3
 70
0
 62
7
  6
PHANTOM
370
-3
390
F
  0
LAYER
  5
1FD
100
AcDbSymbolTableRecord
100
AcDbLayerTableRecord
  2
00_COMPONENTS
 70
0
 62
7
  6
CONTINUOUS
370
-3
390
F
  0
LAYER
  5
1FE
100
AcDbSymbolTableRecord
100
AcDbLayerTableRecord
  2
01_1_DEFAULT_DATUMS
 70
0
 62
7
  6
CONTINUOUS
370
-3
390
F
  0
LAYER
  5
1FF
100
AcDbSymbolTableRecord
100
AcDbLayerTableRecord
  2
01_PLANES
 70
0
 62
7
  6
CONTINUOUS
370
-3
390
F
  0
LAYER
  5
200
100
AcDbSymbolTableRecord
100
AcDbLayerTableRecord
  2
02_COORD_SYS
 70
0
 62
7
  6
CONTINUOUS
370
-3
390
F
  0
LAYER
  5
201
100
AcDbSymbolTableRecord
100
AcDbLayerTableRecord
  2
03_AXES
 70
0
 62
7
  6
CONTINUOUS
370
-3
390
F
  0
LAYER
  5
202
100
AcDbSymbolTableRecord
100
AcDbLayerTableRecord
  2
04_POINTS
 70
0
 62
7
  6
CONTINUOUS
370
-3
390
F
  0
LAYER
  5
203
100
AcDbSymbolTableRecord
100
AcDbLayerTableRecord
  2
05_CURVES
 70
0
 62
7
  6
CONTINUOUS
370
-3
390
F
  0
LAYER
  5
204
100
AcDbSymbolTableRecord
100
AcDbLayerTableRecord
  2
06_SURFS
 70
0
 62
7
  6
CONTINUOUS
370
-3
390
F
  0
LAYER
  5
205
100
AcDbSymbolTableRecord
100
AcDbLayerTableRecord
  2
07_COSMETICS
 70
0
 62
7
  6
CONTINUOUS
370
-3
390
F
  0
LAYER
  5
206
100
AcDbSymbolTableRecord
100
AcDbLayerTableRecord
  2
10_NOTES
 70
0
 62
7
  6
CONTINUOUS
370
-3
390
F
  0
LAYER
  5
207
100
AcDbSymbolTableRecord
100
AcDbLayerTableRecord
  2
11_NOTES_PUB
 70
0
 62
7
  6
CONTINUOUS
370
-3
390
F
  0
LAYER
  5
208
100
AcDbSymbolTableRecord
100
AcDbLayerTableRecord
  2
13_REF_GTOL
 70
0
 62
7
  6
CONTINUOUS
370
-3
390
F
  0
LAYER
  5
209
100
AcDbSymbolTableRecord
100
AcDbLayerTableRecord
  2
16_MISC
 70
0
 62
7
  6
CONTINUOUS
370
-3
390
F
  0
LAYER
  5
20A
100
AcDbSymbolTableRecord
100
AcDbLayerTableRecord
  2
17_NO_PRINT
 70
0
 62
7
  6
CONTINUOUS
370
-3
390
F
  0
LAYER
  5
20B
100
AcDbSymbolTableRecord
100
AcDbLayerTableRecord
  2
18_DATUM_CAMS_JOINTS
 70
0
 62
7
  6
CONTINUOUS
370
-3
390
F
  0
LAYER
  5
20C
100
AcDbSymbolTableRecord
100
AcDbLayerTableRecord
  2
19_DATUM_FUNCTIONAL
 70
0
 62
7
  6
CONTINUOUS
370
-3
390
F
  0
LAYER
  5
20D
100
AcDbSymbolTableRecord
100
AcDbLayerTableRecord
  2
20_DATUM_KINEMATIC_SCHEME
 70
0
 62
7
  6
CONTINUOUS
370
-3
390
F
  0
ENDTAB
  0
TABLE
  2
STYLE
  5
3
100
AcDbSymbolTable
 70
1
  0
STYLE
  5
11
100
AcDbSymbolTableRecord
100
AcDbTextStyleTableRecord
  2
STANDARD
 70
0
 40
0.0
 41
1.0
 50
0.0
 71
0
 42
0.2
  3
ARIAL.TTF
  4

  0
STYLE
  5
20E
100
AcDbSymbolTableRecord
100
AcDbTextStyleTableRecord
  2
TEXTSTYLE_1
 70
0
 40
0.0
 41
0.8
 50
0.0
 71
0
 42
0.2
  3
gdt
  4

  0
ENDTAB
  0
TABLE
  2
VIEW
  5
6
100
AcDbSymbolTable
 70
0
  0
ENDTAB
  0
TABLE
  2
UCS
  5
7
100
AcDbSymbolTable
 70
0
  0
ENDTAB
  0
TABLE
  2
APPID
  5
9
100
AcDbSymbolTable
 70
1
  0
APPID
  5
20F
100
AcDbSymbolTableRecord
100
AcDbRegAppTableRecord
  2
ACAD
 70
0
  0
ENDTAB
  0
TABLE
  2
BLOCK_RECORD
  5
1
100
AcDbSymbolTable
 70
0
  0
BLOCK_RECORD
  5
210
100
AcDbSymbolTableRecord
100
AcDbBlockTableRecord
  2
*Model_Space
  0
BLOCK_RECORD
  5
211
100
AcDbSymbolTableRecord
100
AcDbBlockTableRecord
  2
*Paper_Space
  0
BLOCK_RECORD
  5
212
100
AcDbSymbolTableRecord
100
AcDbBlockTableRecord
  2
_FILLED
  0
ENDTAB
  0
TABLE
  2
DIMSTYLE
  5
A
100
AcDbSymbolTable
 70
1
100
AcDbDimStyleTable
 71
0
  0
DIMSTYLE
105
213
100
AcDbSymbolTableRecord
100
AcDbDimStyleTableRecord
  2
STANDARD
 70
0
  3

  4

 40
1.0
 41
0.7032728506
 42
1.0
 43
0.38
 44
1.0
 45
0.0
 46
0.0
 47
0.01
 48
0.01
140
0.9845819909
141
0.09
142
0.0
143
25.4
144
1.0
145
0.0
146
1.0
147
0.625
 71
1
 72
0
 73
0
 74
0
 75
0
 76
0
 77
1
 78
8
 79
2
170
0
171
1
172
0
173
0
174
0
175
0
176
0
177
0
178
0
270
2
179
2
271
2
272
2
273
2
274
2
275
0
280
0
281
0
282
0
283
1
284
8
285
0
286
0
287
3
288
0
340
11
278
46
341
212
342
212
343
212
344
212
  0
ENDTAB
  0
ENDSEC
  0
SECTION
  2
BLOCKS
  0
BLOCK
  5
20
100
AcDbEntity
  8
0
100
AcDbBlockBegin
  2
*Model_Space
 70
0
 10
0.0
 20
0.0
 30
0.0
  3
*Model_Space
  1

  0
ENDBLK
  5
21
100
AcDbEntity
  8
0
100
AcDbBlockEnd
  0
BLOCK
  5
1C
100
AcDbEntity
  8
0
100
AcDbBlockBegin
  2
*Paper_Space
 70
0
 10
0.0
 20
0.0
 30
0.0
  3
*Paper_Space
  1

  0
ENDBLK
  5
1D
100
AcDbEntity
  8
0
100
AcDbBlockEnd
  0
BLOCK
  5
214
100
AcDbEntity
  8
0
100
AcDbBlockBegin
  2
_FILLED
 70
64
 10
0.0
 20
0.0
  3
_FILLED
  1

  0
SOLID
  5
215
100
AcDbEntity
  8
0
  6
BYBLOCK
 62
0
100
AcDbTrace
 10
0.0
 20
0.0
 11
-1.0
 21
0.25
 12
-1.0
 22
-0.25
 13
-1.0
 23
-0.25
  0
ENDBLK
  5
216
100
AcDbEntity
  8
0
  6
BYBLOCK
 62
0
100
AcDbBlockEnd
  0
ENDSEC
  0
SECTION
  2
ENTITIES
  0
LINE
  5
217
100
AcDbEntity
  8
0
100
AcDbLine
 62
7
  6
BYLAYER
 10
6.5794317093
 20
37.26875
 11
6.5794317093
 21
53.76875
  0
LINE
  5
218
100
AcDbEntity
  8
0
100
AcDbLine
 62
7
  6
BYLAYER
 10
7.2162633127
 20
37.26875
 11
7.2162633127
 21
35.46875
  0
LINE
  5
219
100
AcDbEntity
  8
0
100
AcDbLine
 62
7
  6
BYLAYER
 10
7.2763053611
 20
35.46875
 11
7.2763053611
 21
37.26875
  0
LINE
  5
21A
100
AcDbEntity
  8
0
100
AcDbLine
 62
7
  6
BYLAYER
 10
7.6580090223
 20
37.26875
 11
7.6580090223
 21
35.46875
  0
LINE
  5
21B
100
AcDbEntity
  8
0
100
AcDbLine
 62
7
  6
BYLAYER
 10
7.8340434012
 20
35.46875
 11
7.8340434012
 21
37.26875
  0
LINE
  5
21C
100
AcDbEntity
  8
0
100
AcDbLine
 62
7
  6
BYLAYER
 10
7.8794317093
 20
35.11875
 11
7.8794317093
 21
35.26875
  0
LINE
  5
21D
100
AcDbEntity
  8
0
100
AcDbLine
 62
7
  6
BYLAYER
 10
8.2294317093
 20
30.86875
 11
8.2294317093
 21
31.46875
  0
LINE
  5
21E
100
AcDbEntity
  8
0
100
AcDbLine
 62
7
  6
BYLAYER
 10
8.2294317093
 20
32.66875
 11
8.2294317093
 21
33.81875
  0
LWPOLYLINE
  5
21F
100
AcDbEntity
  8
0
100
AcDbPolyline
 62
7
  6
BYLAYER
 90
4
 70
0
 10
9.7989440937
 20
30.86875
 10
9.8422933238
 20
30.8155045871
 10
9.8860475741
 20
30.6922524701
 10
9.8923780806
 20
30.6188030903
  0
LWPOLYLINE
  5
220
100
AcDbEntity
  8
0
100
AcDbPolyline
 62
7
  6
BYLAYER
 90
3
 70
0
 10
9.8567294539
 20
30.7748391984
 10
9.8852643387
 20
30.6966136298
 10
9.8855294417
 20
30.6937120062
  0
LINE
  5
221
100
AcDbEntity
  8
0
100
AcDbLine
 62
7
  6
BYLAYER
 10
8.6281243666
 20
37.26875
 11
8.6281243666
 21
35.26875
  0
LINE
  5
222
100
AcDbEntity
  8
0
100
AcDbLine
 62
7
  6
BYLAYER
 10
8.8294317093
 20
27.51875
 11
8.8294317093
 21
28.91875
  0
LINE
  5
223
100
AcDbEntity
  8
0
100
AcDbLine
 62
7
  6
BYLAYER
 10
9.0794317093
 20
33.81875
 11
9.0794317093
 21
35.11875
  0
LINE
  5
224
100
AcDbEntity
  8
0
100
AcDbLine
 62
7
  6
BYLAYER
 10
9.892371872
 20
30.6187590134
 11
9.892371872
 21
29.4187500082
  0
LINE
  5
225
100
AcDbEntity
  8
0
100
AcDbLine
 62
7
  6
BYLAYER
 10
9.9406873345
 20
30.6187499765
 11
9.9406873345
 21
29.4187500112
  0
LINE
  5
226
100
AcDbEntity
  8
0
100
AcDbLine
 62
7
  6
BYLAYER
 10
11.5017798589
 20
35.26875
 11
11.5017798589
 21
37.26875
  0
LINE
  5
227
100
AcDbEntity
  8
0
100
AcDbLine
 62
7
  6
BYLAYER
 10
11.5364501826
 20
37.26875
 11
11.5364501826
 21
35.46875
  0
LINE
  5
228
100
AcDbEntity
  8
0
100
AcDbLine
 62
7
  6
BYLAYER
 10
11.9614347675
 20
35.46875
 11
11.9614347675
 21
37.26875
  0
LWPOLYLINE
  5
229
100
AcDbEntity
  8
0
100
AcDbPolyline
 62
7
  6
BYLAYER
 90
4
 70
0
 10
9.8923777876
 20
29.4187500276
 10
9.8829890162
 20
29.3294812767
 10
9.8369827742
 20
29.2133138663
 10
9.8044963255
 20
29.1734192479
  0
LINE
  5
22A
100
AcDbEntity
  8
0
100
AcDbLine
 62
7
  6
BYLAYER
 10
12.547450424
 20
37.26875
 11
12.547450424
 21
35.26875
  0
LINE
  5
22B
100
AcDbEntity
  8
0
100
AcDbLine
 62
7
  6
BYLAYER
 10
13.1469599862
 20
35.26875
 11
13.1469599862
 21
37.26875
  0
LINE
  5
22C
100
AcDbEntity
  8
0
100
AcDbLine
 62
7
  6
BYLAYER
 10
13.3859722245
 20
37.26875
 11
13.3859722245
 21
35.46875
  0
LINE
  5
22D
100
AcDbEntity
  8
0
100
AcDbLine
 62
7
  6
BYLAYER
 10
13.5117238841
 20
27.51875
 11
13.5117238841
 21
30.86875
  0
LINE
  5
22E
100
AcDbEntity
  8
0
100
AcDbLine
 62
7
  6
BYLAYER
 10
13.8420368607
 20
35.46875
 11
13.8420368607
 21
37.26875
  0
LINE
  5
22F
100
AcDbEntity
  8
0
100
AcDbLine
 62
7
  6
BYLAYER
 10
14.2691027245
 20
37.26875
 11
14.2691027245
 21
35.26875
  0
LINE
  5
230
100
AcDbEntity
  8
0
100
AcDbLine
 62
7
  6
BYLAYER
 10
14.5794317093
 20
43.163198717
 11
14.5794317154
 21
55.1151389447
  0
LINE
  5
231
100
AcDbEntity
  8
0
100
AcDbLine
 62
7
  6
BYLAYER
 10
14.8897606942
 20
35.26875
 11
14.8897606942
 21
37.26875
  0
LINE
  5
232
100
AcDbEntity
  8
0
100
AcDbLine
 62
7
  6
BYLAYER
 10
15.316826558
 20
37.26875
 11
15.316826558
 21
35.46875
  0
LINE
  5
233
100
AcDbEntity
  8
0
100
AcDbLine
 62
7
  6
BYLAYER
 10
15.6471395345
 20
30.86875
 11
15.6471395345
 21
27.51875
  0
LINE
  5
234
100
AcDbEntity
  8
0
100
AcDbLine
 62
7
  6
BYLAYER
 10
15.7728911942
 20
35.46875
 11
15.7728911942
 21
37.26875
  0
LWPOLYLINE
  5
235
100
AcDbEntity
  8
0
100
AcDbPolyline
 62
7
  6
BYLAYER
 90
5
 70
0
 10
19.3650799533
 20
29.1651651076
 10
19.3632994387
 20
29.1662967642
 10
19.3165704788
 20
29.22199472
 10
19.2728131328
 20
29.345262841
 10
19.2664857839
 20
29.4186725086
  0
LINE
  5
236
100
AcDbEntity
  8
0
100
AcDbLine
 62
7
  6
BYLAYER
 10
16.0119034325
 20
37.26875
 11
16.0119034325
 21
35.26875
  0
LINE
  5
237
100
AcDbEntity
  8
0
100
AcDbLine
 62
7
  6
BYLAYER
 10
16.6114129947
 20
35.26875
 11
16.6114129947
 21
37.26875
  0
LINE
  5
238
100
AcDbEntity
  8
0
100
AcDbLine
 62
7
  6
BYLAYER
 10
17.1974286512
 20
37.26875
 11
17.1974286512
 21
35.46875
  0
LINE
  5
239
100
AcDbEntity
  8
0
100
AcDbLine
 62
7
  6
BYLAYER
 10
17.6224132361
 20
35.46875
 11
17.6224132361
 21
37.26875
  0
LINE
  5
23A
100
AcDbEntity
  8
0
100
AcDbLine
 62
7
  6
BYLAYER
 10
9.07943186
 20
27.26875
 11
20.0794315587
 21
27.26875
  0
LINE
  5
23B
100
AcDbEntity
  8
0
100
AcDbLine
 62
7
  6
BYLAYER
 10
20.3294317093
 20
27.51875
 11
15.6471395345
 21
27.51875
  0
LINE
  5
23C
100
AcDbEntity
  8
0
100
AcDbLine
 62
7
  6
BYLAYER
 10
13.5117238841
 20
27.51875
 11
8.8294317093
 21
27.51875
  0
LINE
  5
23D
100
AcDbEntity
  8
0
100
AcDbLine
 62
7
  6
BYLAYER
 10
19.3024740864
 20
29.2489884742
 11
19.2940112913
 21
29.2855458472
  0
LINE
  5
23E
100
AcDbEntity
  8
0
100
AcDbLine
 62
7
  6
BYLAYER
 10
17.6570835598
 20
37.26875
 11
17.6570835598
 21
35.26875
  0
LINE
  5
23F
100
AcDbEntity
  8
0
100
AcDbLine
 62
7
  6
BYLAYER
 10
19.2181760842
 20
29.4187500105
 11
19.2181760842
 21
30.6187499909
  0
LINE
  5
240
100
AcDbEntity
  8
0
100
AcDbLine
 62
7
  6
BYLAYER
 10
19.2664915467
 20
29.418745975
 11
19.2664915467
 21
30.6187499917
  0
LINE
  5
241
100
AcDbEntity
  8
0
100
AcDbLine
 62
7
  6
BYLAYER
 10
8.8294317093
 20
28.91875
 11
9.5997856375
 21
28.91875
  0
LINE
  5
242
100
AcDbEntity
  8
0
100
AcDbLine
 62
7
  6
BYLAYER
 10
19.5590777814
 20
28.91875
 11
20.3290009133
 21
28.91875
  0
LINE
  5
243
100
AcDbEntity
  8
0
100
AcDbLine
 62
7
  6
BYLAYER
 10
9.0795103962
 20
29.16875
 11
9.8044963255
 21
29.16875
  0
LINE
  5
244
100
AcDbEntity
  8
0
100
AcDbLine
 62
7
  6
BYLAYER
 10
19.3612412454
 20
29.16875
 11
20.0790196435
 21
29.16875
  0
LINE
  5
245
100
AcDbEntity
  8
0
100
AcDbLine
 62
7
  6
BYLAYER
 10
9.9406873345
 20
29.4187500082
 11
9.892371872
 21
29.4187500082
  0
LINE
  5
246
100
AcDbEntity
  8
0
100
AcDbLine
 62
7
  6
BYLAYER
 10
9.9406873345
 20
30.6187570303
 11
9.892371872
 21
30.6187590134
  0
LINE
  5
247
100
AcDbEntity
  8
0
100
AcDbLine
 62
7
  6
BYLAYER
 10
19.2181760842
 20
30.6187499917
 11
19.2664915452
 21
30.6187499917
  0
LINE
  5
248
100
AcDbEntity
  8
0
100
AcDbLine
 62
7
  6
BYLAYER
 10
19.2181760842
 20
29.4187510318
 11
19.2664915467
 21
29.418745975
  0
LINE
  5
249
100
AcDbEntity
  8
0
100
AcDbLine
 62
7
  6
BYLAYER
 10
20.0794317093
 20
33.81875
 11
20.0794317093
 21
35.11875
  0
LINE
  5
24A
100
AcDbEntity
  8
0
100
AcDbLine
 62
7
  6
BYLAYER
 10
20.3294317093
 20
28.91875
 11
20.3294317093
 21
27.51875
  0
LINE
  5
24B
100
AcDbEntity
  8
0
100
AcDbLine
 62
7
  6
BYLAYER
 10
20.530739052
 20
35.26875
 11
20.530739052
 21
37.26875
  0
LINE
  5
24C
100
AcDbEntity
  8
0
100
AcDbLine
 62
7
  6
BYLAYER
 10
20.9294317093
 20
30.86875
 11
20.9294317093
 21
31.46875
  0
LINE
  5
24D
100
AcDbEntity
  8
0
100
AcDbLine
 62
7
  6
BYLAYER
 10
20.9294317093
 20
32.66875
 11
20.9294317093
 21
33.81875
  0
LINE
  5
24E
100
AcDbEntity
  8
0
100
AcDbLine
 62
7
  6
BYLAYER
 10
21.2794317093
 20
35.11875
 11
21.2794317093
 21
35.26875
  0
LINE
  5
24F
100
AcDbEntity
  8
0
100
AcDbLine
 62
7
  6
BYLAYER
 10
21.3248200175
 20
37.26875
 11
21.3248200175
 21
35.46875
  0
LWPOLYLINE
  5
250
100
AcDbEntity
  8
0
100
AcDbPolyline
 62
7
  6
BYLAYER
 90
4
 70
0
 10
19.2664851719
 20
30.6187499737
 10
19.2758895506
 20
30.7080895065
 10
19.3219122677
 20
30.8242356851
 10
19.3543810625
 20
30.8640933855
  0
LINE
  5
251
100
AcDbEntity
  8
0
100
AcDbLine
 62
7
  6
BYLAYER
 10
20.9294317093
 20
30.86875
 11
8.2294317093
 21
30.86875
  0
LINE
  5
252
100
AcDbEntity
  8
0
100
AcDbLine
 62
7
  6
BYLAYER
 10
8.2294317093
 20
31.46875
 11
20.9294317093
 21
31.46875
  0
LINE
  5
253
100
AcDbEntity
  8
0
100
AcDbLine
 62
7
  6
BYLAYER
 10
20.5794317093
 20
31.56875
 11
8.5794317093
 21
31.56875
  0
LINE
  5
254
100
AcDbEntity
  8
0
100
AcDbLine
 62
7
  6
BYLAYER
 10
21.5008543964
 20
35.46875
 11
21.5008543964
 21
37.26875
  0
LINE
  5
255
100
AcDbEntity
  8
0
100
AcDbLine
 62
7
  6
BYLAYER
 10
21.8825580575
 20
37.26875
 11
21.8825580575
 21
35.46875
  0
LINE
  5
256
100
AcDbEntity
  8
0
100
AcDbLine
 62
7
  6
BYLAYER
 10
21.942600106
 20
35.46875
 11
21.942600106
 21
37.26875
  0
LINE
  5
257
100
AcDbEntity
  8
0
100
AcDbLine
 62
7
  6
BYLAYER
 10
22.5794317093
 20
37.26875
 11
22.5794317093
 21
37.51875
  0
LINE
  5
258
100
AcDbEntity
  8
0
100
AcDbLine
 62
7
  6
BYLAYER
 10
20.5794317093
 20
32.56875
 11
8.5794317093
 21
32.56875
  0
LINE
  5
259
100
AcDbEntity
  8
0
100
AcDbLine
 62
7
  6
BYLAYER
 10
20.9294317093
 20
32.66875
 11
8.2294317093
 21
32.66875
  0
LINE
  5
25A
100
AcDbEntity
  8
0
100
AcDbLine
 62
7
  6
BYLAYER
 10
8.2294317093
 20
33.81875
 11
20.9294317093
 21
33.81875
  0
LINE
  5
25B
100
AcDbEntity
  8
0
100
AcDbLine
 62
7
  6
BYLAYER
 10
21.2794317093
 20
35.11875
 11
7.8794317093
 21
35.11875
  0
LINE
  5
25C
100
AcDbEntity
  8
0
100
AcDbLine
 62
7
  6
BYLAYER
 10
21.7529811476
 20
35.26875
 11
20.530739052
 21
35.26875
  0
LINE
  5
25D
100
AcDbEntity
  8
0
100
AcDbLine
 62
7
  6
BYLAYER
 10
17.6570835598
 20
35.26875
 11
16.6114129947
 21
35.26875
  0
LINE
  5
25E
100
AcDbEntity
  8
0
100
AcDbLine
 62
7
  6
BYLAYER
 10
16.0119034325
 20
35.26875
 11
14.8897606942
 21
35.26875
  0
LINE
  5
25F
100
AcDbEntity
  8
0
100
AcDbLine
 62
7
  6
BYLAYER
 10
14.2691027245
 20
35.26875
 11
13.1469599862
 21
35.26875
  0
LINE
  5
260
100
AcDbEntity
  8
0
100
AcDbLine
 62
7
  6
BYLAYER
 10
12.547450424
 20
35.26875
 11
11.5017798589
 21
35.26875
  0
LINE
  5
261
100
AcDbEntity
  8
0
100
AcDbLine
 62
7
  6
BYLAYER
 10
8.6281243666
 20
35.26875
 11
7.4907287031
 21
35.26875
  0
LINE
  5
262
100
AcDbEntity
  8
0
100
AcDbLine
 62
7
  6
BYLAYER
 10
21.942600106
 20
35.46875
 11
21.8825580575
 21
35.46875
  0
LINE
  5
263
100
AcDbEntity
  8
0
100
AcDbLine
 62
7
  6
BYLAYER
 10
21.5008543964
 20
35.46875
 11
21.3248200175
 21
35.46875
  0
LINE
  5
264
100
AcDbEntity
  8
0
100
AcDbLine
 62
7
  6
BYLAYER
 10
17.6224132361
 20
35.46875
 11
17.1974286512
 21
35.46875
  0
LINE
  5
265
100
AcDbEntity
  8
0
100
AcDbLine
 62
7
  6
BYLAYER
 10
15.7728911942
 20
35.46875
 11
15.316826558
 21
35.46875
  0
LINE
  5
266
100
AcDbEntity
  8
0
100
AcDbLine
 62
7
  6
BYLAYER
 10
13.8420368607
 20
35.46875
 11
13.3859722245
 21
35.46875
  0
LINE
  5
267
100
AcDbEntity
  8
0
100
AcDbLine
 62
7
  6
BYLAYER
 10
11.9614347675
 20
35.46875
 11
11.5364501826
 21
35.46875
  0
LINE
  5
268
100
AcDbEntity
  8
0
100
AcDbLine
 62
7
  6
BYLAYER
 10
7.8340434012
 20
35.46875
 11
7.6580090223
 21
35.46875
  0
LINE
  5
269
100
AcDbEntity
  8
0
100
AcDbLine
 62
7
  6
BYLAYER
 10
7.2763053611
 20
35.46875
 11
7.2162633127
 21
35.46875
  0
LINE
  5
26A
100
AcDbEntity
  8
0
100
AcDbLine
 62
7
  6
BYLAYER
 10
22.5794317093
 20
37.26875
 11
6.5794317093
 21
37.26875
  0
LINE
  5
26B
100
AcDbEntity
  8
0
100
AcDbLine
 62
7
  6
BYLAYER
 10
32.7294317093
 20
37.76875
 11
22.8294317094
 21
37.76875
  0
LINE
  5
26C
100
AcDbEntity
  8
0
100
AcDbLine
 62
7
  6
BYLAYER
 10
32.7294317093
 20
37.91875
 11
37.2294317093
 21
37.91875
  0
LINE
  5
26D
100
AcDbEntity
  8
0
100
AcDbLine
 62
7
  6
BYLAYER
 10
38.6294317093
 20
47.01875
 11
37.9294317093
 21
46.76875
  0
LINE
  5
26E
100
AcDbEntity
  8
0
100
AcDbLine
 62
7
  6
BYLAYER
 10
37.4794317093
 20
38.86875
 11
37.9294317093
 21
38.86875
  0
LINE
  5
26F
100
AcDbEntity
  8
0
100
AcDbLine
 62
7
  6
BYLAYER
 10
38.6294317093
 20
41.26875
 11
44.0294317093
 21
41.26875
  0
LINE
  5
270
100
AcDbEntity
  8
0
100
AcDbLine
 62
7
  6
BYLAYER
 10
37.2294317093
 20
42.1330412172
 11
16.8598384932
 21
42.1330412172
  0
LINE
  5
271
100
AcDbEntity
  8
0
100
AcDbLine
 62
7
  6
BYLAYER
 10
45.0294317093
 20
42.76875
 11
45.9144317093
 21
42.76875
  0
LINE
  5
272
100
AcDbEntity
  8
0
100
AcDbLine
 62
7
  6
BYLAYER
 10
50.5444317093
 20
42.76875
 11
51.2294317093
 21
42.76875
  0
LINE
  5
273
100
AcDbEntity
  8
0
100
AcDbLine
 62
7
  6
BYLAYER
 10
37.2294317093
 20
43.1631987245
 11
14.5794317093
 21
43.163198717
  0
LINE
  5
274
100
AcDbEntity
  8
0
100
AcDbLine
 62
7
  6
BYLAYER
 10
32.7294317093
 20
37.91875
 11
32.7294317093
 21
37.768798976
  0
LINE
  5
275
100
AcDbEntity
  8
0
100
AcDbLine
 62
7
  6
BYLAYER
 10
42.4294317093
 20
48.24375
 11
42.6294317093
 21
48.44375
  0
LINE
  5
276
100
AcDbEntity
  8
0
100
AcDbLine
 62
7
  6
BYLAYER
 10
38.6294317093
 20
44.96875
 11
45.0294317093
 21
44.96875
  0
LINE
  5
277
100
AcDbEntity
  8
0
100
AcDbLine
 62
7
  6
BYLAYER
 10
42.0294317093
 20
45.01875
 11
51.7294317093
 21
45.01875
  0
LINE
  5
278
100
AcDbEntity
  8
0
100
AcDbLine
 62
7
  6
BYLAYER
 10
53.8294317093
 20
45.09375
 11
42.6294317093
 21
45.09375
  0
LINE
  5
279
100
AcDbEntity
  8
0
100
AcDbLine
 62
7
  6
BYLAYER
 10
54.0294317093
 20
45.29375
 11
42.4294317093
 21
45.29375
  0
LINE
  5
27A
100
AcDbEntity
  8
0
100
AcDbLine
 62
7
  6
BYLAYER
 10
38.5701053736
 20
39.1539962933
 11
37.9294317093
 21
38.86875
  0
LINE
  5
27B
100
AcDbEntity
  8
0
100
AcDbLine
 62
7
  6
BYLAYER
 10
37.4794317093
 20
38.86875
 11
37.2294317093
 21
38.76875
  0
LINE
  5
27C
100
AcDbEntity
  8
0
100
AcDbLine
 62
7
  6
BYLAYER
 10
37.2294317093
 20
55.7687468981
 11
37.2294317093
 21
37.91875
  0
LINE
  5
27D
100
AcDbEntity
  8
0
100
AcDbLine
 62
7
  6
BYLAYER
 10
37.4794317093
 20
38.86875
 11
37.4794317093
 21
54.66875
  0
LINE
  5
27E
100
AcDbEntity
  8
0
100
AcDbLine
 62
7
  6
BYLAYER
 10
37.9294317093
 20
54.66875
 11
37.9294317093
 21
38.86875
  0
LINE
  5
27F
100
AcDbEntity
  8
0
100
AcDbLine
 62
7
  6
BYLAYER
 10
42.4294317093
 20
48.24375
 11
54.0294317093
 21
48.24375
  0
LINE
  5
280
100
AcDbEntity
  8
0
100
AcDbLine
 62
7
  6
BYLAYER
 10
42.6294317093
 20
48.44375
 11
53.8294317093
 21
48.44375
  0
LINE
  5
281
100
AcDbEntity
  8
0
100
AcDbLine
 62
7
  6
BYLAYER
 10
42.0294317093
 20
48.51875
 11
51.7294317093
 21
48.51875
  0
LINE
  5
282
100
AcDbEntity
  8
0
100
AcDbLine
 62
7
  6
BYLAYER
 10
38.6294317093
 20
48.56875
 11
45.0294317093
 21
48.56875
  0
LINE
  5
283
100
AcDbEntity
  8
0
100
AcDbLine
 62
7
  6
BYLAYER
 10
37.9294317093
 20
46.76875
 11
38.6294317093
 21
46.51875
  0
LINE
  5
284
100
AcDbEntity
  8
0
100
AcDbLine
 62
7
  6
BYLAYER
 10
38.5701053736
 20
54.3835037067
 11
38.5701053736
 21
53.4747482853
  0
LINE
  5
285
100
AcDbEntity
  8
0
100
AcDbLine
 62
7
  6
BYLAYER
 10
38.5701053736
 20
53.2459361114
 11
38.5701053736
 21
46.9975619269
  0
LINE
  5
286
100
AcDbEntity
  8
0
100
AcDbLine
 62
7
  6
BYLAYER
 10
38.5701053736
 20
46.5399376036
 11
38.5701053736
 21
40.2915636416
  0
LINE
  5
287
100
AcDbEntity
  8
0
100
AcDbLine
 62
7
  6
BYLAYER
 10
38.5701053736
 20
40.0627514922
 11
38.5701053736
 21
39.1539962933
  0
LINE
  5
288
100
AcDbEntity
  8
0
100
AcDbLine
 62
7
  6
BYLAYER
 10
38.6294317093
 20
53.1556065864
 11
38.6294317093
 21
47.01875
  0
LINE
  5
289
100
AcDbEntity
  8
0
100
AcDbLine
 62
7
  6
BYLAYER
 10
38.6294317093
 20
46.51875
 11
38.6294317093
 21
40.3818934136
  0
LINE
  5
28A
100
AcDbEntity
  8
0
100
AcDbLine
 62
7
  6
BYLAYER
 10
38.6294317093
 20
40.3254729405
 11
38.6294317093
 21
39.2453565477
  0
LINE
  5
28B
100
AcDbEntity
  8
0
100
AcDbLine
 62
7
  6
BYLAYER
 10
38.6294317093
 20
53.2120270595
 11
38.6294317093
 21
54.2921434523
  0
LINE
  5
28C
100
AcDbEntity
  8
0
100
AcDbLine
 62
7
  6
BYLAYER
 10
45.0294317093
 20
50.76875
 11
45.9144317093
 21
50.76875
  0
LINE
  5
28D
100
AcDbEntity
  8
0
100
AcDbLine
 62
7
  6
BYLAYER
 10
50.5444317093
 20
50.76875
 11
51.2294317093
 21
50.76875
  0
LINE
  5
28E
100
AcDbEntity
  8
0
100
AcDbLine
 62
7
  6
BYLAYER
 10
45.0294317093
 20
42.26875
 11
44.0294317093
 21
41.26875
  0
LINE
  5
28F
100
AcDbEntity
  8
0
100
AcDbLine
 62
7
  6
BYLAYER
 10
38.6294317093
 20
52.26875
 11
44.0294317093
 21
52.26875
  0
LINE
  5
290
100
AcDbEntity
  8
0
100
AcDbLine
 62
7
  6
BYLAYER
 10
42.6294317093
 20
45.09375
 11
42.4294317093
 21
45.29375
  0
LINE
  5
291
100
AcDbEntity
  8
0
100
AcDbLine
 62
7
  6
BYLAYER
 10
41.7294317093
 20
48.21875
 11
41.7294317093
 21
45.31875
  0
LINE
  5
292
100
AcDbEntity
  8
0
100
AcDbLine
 62
7
  6
BYLAYER
 10
42.4294317093
 20
48.24375
 11
42.4294317093
 21
45.29375
  0
LINE
  5
293
100
AcDbEntity
  8
0
100
AcDbLine
 62
7
  6
BYLAYER
 10
14.5794317093
 20
53.1563762352
 11
37.2294317093
 21
53.1563762352
  0
LINE
  5
294
100
AcDbEntity
  8
0
100
AcDbLine
 62
7
  6
BYLAYER
 10
37.4794317093
 20
54.66875
 11
37.9294317093
 21
54.66875
  0
LINE
  5
295
100
AcDbEntity
  8
0
100
AcDbLine
 62
7
  6
BYLAYER
 10
44.0294317093
 20
52.26875
 11
44.0294317093
 21
48.56875
  0
LINE
  5
296
100
AcDbEntity
  8
0
100
AcDbLine
 62
7
  6
BYLAYER
 10
44.0294317093
 20
44.96875
 11
44.0294317093
 21
41.26875
  0
LINE
  5
297
100
AcDbEntity
  8
0
100
AcDbLine
 62
7
  6
BYLAYER
 10
45.0294317093
 20
51.2687451488
 11
45.0294317093
 21
48.56875
  0
LINE
  5
298
100
AcDbEntity
  8
0
100
AcDbLine
 62
7
  6
BYLAYER
 10
45.0294317093
 20
44.96875
 11
45.0294317093
 21
42.2687548512
  0
LINE
  5
299
100
AcDbEntity
  8
0
100
AcDbLine
 62
7
  6
BYLAYER
 10
51.7294317093
 20
43.26875
 11
51.2294317093
 21
42.76875
  0
LINE
  5
29A
100
AcDbEntity
  8
0
100
AcDbLine
 62
7
  6
BYLAYER
 10
53.8294317093
 20
45.09375
 11
54.0294317093
 21
45.29375
  0
LINE
  5
29B
100
AcDbEntity
  8
0
100
AcDbLine
 62
7
  6
BYLAYER
 10
14.5794317093
 20
55.1151389447
 11
37.2294317093
 21
55.1151389447
  0
LINE
  5
29C
100
AcDbEntity
  8
0
100
AcDbLine
 62
7
  6
BYLAYER
 10
8.5794340909
 20
55.76875
 11
37.2294317093
 21
55.76875
  0
LINE
  5
29D
100
AcDbEntity
  8
0
100
AcDbLine
 62
7
  6
BYLAYER
 10
37.4794317093
 20
54.66875
 11
37.2294317093
 21
54.76875
  0
LINE
  5
29E
100
AcDbEntity
  8
0
100
AcDbLine
 62
7
  6
BYLAYER
 10
38.5701053736
 20
54.3835037067
 11
37.9294317093
 21
54.66875
  0
LINE
  5
29F
100
AcDbEntity
  8
0
100
AcDbLine
 62
7
  6
BYLAYER
 10
45.0294317093
 20
51.26875
 11
44.0294317093
 21
52.26875
  0
LINE
  5
2A0
100
AcDbEntity
  8
0
100
AcDbLine
 62
7
  6
BYLAYER
 10
51.2294317093
 20
50.76875
 11
51.2294317093
 21
48.51875
  0
LINE
  5
2A1
100
AcDbEntity
  8
0
100
AcDbLine
 62
7
  6
BYLAYER
 10
51.2294317093
 20
45.01875
 11
51.2294317093
 21
42.76875
  0
LINE
  5
2A2
100
AcDbEntity
  8
0
100
AcDbLine
 62
7
  6
BYLAYER
 10
51.7294317093
 20
50.2686408395
 11
51.7294317093
 21
48.51875
  0
LINE
  5
2A3
100
AcDbEntity
  8
0
100
AcDbLine
 62
7
  6
BYLAYER
 10
51.7294317093
 20
45.01875
 11
51.7294317093
 21
43.2688591605
  0
LINE
  5
2A4
100
AcDbEntity
  8
0
100
AcDbLine
 62
7
  6
BYLAYER
 10
51.7294317093
 20
50.26875
 11
51.2294317093
 21
50.76875
  0
LINE
  5
2A5
100
AcDbEntity
  8
0
100
AcDbLine
 62
7
  6
BYLAYER
 10
54.0294317093
 20
48.24375
 11
53.8294317093
 21
48.44375
  0
LINE
  5
2A6
100
AcDbEntity
  8
0
100
AcDbLine
 62
7
  6
BYLAYER
 10
54.0294317093
 20
48.24375
 11
54.0294317093
 21
45.29375
  0
ARC
  5
2A7
100
AcDbEntity
  8
0
100
AcDbCircle
 62
7
  6
BYLAYER
 10
-12.6726297986
 20
129.6361236104
 40
102.9964473055
100
AcDbArc
 50
299.4260032362
 51
299.8360251272
  0
ARC
  5
2A8
100
AcDbEntity
  8
0
100
AcDbCircle
 62
7
  6
BYLAYER
 10
-12.6713272561
 20
-36.0963314798
 40
102.9938142083
100
AcDbArc
 50
60.163980684
 51
60.574002451
  0
ARC
  5
2A9
100
AcDbEntity
  8
0
100
AcDbCircle
 62
7
  6
BYLAYER
 10
23.178027421
 20
111.2048323262
 40
72.788131787
100
AcDbArc
 50
281.6926816803
 51
282.2081563892
  0
ARC
  5
2AA
100
AcDbEntity
  8
0
100
AcDbCircle
 62
7
  6
BYLAYER
 10
23.4002983624
 20
-16.6171626142
 40
71.7147050258
100
AcDbArc
 50
77.787971729
 51
78.3111756423
  0
ARC
  5
2AB
100
AcDbEntity
  8
0
100
AcDbCircle
 62
7
  6
BYLAYER
 10
8.5794342223
 20
53.7687489101
 40
2.000000393
100
AcDbArc
 50
90.0001356052
 51
179.9999687719
  0
ARC
  5
2AC
100
AcDbEntity
  8
0
100
AcDbCircle
 62
7
  6
BYLAYER
 10
19.8726548312
 20
30.6185935336
 40
0.6544787657
100
AcDbArc
 50
172.6189097167
 51
179.9863030838
  0
ARC
  5
2AD
100
AcDbEntity
  8
0
100
AcDbCircle
 62
7
  6
BYLAYER
 10
9.2863554179
 20
30.6186058307
 40
0.6543319325
100
AcDbArc
 50
0.0126219532
 51
7.3280089804
  0
ARC
  5
2AE
100
AcDbEntity
  8
0
100
AcDbCircle
 62
7
  6
BYLAYER
 10
19.869444896
 20
29.4187992384
 40
0.6512688136
100
AcDbArc
 50
180.0043308546
 51
180.4385456923
  0
ARC
  5
2AF
100
AcDbEntity
  8
0
100
AcDbCircle
 62
7
  6
BYLAYER
 10
9.2894352786
 20
29.4187996664
 40
0.6512520578
100
AcDbArc
 50
359.5678673525
 51
359.9956314418
  0
ARC
  5
2B0
100
AcDbEntity
  8
0
100
AcDbCircle
 62
7
  6
BYLAYER
 10
9.3573028497
 20
29.3967042526
 40
0.5795902218
100
AcDbArc
 50
332.5652072335
 51
335.4720702759
  0
ARC
  5
2B1
100
AcDbEntity
  8
0
100
AcDbCircle
 62
7
  6
BYLAYER
 10
19.7979028788
 20
29.3949795122
 40
0.5755466054
100
AcDbArc
 50
204.5236861239
 51
208.7754395729
  0
ARC
  5
2B2
100
AcDbEntity
  8
0
100
AcDbCircle
 62
7
  6
BYLAYER
 10
20.5794317093
 20
32.06875
 40
0.5
100
AcDbArc
 50
270.0
 51
90.0
  0
ARC
  5
2B3
100
AcDbEntity
  8
0
100
AcDbCircle
 62
7
  6
BYLAYER
 10
8.5794317093
 20
32.06875
 40
0.5
100
AcDbArc
 50
90.0
 51
270.0
  0
ARC
  5
2B4
100
AcDbEntity
  8
0
100
AcDbCircle
 62
7
  6
BYLAYER
 10
42.0294317093
 20
48.21875
 40
0.3
100
AcDbArc
 50
90.0
 51
180.0
  0
ARC
  5
2B5
100
AcDbEntity
  8
0
100
AcDbCircle
 62
7
  6
BYLAYER
 10
42.0294317093
 20
45.31875
 40
0.3
100
AcDbArc
 50
180.0
 51
270.0
  0
ARC
  5
2B6
100
AcDbEntity
  8
0
100
AcDbCircle
 62
7
  6
BYLAYER
 10
22.8295273516
 20
37.5186540456
 40
0.2501044793
100
AcDbArc
 50
90.0219108757
 51
179.9780177086
  0
ARC
  5
2B7
100
AcDbEntity
  8
0
100
AcDbCircle
 62
7
  6
BYLAYER
 10
20.0794317093
 20
28.91875
 40
0.25
100
AcDbArc
 50
0.0
 51
90.0
  0
ARC
  5
2B8
100
AcDbEntity
  8
0
100
AcDbCircle
 62
7
  6
BYLAYER
 10
9.0794317093
 20
28.91875
 40
0.25
100
AcDbArc
 50
90.0
 51
180.0
  0
ARC
  5
2B9
100
AcDbEntity
  8
0
100
AcDbCircle
 62
7
  6
BYLAYER
 10
20.4294317093
 20
31.71875
 40
0.25
100
AcDbArc
 50
211.6563736642
 51
269.999963225
  0
ARC
  5
2BA
100
AcDbEntity
  8
0
100
AcDbCircle
 62
7
  6
BYLAYER
 10
8.7294317093
 20
31.71875
 40
0.25
100
AcDbArc
 50
270.000036775
 51
328.3436263358
  0
ARC
  5
2BB
100
AcDbEntity
  8
0
100
AcDbCircle
 62
7
  6
BYLAYER
 10
8.7294317093
 20
32.41875
 40
0.25
100
AcDbArc
 50
31.6563789643
 51
89.9999873184
  0
ARC
  5
2BC
100
AcDbEntity
  8
0
100
AcDbCircle
 62
7
  6
BYLAYER
 10
20.0794317093
 20
27.51875
 40
0.25
100
AcDbArc
 50
269.9999654747
 51
360.0
  0
ARC
  5
2BD
100
AcDbEntity
  8
0
100
AcDbCircle
 62
7
  6
BYLAYER
 10
9.0794317093
 20
27.51875
 40
0.25
100
AcDbArc
 50
180.0
 51
270.0000345253
  0
ARC
  5
2BE
100
AcDbEntity
  8
0
100
AcDbCircle
 62
7
  6
BYLAYER
 10
20.4294317093
 20
32.41875
 40
0.25
100
AcDbArc
 50
90.0000126816
 51
148.3436210357
  0
ARC
  5
2BF
100
AcDbEntity
  8
0
100
AcDbCircle
 62
7
  6
BYLAYER
 10
38.5294317093
 20
39.245350839
 40
0.1
100
AcDbArc
 50
294.0000000011
 51
360.0
  0
ARC
  5
2C0
100
AcDbEntity
  8
0
100
AcDbCircle
 62
7
  6
BYLAYER
 10
38.5294317093
 20
54.292149161
 40
0.1
100
AcDbArc
 50
0.0
 51
65.9999999989
  0
SPLINE
  5
2C1
100
AcDbEntity
  8
0
100
AcDbSpline
 62
7
  6
BYLAYER
 70
0
 71
3
 72
17
 73
13
 74
0
 42
0.0000001
 43
0.0000001
 44
0.0000000001
 40
0.0
 40
0.0
 40
0.0
 40
0.0
 40
0.0493037031
 40
0.1703819847
 40
0.3274468017
 40
0.4127839639
 40
0.4999999969
 40
0.5872160487
 40
0.6725532276
 40
0.8296180044
 40
0.9506962771
 40
1.0
 40
1.0
 40
1.0
 40
1.0
 10
50.5444317093
 20
50.76875
 30
0.0
 10
50.471244986
 20
50.7419292568
 30
0.0
 10
50.2172698534
 20
50.6520254018
 30
0.0
 10
49.7219842836
 20
50.5001664268
 30
0.0
 10
49.1584947447
 20
50.3803816717
 30
0.0
 10
48.6402460885
 20
50.321800922
 30
0.0
 10
48.2294316936
 20
50.305971115
 30
0.0
 10
47.8186172706
 20
50.3218009052
 30
0.0
 10
47.300368624
 20
50.3803816785
 30
0.0
 10
46.7368791393
 20
50.5001664335
 30
0.0
 10
46.2415936112
 20
50.6520253859
 30
0.0
 10
45.9876184619
 20
50.7419292456
 30
0.0
 10
45.9144317093
 20
50.76875
 30
0.0
  0
SPLINE
  5
2C2
100
AcDbEntity
  8
0
100
AcDbSpline
 62
7
  6
BYLAYER
 70
0
 71
3
 72
17
 73
13
 74
0
 42
0.0000001
 43
0.0000001
 44
0.0000000001
 40
0.0
 40
0.0
 40
0.0
 40
0.0
 40
0.0493037012
 40
0.1703819825
 40
0.3274468019
 40
0.4127839624
 40
0.499999995
 40
0.587216048
 40
0.6725532262
 40
0.8296180019
 40
0.9506962751
 40
1.0
 40
1.0
 40
1.0
 40
1.0
 10
45.9144317093
 20
42.76875
 30
0.0
 10
45.9876184298
 20
42.7955707421
 30
0.0
 10
46.2415935591
 20
42.8854745961
 30
0.0
 10
46.7368791288
 20
43.0373335723
 30
0.0
 10
47.3003686685
 20
43.1571183271
 30
0.0
 10
47.8186173252
 20
43.215699076
 30
0.0
 10
48.2294317186
 20
43.2315288853
 30
0.0
 10
48.6402461418
 20
43.2156990958
 30
0.0
 10
49.1584947873
 20
43.157118322
 30
0.0
 10
49.7219842701
 20
43.0373335691
 30
0.0
 10
50.2172698006
 20
42.8854746164
 30
0.0
 10
50.4712449537
 20
42.7955707555
 30
0.0
 10
50.5444317093
 20
42.76875
 30
0.0
  0
SPLINE
  5
2C3
100
AcDbEntity
  8
0
100
AcDbSpline
 62
7
  6
BYLAYER
 70
0
 71
3
 72
11
 73
7
 74
0
 42
0.0000001
 43
0.0000001
 44
0.0000000001
 40
0.0
 40
0.0
 40
0.0
 40
0.0
 40
0.2333426736
 40
0.4810194242
 40
0.7388432976
 40
1.0
 40
1.0
 40
1.0
 40
1.0
 10
38.6294317093
 20
40.3818934136
 30
0.0
 10
38.6294317093
 20
40.3731319772
 30
0.0
 10
38.6261953117
 20
40.3549970131
 30
0.0
 10
38.6135982577
 20
40.3299300466
 30
0.0
 10
38.5945041219
 20
40.3080372963
 30
0.0
 10
38.5786144917
 20
40.2964454866
 30
0.0
 10
38.5701087391
 20
40.2915663911
 30
0.0
  0
SPLINE
  5
2C4
100
AcDbEntity
  8
0
100
AcDbSpline
 62
7
  6
BYLAYER
 70
0
 71
3
 72
11
 73
7
 74
0
 42
0.0000001
 43
0.0000001
 44
0.0000000001
 40
0.0
 40
0.0
 40
0.0
 40
0.0
 40
0.2611362341
 40
0.5189824116
 40
0.7666787818
 40
1.0
 40
1.0
 40
1.0
 40
1.0
 10
38.570092203
 20
53.2459468491
 30
0.0
 10
38.5785989851
 20
53.2410671631
 30
0.0
 10
38.5944942846
 20
53.2294763173
 30
0.0
 10
38.6135926562
 20
53.2075786594
 30
0.0
 10
38.6261979739
 20
53.1825082845
 30
0.0
 10
38.6294317093
 20
53.1643689644
 30
0.0
 10
38.6294317093
 20
53.1556065864
 30
0.0
  0
SPLINE
  5
2C5
100
AcDbEntity
  8
0
100
AcDbSpline
 62
7
  6
BYLAYER
 70
0
 71
3
 72
13
 73
9
 74
0
 42
0.0000001
 43
0.0000001
 44
0.0000000001
 40
0.0
 40
0.0
 40
0.0
 40
0.0
 40
0.2951435911
 40
0.4335039823
 40
0.5625846978
 40
0.7925000371
 40
0.8980278516
 40
1.0
 40
1.0
 40
1.0
 40
1.0
 10
7.6580090223
 20
35.46875
 30
0.0
 10
7.6580090223
 20
35.4415290626
 30
0.0
 10
7.66418675
 20
35.4011038904
 30
0.0
 10
7.6846452701
 20
35.3531825939
 30
0.0
 10
7.7097423238
 20
35.3146108156
 30
0.0
 10
7.7432551931
 20
35.2855509295
 30
0.0
 10
7.7812822364
 20
35.2711415947
 30
0.0
 10
7.8004964208
 20
35.26875
 30
0.0
 10
7.8099012581
 20
35.26875
 30
0.0
  0
SPLINE
  5
2C6
100
AcDbEntity
  8
0
100
AcDbSpline
 62
7
  6
BYLAYER
 70
0
 71
3
 72
13
 73
9
 74
0
 42
0.0000001
 43
0.0000001
 44
0.0000000001
 40
0.0
 40
0.0
 40
0.0
 40
0.0
 40
0.1019542656
 40
0.2074566517
 40
0.4374084788
 40
0.5665606187
 40
0.7049588921
 40
1.0
 40
1.0
 40
1.0
 40
1.0
 10
21.3489620694
 20
35.26875
 30
0.0
 10
21.3583652717
 20
35.26875
 30
0.0
 10
21.3775759138
 20
35.2711377311
 30
0.0
 10
21.4156022979
 20
35.2855467885
 30
0.0
 10
21.4491261727
 20
35.3146080878
 30
0.0
 10
21.4742196789
 20
35.353198445
 30
0.0
 10
21.4946833949
 20
35.40111783
 30
0.0
 10
21.5008543964
 20
35.4415384732
 30
0.0
 10
21.5008543964
 20
35.46875
 30
0.0
  0
SPLINE
  5
2C7
100
AcDbEntity
  8
0
100
AcDbSpline
 62
7
  6
BYLAYER
 70
0
 71
3
 72
11
 73
7
 74
0
 42
0.0000001
 43
0.0000001
 44
0.0000000001
 40
0.0
 40
0.0
 40
0.0
 40
0.0
 40
0.2314915562
 40
0.4727161218
 40
0.7297748385
 40
1.0
 40
1.0
 40
1.0
 40
1.0
 10
21.7529811804
 20
35.26875
 30
0.0
 10
21.7764529013
 20
35.26875
 30
0.0
 10
21.824888499
 20
35.2783501063
 30
0.0
 10
21.8878407527
 20
35.3207051779
 30
0.0
 10
21.932000798
 20
35.3872773117
 30
0.0
 10
21.942600106
 20
35.4413509464
 30
0.0
 10
21.942600106
 20
35.46875
 30
0.0
  0
SPLINE
  5
2C8
100
AcDbEntity
  8
0
100
AcDbSpline
 62
7
  6
BYLAYER
 70
0
 71
3
 72
11
 73
7
 74
0
 42
0.0000001
 43
0.0000001
 44
0.0000000001
 40
0.0
 40
0.0
 40
0.0
 40
0.0
 40
0.2703205273
 40
0.5272762955
 40
0.7684608431
 40
1.0
 40
1.0
 40
1.0
 40
1.0
 10
7.2162633127
 20
35.46875
 30
0.0
 10
7.2162633127
 20
35.4413413444
 30
0.0
 10
7.2268658359
 20
35.3872677547
 30
0.0
 10
7.2710278416
 20
35.320704984
 30
0.0
 10
7.3339695718
 20
35.2783545483
 30
0.0
 10
7.382405635
 20
35.26875
 30
0.0
 10
7.4058821244
 20
35.26875
 30
0.0
  0
SPLINE
  5
2C9
100
AcDbEntity
  8
0
100
AcDbSpline
 62
7
  6
BYLAYER
 70
0
 71
3
 72
11
 73
7
 74
0
 42
0.0000001
 43
0.0000001
 44
0.0000000001
 40
0.0
 40
0.0
 40
0.0
 40
0.0
 40
0.2574538349
 40
0.5044264579
 40
0.7484980978
 40
1.0
 40
1.0
 40
1.0
 40
1.0
 10
38.5700922031
 20
40.0627458318
 30
0.0
 10
38.578353244
 20
40.0645341832
 30
0.0
 10
38.5941834301
 20
40.0702816391
 30
0.0
 10
38.6138650622
 20
40.0857844535
 30
0.0
 10
38.6266457746
 20
40.1071898781
 30
0.0
 10
38.6294317093
 20
40.1236364239
 30
0.0
 10
38.6294317093
 20
40.1318934136
 30
0.0
  0
SPLINE
  5
2CA
100
AcDbEntity
  8
0
100
AcDbSpline
 62
7
  6
BYLAYER
 70
0
 71
3
 72
9
 73
5
 74
0
 42
0.0000001
 43
0.0000001
 44
0.0000000001
 40
0.0
 40
0.0
 40
0.0
 40
0.0
 40
0.5190886447
 40
1.0
 40
1.0
 40
1.0
 40
1.0
 10
19.2181951595
 20
29.4138144325
 30
0.0
 10
19.2185463089
 20
29.3679273123
 30
0.0
 10
19.2285597563
 20
29.2793367438
 30
0.0
 10
19.256624166
 20
29.1947632468
 30
0.0
 10
19.2742764717
 20
29.1560877361
 30
0.0
  0
SPLINE
  5
2CB
100
AcDbEntity
  8
0
100
AcDbSpline
 62
7
  6
BYLAYER
 70
0
 71
3
 72
11
 73
7
 74
0
 42
0.0000001
 43
0.0000001
 44
0.0000000001
 40
0.0
 40
0.0
 40
0.0
 40
0.0
 40
0.3038757773
 40
0.5673953081
 40
0.7960829776
 40
1.0
 40
1.0
 40
1.0
 40
1.0
 10
19.2934287348
 20
29.117924043
 30
0.0
 10
19.3103304332
 20
29.0871859
 30
0.0
 10
19.3474050695
 20
29.0325344583
 30
0.0
 10
19.41452855
 20
28.9686474566
 30
0.0
 10
19.4853726405
 20
28.9287179353
 30
0.0
 10
19.5355382221
 20
28.9187414224
 30
0.0
 10
19.5590777814
 20
28.91875
 30
0.0
  0
SPLINE
  5
2CC
100
AcDbEntity
  8
0
100
AcDbSpline
 62
7
  6
BYLAYER
 70
0
 71
3
 72
14
 73
10
 74
0
 42
0.0000001
 43
0.0000001
 44
0.0000000001
 40
0.0
 40
0.0
 40
0.0
 40
0.0
 40
0.1391861137
 40
0.2805805218
 40
0.420183901
 40
0.5545075048
 40
0.7957917953
 40
0.9024921199
 40
1.0
 40
1.0
 40
1.0
 40
1.0
 10
9.5997896069
 20
28.9187500001
 30
0.0
 10
9.5997892172
 20
28.9353104028
 30
0.0
 10
9.6027651559
 20
28.9687507386
 30
0.0
 10
9.6156148795
 20
29.0173353267
 30
0.0
 10
9.6372617819
 20
29.0621139215
 30
0.0
 10
9.6737298909
 20
29.1117148312
 30
0.0
 10
9.7212001318
 20
29.1471994075
 30
0.0
 10
9.7715595179
 20
29.164580812
 30
0.0
 10
9.7957882257
 20
29.1679901642
 30
0.0
 10
9.8073766467
 20
29.1685412049
 30
0.0
  0
SPLINE
  5
2CD
100
AcDbEntity
  8
0
100
AcDbSpline
 62
7
  6
BYLAYER
 70
0
 71
3
 72
9
 73
5
 74
0
 42
0.0000001
 43
0.0000001
 44
0.0000000001
 40
0.0
 40
0.0
 40
0.0
 40
0.0
 40
0.2383026113
 40
1.0
 40
1.0
 40
1.0
 40
1.0
 10
9.8901767937
 20
30.86875
 30
0.0
 10
9.8955879473
 20
30.8561182181
 30
0.0
 10
9.9164628371
 20
30.8023428938
 30
0.0
 10
9.9297323807
 20
30.7456299
 30
0.0
 10
9.9353429037
 20
30.7020655284
 30
0.0
  0
SPLINE
  5
2CE
100
AcDbEntity
  8
0
100
AcDbSpline
 62
7
  6
BYLAYER
 70
0
 71
3
 72
15
 73
11
 74
0
 42
0.0000001
 43
0.0000001
 44
0.0000000001
 40
0.0
 40
0.0
 40
0.0
 40
0.0
 40
0.1372991475
 40
0.2768732118
 40
0.4150622456
 40
0.5487670853
 40
0.674878874
 40
0.7924038101
 40
0.9007084735
 40
1.0
 40
1.0
 40
1.0
 40
1.0
 10
19.5590752015
 20
28.9187500001
 30
0.0
 10
19.5590755399
 20
28.9345319132
 30
0.0
 10
19.5563676219
 20
28.9664055067
 30
0.0
 10
19.5446781861
 20
29.0128959401
 30
0.0
 10
19.5249502185
 20
29.0561679358
 30
0.0
 10
19.4987951403
 20
29.0940125103
 30
0.0
 10
19.4676285905
 20
29.1245734271
 30
0.0
 10
19.4336152773
 20
29.1469292069
 30
0.0
 10
19.3989025632
 20
29.1613427788
 30
0.0
 10
19.3753859607
 20
29.1662212141
 30
0.0
 10
19.3640472941
 20
29.1675226417
 30
0.0
  0
SPLINE
  5
2CF
100
AcDbEntity
  8
0
100
AcDbSpline
 62
7
  6
BYLAYER
 70
0
 71
3
 72
9
 73
5
 74
0
 42
0.0000001
 43
0.0000001
 44
0.0000000001
 40
0.0
 40
0.0
 40
0.0
 40
0.0
 40
0.5190888673
 40
1.0
 40
1.0
 40
1.0
 40
1.0
 10
9.9406688136
 20
29.4138878804
 30
0.0
 10
9.9403227131
 20
29.3679894427
 30
0.0
 10
9.9303145015
 20
29.2793759129
 30
0.0
 10
9.902246384
 20
29.194780262
 30
0.0
 10
9.8845902784
 20
29.1560950411
 30
0.0
  0
SPLINE
  5
2D0
100
AcDbEntity
  8
0
100
AcDbSpline
 62
7
  6
BYLAYER
 70
0
 71
3
 72
11
 73
7
 74
0
 42
0.0000001
 43
0.0000001
 44
0.0000000001
 40
0.0
 40
0.0
 40
0.0
 40
0.0
 40
0.3055099782
 40
0.569536559
 40
0.7975917414
 40
1.0
 40
1.0
 40
1.0
 40
1.0
 10
9.8717099011
 20
29.1296645353
 30
0.0
 10
9.8548328103
 20
29.0971718961
 30
0.0
 10
9.817407959
 20
29.0393836658
 30
0.0
 10
9.7487234805
 20
28.9717201644
 30
0.0
 10
9.675868566
 20
28.9293777092
 30
0.0
 10
9.6240435637
 20
28.918741169
 30
0.0
 10
9.5997856375
 20
28.91875
 30
0.0
  0
SPLINE
  5
2D1
100
AcDbEntity
  8
0
100
AcDbSpline
 62
7
  6
BYLAYER
 70
0
 71
3
 72
39
 73
35
 74
0
 42
0.0000001
 43
0.0000001
 44
0.0000000001
 40
0.0
 40
0.0
 40
0.0
 40
0.0
 40
0.0078005152
 40
0.0156126775
 40
0.0234278182
 40
0.0312428467
 40
0.0468607901
 40
0.0624848312
 40
0.0781104281
 40
0.0937365066
 40
0.1249847866
 40
0.156235499
 40
0.1874871083
 40
0.218739137
 40
0.2499913549
 40
0.3124938385
 40
0.3749974141
 40
0.4999996811
 40
0.6250021727
 40
0.687505851
 40
0.7500083961
 40
0.7812606376
 40
0.8125126807
 40
0.8437642953
 40
0.8750150157
 40
0.9062633038
 40
0.9218893895
 40
0.9375149973
 40
0.9531390454
 40
0.9687570225
 40
0.9765720573
 40
0.9843872521
 40
0.992199356
 40
1.0
 40
1.0
 40
1.0
 40
1.0
 10
13.5117238841
 20
27.51875
 30
0.0
 10
13.5117238841
 20
27.5129197568
 30
0.0
 10
13.5140425147
 20
27.5011717462
 30
0.0
 10
13.5227808246
 20
27.4857819832
 30
0.0
 10
13.5344823534
 20
27.4726282559
 30
0.0
 10
13.5523619484
 20
27.4575227425
 30
0.0
 10
13.5772811983
 20
27.4420740447
 30
0.0
 10
13.6089408382
 20
27.4270071088
 30
0.0
 10
13.6416294299
 20
27.41432831
 30
0.0
 10
13.6860397315
 20
27.3997934206
 30
0.0
 10
13.7425874933
 20
27.3850349028
 30
0.0
 10
13.8112513375
 20
27.370966971
 30
0.0
 10
13.8804088335
 20
27.3595849982
 30
0.0
 10
13.9498710218
 20
27.350278827
 30
0.0
 10
14.0427541194
 20
27.3401006411
 30
0.0
 10
14.1591986119
 20
27.3307994981
 30
0.0
 10
14.3458312812
 20
27.3212449939
 30
0.0
 10
14.5794311674
 20
27.3170863019
 30
0.0
 10
14.8130311237
 20
27.3212450209
 30
0.0
 10
14.999664097
 20
27.3307993119
 30
0.0
 10
15.1161087199
 20
27.3401005904
 30
0.0
 10
15.2089918958
 20
27.3502787364
 30
0.0
 10
15.2784541182
 20
27.3595849037
 30
0.0
 10
15.3476116271
 20
27.3709669204
 30
0.0
 10
15.4162755032
 20
27.3850347738
 30
0.0
 10
15.4728232836
 20
27.3997932937
 30
0.0
 10
15.5172336121
 20
27.4143281593
 30
0.0
 10
15.5499222396
 20
27.4270069229
 30
0.0
 10
15.5815819009
 20
27.4420738982
 30
0.0
 10
15.6065012279
 20
27.4575225371
 30
0.0
 10
15.6243808842
 20
27.4726280923
 30
0.0
 10
15.6360824174
 20
27.4857818095
 30
0.0
 10
15.6448208963
 20
27.5011715821
 30
0.0
 10
15.6471395345
 20
27.5129196606
 30
0.0
 10
15.6471395345
 20
27.51875
 30
0.0
  0
SPLINE
  5
2D2
100
AcDbEntity
  8
0
100
AcDbSpline
 62
7
  6
BYLAYER
 70
0
 71
3
 72
11
 73
7
 74
0
 42
0.0000001
 43
0.0000001
 44
0.0000000001
 40
0.0
 40
0.0
 40
0.0
 40
0.0
 40
0.2515201901
 40
0.4955792554
 40
0.7425312788
 40
1.0
 40
1.0
 40
1.0
 40
1.0
 10
38.6294317093
 20
53.4056065864
 30
0.0
 10
38.6294317093
 20
53.4138624958
 30
0.0
 10
38.6266427395
 20
53.4303048378
 30
0.0
 10
38.613870685
 20
53.4517084371
 30
0.0
 10
38.5941937687
 20
53.4672081767
 30
0.0
 10
38.5783685762
 20
53.472958743
 30
0.0
 10
38.5701087391
 20
53.4747468339
 30
0.0
  0
SPLINE
  5
2D3
100
AcDbEntity
  8
0
100
AcDbSpline
 62
7
  6
BYLAYER
 70
0
 71
3
 72
40
 73
36
 74
0
 42
0.0000001
 43
0.0000001
 44
0.0000000001
 40
0.0
 40
0.0
 40
0.0
 40
0.0
 40
0.0000383209
 40
0.0000801546
 40
0.0001608425
 40
0.0002860008
 40
0.0004566689
 40
0.0006730381
 40
0.0012424867
 40
0.0019928854
 40
0.0029222013
 40
0.0040282366
 40
0.0053087263
 40
0.0083838785
 40
0.0121292009
 40
0.0165262345
 40
0.021557773
 40
0.0334893922
 40
0.0478692296
 40
0.0646452488
 40
0.0837636882
 40
0.1051388939
 40
0.128657052
 40
0.1542033727
 40
0.181664539
 40
0.2419307244
 40
0.3086835138
 40
0.3811603103
 40
0.4586418349
 40
0.540576103
 40
0.6264539669
 40
0.7157536789
 40
0.8079843563
 40
0.9028196356
 40
1.0
 40
1.0
 40
1.0
 40
1.0
 10
22.8294317094
 20
37.76875
 30
0.0
 10
22.8295024511
 20
37.76875
 30
0.0
 10
22.8296918358
 20
37.7688003785
 30
0.0
 10
22.8295968808
 20
37.7691554818
 30
0.0
 10
22.8293482588
 20
37.7695039734
 30
0.0
 10
22.8289006797
 20
37.7700557349
 30
0.0
 10
22.8282527257
 20
37.7707366413
 30
0.0
 10
22.8269962119
 20
37.7719816449
 30
0.0
 10
22.824909247
 20
37.7738998587
 30
0.0
 10
22.8217982329
 20
37.7766508931
 30
0.0
 10
22.8179044357
 20
37.7800098633
 30
0.0
 10
22.8132429194
 20
37.7839772672
 30
0.0
 10
22.8055391734
 20
37.7904817078
 30
0.0
 10
22.794085188
 20
37.8000967781
 30
0.0
 10
22.778237347
 20
37.8134258556
 30
0.0
 10
22.7596754566
 20
37.8291388501
 30
0.0
 10
22.7297060825
 20
37.854765127
 30
0.0
 10
22.6859221134
 20
37.8925911134
 30
0.0
 10
22.6258293142
 20
37.9447028021
 30
0.0
 10
22.5556912827
 20
38.005481312
 30
0.0
 10
22.4756497633
 20
38.0745501022
 30
0.0
 10
22.3860119912
 20
38.1515488073
 30
0.0
 10
22.2872236283
 20
38.2361051877
 30
0.0
 10
22.1797535998
 20
38.3277958938
 30
0.0
 10
22.0204891763
 20
38.4632977468
 30
0.0
 10
21.8027866072
 20
38.6475028676
 30
0.0
 10
21.5204157589
 20
38.8839255299
 30
0.0
 10
21.212339384
 20
39.1391421711
 30
0.0
 10
20.8812474184
 20
39.4105003426
 30
0.0
 10
20.5284637253
 20
39.6943992026
 30
0.0
 10
20.1551667742
 20
39.9875580326
 30
0.0
 10
19.7633016942
 20
40.2877877032
 30
0.0
 10
19.3545458303
 20
40.5931117678
 30
0.0
 10
18.9287255736
 20
40.8997841176
 30
0.0
 10
18.6365463441
 20
41.1005666166
 30
0.0
 10
18.487177995
 20
41.1999292407
 30
0.0
  0
SPLINE
  5
2D4
100
AcDbEntity
  8
0
100
AcDbSpline
 62
7
  6
BYLAYER
 70
0
 71
3
 72
11
 73
7
 74
0
 42
0.0000001
 43
0.0000001
 44
0.0000000001
 40
0.0
 40
0.0
 40
0.0
 40
0.0
 40
0.2446036578
 40
0.4931689976
 40
0.745212578
 40
1.0
 40
1.0
 40
1.0
 40
1.0
 10
18.487177995
 20
41.1999292407
 30
0.0
 10
18.3597304165
 20
41.2847097576
 30
0.0
 10
18.1005439628
 20
41.4523394673
 30
0.0
 10
17.7008397895
 20
41.6927667928
 30
0.0
 10
17.2869766602
 20
41.9214177606
 30
0.0
 10
17.0036411414
 20
42.0641714693
 30
0.0
 10
16.8598384932
 20
42.1330412172
 30
0.0
  0
SPLINE
  5
2D5
100
AcDbEntity
  8
0
100
AcDbSpline
 62
7
  6
BYLAYER
 70
0
 71
3
 72
9
 73
5
 74
0
 42
0.0000001
 43
0.0000001
 44
0.0000000001
 40
0.0
 40
0.0
 40
0.0
 40
0.0
 40
0.260942409
 40
1.0
 40
1.0
 40
1.0
 40
1.0
 10
19.2235993281
 20
30.702673309
 30
0.0
 10
19.2255287389
 20
30.7175440529
 30
0.0
 10
19.2349010511
 20
30.7742570342
 30
0.0
 10
19.2519629699
 20
30.8297103381
 30
0.0
 10
19.2686866318
 20
30.86875
 30
0.0
  0
SPLINE
  5
2D6
100
AcDbEntity
  8
0
100
AcDbSpline
 62
7
  6
BYLAYER
 70
0
 71
3
 72
40
 73
36
 74
0
 42
0.0000001
 43
0.0000001
 44
0.0000000001
 40
0.0
 40
0.0
 40
0.0
 40
0.0
 40
0.0000191987
 40
0.0000764902
 40
0.0001718545
 40
0.0003052717
 40
0.0006861845
 40
0.0012190681
 40
0.0019037623
 40
0.0027401068
 40
0.0037279412
 40
0.0048671052
 40
0.0075987809
 40
0.0109338521
 40
0.0148709118
 40
0.0194070351
 40
0.0245382861
 40
0.0302607128
 40
0.0434632965
 40
0.0589824334
 40
0.0767755007
 40
0.0967927019
 40
0.1189839894
 40
0.1432926414
 40
0.1696537983
 40
0.1980022477
 40
0.2282690633
 40
0.2942487036
 40
0.366956188
 40
0.4456938385
 40
0.5297193874
 40
0.6182436966
 40
0.7104200187
 40
0.8053787561
 40
1.0
 40
1.0
 40
1.0
 40
1.0
 10
6.5794317093
 20
53.76875
 30
0.0
 10
6.5794670896
 20
53.7687127222
 30
0.0
 10
6.579706658
 20
53.7687516127
 30
0.0
 10
6.580125542
 20
53.7686141164
 30
0.0
 10
6.5809028088
 20
53.7685366032
 30
0.0
 10
6.5825039753
 20
53.768267271
 30
0.0
 10
6.5852846183
 20
53.7678630216
 30
0.0
 10
6.5895108748
 20
53.7672125929
 30
0.0
 10
6.5949488623
 20
53.7663922788
 30
0.0
 10
6.6015889023
 20
53.7653867169
 30
0.0
 10
6.6094329646
 20
53.7642025525
 30
0.0
 10
6.6222940087
 20
53.76226295
 30
0.0
 10
6.6413693879
 20
53.7593929467
 30
0.0
 10
6.6678528155
 20
53.7554190518
 30
0.0
 10
6.6991150125
 20
53.7507401544
 30
0.0
 10
6.735135442
 20
53.7453687989
 30
0.0
 10
6.7758872683
 20
53.7393213106
 30
0.0
 10
6.8395952837
 20
53.7299197196
 30
0.0
 10
6.9308323689
 20
53.7165867963
 30
0.0
 10
7.0540778994
 20
53.6988241405
 30
0.0
 10
7.1954272465
 20
53.6787933551
 30
0.0
 10
7.3545227962
 20
53.6566958979
 30
0.0
 10
7.5309676243
 20
53.6327303711
 30
0.0
 10
7.724326737
 20
53.6071209725
 30
0.0
 10
7.9341268544
 20
53.5801211611
 30
0.0
 10
8.1598602192
 20
53.5519830349
 30
0.0
 10
8.491009545
 20
53.5121353505
 30
0.0
 10
8.9404333065
 20
53.4612707862
 30
0.0
 10
9.5194332555
 20
53.401746768
 30
0.0
 10
10.1471805934
 20
53.3443757349
 30
0.0
 10
10.8177964168
 20
53.2913565878
 30
0.0
 10
11.524950789
 20
53.2447893143
 30
0.0
 10
12.2619145339
 20
53.2064563772
 30
0.0
 10
13.2831703702
 20
53.1681100897
 30
0.0
 10
14.058435721
 20
53.1563769414
 30
0.0
 10
14.5794317093
 20
53.1563762352
 30
0.0
  0
SPLINE
  5
2D7
100
AcDbEntity
  8
0
100
AcDbSpline
 62
7
  6
BYLAYER
 70
0
 71
3
 72
33
 73
29
 74
0
 42
0.0000001
 43
0.0000001
 44
0.0000000001
 40
0.0
 40
0.0
 40
0.0
 40
0.0
 40
0.0000761711
 40
0.0003033505
 40
0.0006813467
 40
0.0012099687
 40
0.0027183249
 40
0.0048268899
 40
0.0075341355
 40
0.0108385344
 40
0.0147385602
 40
0.0192326874
 40
0.0299930141
 40
0.0430866899
 40
0.0584768507
 40
0.0761267455
 40
0.0959963668
 40
0.1180323701
 40
0.1683777685
 40
0.2266912976
 40
0.2924130572
 40
0.3649449597
 40
0.4436085575
 40
0.5276904878
 40
0.6163967802
 40
0.7089001215
 40
0.804297552
 40
1.0
 40
1.0
 40
1.0
 40
1.0
 10
8.5794294888
 20
55.7687493031
 30
0.0
 10
8.5795711112
 20
55.7686900181
 30
0.0
 10
8.5801886693
 20
55.7686234172
 30
0.0
 10
8.5815112712
 20
55.768270531
 30
0.0
 10
8.5837556113
 20
55.7678208522
 30
0.0
 10
8.5885064585
 20
55.7667703088
 30
0.0
 10
8.5966792419
 20
55.7650237829
 30
0.0
 10
8.6091390826
 20
55.7623369187
 30
0.0
 10
8.6251439113
 20
55.7589109851
 30
0.0
 10
8.6446811784
 20
55.7547384331
 30
0.0
 10
8.6677446401
 20
55.7498316588
 30
0.0
 10
8.7055126935
 20
55.7418233113
 30
0.0
 10
8.761422601
 20
55.7300378793
 30
0.0
 10
8.8388620298
 20
55.713911882
 30
0.0
 10
8.9299519934
 20
55.6952233377
 30
0.0
 10
9.034490969
 20
55.6741341837
 30
0.0
 10
9.1522446178
 20
55.6508149232
 30
0.0
 10
9.3347942196
 20
55.6154600994
 30
0.0
 10
9.5937832492
 20
55.5672735525
 30
0.0
 10
9.9400225646
 20
55.5067470974
 30
0.0
 10
10.3311556727
 20
55.443503165
 30
0.0
 10
10.7637409182
 20
55.3799064387
 30
0.0
 10
11.2339787196
 20
55.3183685924
 30
0.0
 10
11.7376155871
 20
55.2613533216
 30
0.0
 10
12.2699957575
 20
55.2110243633
 30
0.0
 10
12.8260244369
 20
55.1695793663
 30
0.0
 10
13.5981263473
 20
55.1278782822
 30
0.0
 10
14.1849737583
 20
55.1151377996
 30
0.0
 10
14.5794317093
 20
55.115138097
 30
0.0
  0
SPLINE
  5
2D8
100
AcDbEntity
  8
0
100
AcDbSpline
 62
7
  6
BYLAYER
 70
0
 71
3
 72
11
 73
7
 74
0
 42
0.0000001
 43
0.0000001
 44
0.0000000001
 40
0.0
 40
0.0
 40
0.0
 40
0.0
 40
0.2501068455
 40
0.5003080765
 40
0.7502902164
 40
1.0
 40
1.0
 40
1.0
 40
1.0
 10
8.0586583743
 20
35.26875
 30
0.0
 10
8.0310058824
 20
35.26875
 30
0.0
 10
7.975242002
 20
35.2778754211
 30
0.0
 10
7.9011210997
 20
35.3189010434
 30
0.0
 10
7.8474767851
 20
35.3851390709
 30
0.0
 10
7.8340434012
 20
35.4411414084
 30
0.0
 10
7.8340434012
 20
35.46875
 30
0.0
  0
SPLINE
  5
2D9
100
AcDbEntity
  8
0
100
AcDbSpline
 62
7
  6
BYLAYER
 70
0
 71
3
 72
18
 73
14
 74
0
 42
0.0000001
 43
0.0000001
 44
0.0000000001
 40
0.0
 40
0.0
 40
0.0
 40
0.0
 40
0.2057388678
 40
0.401494086
 40
0.5766328148
 40
0.7251745891
 40
0.8430307094
 40
0.889865372
 40
0.9283830444
 40
0.9584952578
 40
0.980246519
 40
0.993795207
 40
1.0
 40
1.0
 40
1.0
 40
1.0
 10
11.5364501826
 20
35.46875
 30
0.0
 10
11.5364501826
 20
35.4549740991
 30
0.0
 10
11.5363116533
 20
35.4280905336
 30
0.0
 10
11.5357231231
 20
35.3894843008
 30
0.0
 10
11.5347810671
 20
35.3547147231
 30
0.0
 10
11.5335640028
 20
35.3251766978
 30
0.0
 10
11.5323002993
 20
35.3042332664
 30
0.0
 10
11.5311518117
 20
35.2906831159
 30
0.0
 10
11.5303143635
 20
35.2829781067
 30
0.0
 10
11.5295040837
 20
35.2770278826
 30
0.0
 10
11.528595924
 20
35.2726231535
 30
0.0
 10
11.527925059
 20
35.2701473412
 30
0.0
 10
11.5270587432
 20
35.26875
 30
0.0
 10
11.5266432816
 20
35.26875
 30
0.0
  0
SPLINE
  5
2DA
100
AcDbEntity
  8
0
100
AcDbSpline
 62
7
  6
BYLAYER
 70
0
 71
3
 72
11
 73
7
 74
0
 42
0.0000001
 43
0.0000001
 44
0.0000000001
 40
0.0
 40
0.0
 40
0.0
 40
0.0
 40
0.2163650364
 40
0.4509237197
 40
0.7140404422
 40
1.0
 40
1.0
 40
1.0
 40
1.0
 10
12.1271960646
 20
35.26875
 30
0.0
 10
12.1065583905
 20
35.26875
 30
0.0
 10
12.0630290018
 20
35.2788681346
 30
0.0
 10
12.0080477581
 20
35.3221945935
 30
0.0
 10
11.9703290474
 20
35.3886191771
 30
0.0
 10
11.9614347675
 20
35.4414741506
 30
0.0
 10
11.9614347675
 20
35.46875
 30
0.0
  0
SPLINE
  5
2DB
100
AcDbEntity
  8
0
100
AcDbSpline
 62
7
  6
BYLAYER
 70
0
 71
3
 72
15
 73
11
 74
0
 42
0.0000001
 43
0.0000001
 44
0.0000000001
 40
0.0
 40
0.0
 40
0.0
 40
0.0
 40
0.1854821683
 40
0.3628612185
 40
0.5234625366
 40
0.6628215631
 40
0.7784543015
 40
0.8706240126
 40
0.9420177612
 40
1.0
 40
1.0
 40
1.0
 40
1.0
 10
13.3859722245
 20
35.46875
 30
0.0
 10
13.3859722245
 20
35.4549655732
 30
0.0
 10
13.3850120508
 20
35.4279903648
 30
0.0
 10
13.380931759
 20
35.3892685299
 30
0.0
 10
13.3743863556
 20
35.3543585166
 30
0.0
 10
13.3658942082
 20
35.3246076828
 30
0.0
 10
13.3558518021
 20
35.300747755
 30
0.0
 10
13.3446285786
 20
35.2831415472
 30
0.0
 10
13.3323270009
 20
35.2717521355
 30
0.0
 10
13.3226739057
 20
35.26875
 30
0.0
 10
13.3183648558
 20
35.26875
 30
0.0
  0
SPLINE
  5
2DC
100
AcDbEntity
  8
0
100
AcDbSpline
 62
7
  6
BYLAYER
 70
0
 71
3
 72
14
 73
10
 74
0
 42
0.0000001
 43
0.0000001
 44
0.0000000001
 40
0.0
 40
0.0
 40
0.0
 40
0.0
 40
0.0882499517
 40
0.1823899328
 40
0.286744266
 40
0.4041431632
 40
0.5360843935
 40
0.6817068606
 40
1.0
 40
1.0
 40
1.0
 40
1.0
 10
13.962837373
 20
35.26875
 30
0.0
 10
13.9553271031
 20
35.26875
 30
0.0
 10
13.9397187139
 20
35.2712257805
 30
0.0
 10
13.9174967943
 20
35.2820012832
 30
0.0
 10
13.8968669064
 20
35.2996197627
 30
0.0
 10
13.8784663016
 20
35.3236706208
 30
0.0
 10
13.8630059962
 20
35.3536914756
 30
0.0
 10
13.8467702771
 20
35.4018682556
 30
0.0
 10
13.8420368607
 20
35.4416625362
 30
0.0
 10
13.8420368607
 20
35.46875
 30
0.0
  0
SPLINE
  5
2DD
100
AcDbEntity
  8
0
100
AcDbSpline
 62
7
  6
BYLAYER
 70
0
 71
3
 72
9
 73
5
 74
0
 42
0.0000001
 43
0.0000001
 44
0.0000000001
 40
0.0
 40
0.0
 40
0.0
 40
0.0
 40
0.4960709698
 40
1.0
 40
1.0
 40
1.0
 40
1.0
 10
16.7907356694
 20
42.0042725177
 30
0.0
 10
16.4205279395
 20
42.1869929551
 30
0.0
 10
15.6813785732
 20
42.5697233148
 30
0.0
 10
14.9486699196
 20
42.9643364716
 30
0.0
 10
14.5794328907
 20
43.1632009104
 30
0.0
  0
SPLINE
  5
2DE
100
AcDbEntity
  8
0
100
AcDbSpline
 62
7
  6
BYLAYER
 70
0
 71
3
 72
13
 73
9
 74
0
 42
0.0000001
 43
0.0000001
 44
0.0000000001
 40
0.0
 40
0.0
 40
0.0
 40
0.0
 40
0.3186624953
 40
0.5955207191
 40
0.7129857479
 40
0.8174213673
 40
0.9116617073
 40
1.0
 40
1.0
 40
1.0
 40
1.0
 10
15.316826558
 20
35.46875
 30
0.0
 10
15.316826558
 20
35.4416533016
 30
0.0
 10
15.3107572988
 20
35.3908201672
 30
0.0
 10
15.2878989359
 20
35.3335297361
 30
0.0
 10
15.2620055179
 20
35.2996234154
 30
0.0
 10
15.2413723042
 20
35.2820070756
 30
0.0
 10
15.2191492381
 20
35.2712294412
 30
0.0
 10
15.2035376861
 20
35.26875
 30
0.0
 10
15.196026052
 20
35.26875
 30
0.0
  0
SPLINE
  5
2DF
100
AcDbEntity
  8
0
100
AcDbSpline
 62
7
  6
BYLAYER
 70
0
 71
3
 72
15
 73
11
 74
0
 42
0.0000001
 43
0.0000001
 44
0.0000000001
 40
0.0
 40
0.0
 40
0.0
 40
0.0
 40
0.0579694844
 40
0.1293428191
 40
0.2215126673
 40
0.3371714318
 40
0.4766172881
 40
0.6372623142
 40
0.8145563609
 40
1.0
 40
1.0
 40
1.0
 40
1.0
 10
15.8404985664
 20
35.26875
 30
0.0
 10
15.8361904435
 20
35.26875
 30
0.0
 10
15.8265389517
 20
35.2717480158
 30
0.0
 10
15.8142385771
 20
35.2831361852
 30
0.0
 10
15.8030144296
 20
35.3007419843
 30
0.0
 10
15.7929666043
 20
35.32460921
 30
0.0
 10
15.7844766317
 20
35.3543730241
 30
0.0
 10
15.7779295261
 20
35.3892860652
 30
0.0
 10
15.7738468568
 20
35.4280020569
 30
0.0
 10
15.7728911942
 20
35.4549683696
 30
0.0
 10
15.7728911942
 20
35.46875
 30
0.0
  0
SPLINE
  5
2E0
100
AcDbEntity
  8
0
100
AcDbSpline
 62
7
  6
BYLAYER
 70
0
 71
3
 72
26
 73
22
 74
0
 42
0.0000001
 43
0.0000001
 44
0.0000000001
 40
0.0
 40
0.0
 40
0.0
 40
0.0
 40
0.0003472013
 40
0.0013805157
 40
0.0030947068
 40
0.0054845386
 40
0.0122701804
 40
0.0216955552
 40
0.0337183766
 40
0.0482742603
 40
0.0652657153
 40
0.0845925468
 40
0.1298511629
 40
0.1832219903
 40
0.2438378251
 40
0.3108531504
 40
0.3835145754
 40
0.4611020656
 40
0.6286659615
 40
0.809373115
 40
1.0
 40
1.0
 40
1.0
 40
1.0
 10
22.5794271329
 20
37.5187522135
 30
0.0
 10
22.5789513474
 20
37.5192299934
 30
0.0
 10
22.5769312325
 20
37.5209963051
 30
0.0
 10
22.5725558359
 20
37.5251148851
 30
0.0
 10
22.5651878197
 20
37.5318430298
 30
0.0
 10
22.5496368446
 20
37.5461742643
 30
0.0
 10
22.5230247656
 20
37.5706021285
 30
0.0
 10
22.482634454
 20
37.6076834403
 30
0.0
 10
22.4310948296
 20
37.6549338788
 30
0.0
 10
22.3686898839
 20
37.7120759173
 30
0.0
 10
22.2957576418
 20
37.7787252038
 30
0.0
 10
22.1786888426
 20
37.8854641949
 30
0.0
 10
22.0091072623
 20
38.0394680783
 30
0.0
 10
21.7794998937
 20
38.2466435399
 30
0.0
 10
21.5175430505
 20
38.4810345302
 30
0.0
 10
21.2263909288
 20
38.7389728288
 30
0.0
 10
20.9088178999
 20
39.0167821035
 30
0.0
 10
20.4412871532
 20
39.419715187
 30
0.0
 10
19.8072425131
 20
39.9508422466
 30
0.0
 10
18.9869280679
 20
40.6009484981
 30
0.0
 10
18.4030891817
 20
41.0250183262
 30
0.0
 10
18.0963112655
 20
41.2322309793
 30
0.0
  0
SPLINE
  5
2E1
100
AcDbEntity
  8
0
100
AcDbSpline
 62
7
  6
BYLAYER
 70
0
 71
3
 72
9
 73
5
 74
0
 42
0.0000001
 43
0.0000001
 44
0.0000000001
 40
0.0
 40
0.0
 40
0.0
 40
0.0
 40
0.246219879
 40
1.0
 40
1.0
 40
1.0
 40
1.0
 10
18.0963112655
 20
41.2322309793
 30
0.0
 10
17.9931137458
 20
41.301935579
 30
0.0
 10
17.5709458911
 20
41.5803440173
 30
0.0
 10
17.132666895
 20
41.8356532893
 30
0.0
 10
16.7907452477
 20
42.004290473
 30
0.0
  0
SPLINE
  5
2E2
100
AcDbEntity
  8
0
100
AcDbSpline
 62
7
  6
BYLAYER
 70
0
 71
3
 72
11
 73
7
 74
0
 42
0.0000001
 43
0.0000001
 44
0.0000000001
 40
0.0
 40
0.0
 40
0.0
 40
0.0
 40
0.2860590739
 40
0.5490699567
 40
0.7835896374
 40
1.0
 40
1.0
 40
1.0
 40
1.0
 10
17.1974286512
 20
35.46875
 30
0.0
 10
17.1974286512
 20
35.4414647286
 30
0.0
 10
17.1885323759
 20
35.3886094853
 30
0.0
 10
17.1508096824
 20
35.322193935
 30
0.0
 10
17.0958390782
 20
35.2788723347
 30
0.0
 10
17.0523093071
 20
35.26875
 30
0.0
 10
17.0316673628
 20
35.26875
 30
0.0
  0
SPLINE
  5
2E3
100
AcDbEntity
  8
0
100
AcDbSpline
 62
7
  6
BYLAYER
 70
0
 71
3
 72
18
 73
14
 74
0
 42
0.0000001
 43
0.0000001
 44
0.0000000001
 40
0.0
 40
0.0
 40
0.0
 40
0.0
 40
0.0062013266
 40
0.0197398436
 40
0.041479725
 40
0.0715844376
 40
0.1101005922
 40
0.1569340599
 40
0.2748149251
 40
0.423454003
 40
0.5986412267
 40
0.7943027287
 40
1.0
 40
1.0
 40
1.0
 40
1.0
 10
17.6322201376
 20
35.26875
 30
0.0
 10
17.6318049074
 20
35.26875
 30
0.0
 10
17.6309384079
 20
35.2701455196
 30
0.0
 10
17.6302677981
 20
35.2726202793
 30
0.0
 10
17.6293597606
 20
35.2770227608
 30
0.0
 10
17.6285497101
 20
35.2829717635
 30
0.0
 10
17.6277123157
 20
35.2906760605
 30
0.0
 10
17.6265633923
 20
35.3042276916
 30
0.0
 10
17.6252990284
 20
35.3251792194
 30
0.0
 10
17.6240823065
 20
35.3547287361
 30
0.0
 10
17.6231399809
 20
35.3895018398
 30
0.0
 10
17.6225511118
 20
35.4281023156
 30
0.0
 10
17.6224132361
 20
35.4549768638
 30
0.0
 10
17.6224132361
 20
35.46875
 30
0.0
  0
SPLINE
  5
2E4
100
AcDbEntity
  8
0
100
AcDbSpline
 62
7
  6
BYLAYER
 70
0
 71
3
 72
11
 73
7
 74
0
 42
0.0000001
 43
0.0000001
 44
0.0000000001
 40
0.0
 40
0.0
 40
0.0
 40
0.0
 40
0.2497965598
 40
0.499686242
 40
0.749841835
 40
1.0
 40
1.0
 40
1.0
 40
1.0
 10
21.3248200175
 20
35.46875
 30
0.0
 10
21.3248200175
 20
35.4411318502
 30
0.0
 10
21.3113835045
 20
35.3851287579
 30
0.0
 10
21.2577362023
 20
35.3189034754
 30
0.0
 10
21.1836277355
 20
35.2778785662
 30
0.0
 10
21.1278629071
 20
35.26875
 30
0.0
 10
21.1002047773
 20
35.26875
 30
0.0
  0
SPLINE
  5
2E5
100
AcDbEntity
  8
0
100
AcDbSpline
 62
7
  6
BYLAYER
 70
0
 71
3
 72
12
 73
8
 74
0
 42
0.0000001
 43
0.0000001
 44
0.0000000001
 40
0.0
 40
0.0
 40
0.0
 40
0.0
 40
0.2551353416
 40
0.3821255103
 40
0.507869096
 40
0.755193833
 40
1.0
 40
1.0
 40
1.0
 40
1.0
 10
21.8825580575
 20
35.46875
 30
0.0
 10
21.8825580575
 20
35.4411963997
 30
0.0
 10
21.873002379
 20
35.3992463162
 30
0.0
 10
21.8442399656
 20
35.3522199354
 30
0.0
 10
21.8071898657
 20
35.3124537866
 30
0.0
 10
21.7481585791
 20
35.2779676275
 30
0.0
 10
21.6945727025
 20
35.26875
 30
0.0
 10
21.6681346119
 20
35.26875
 30
0.0
  0
SPLINE
  5
2E6
100
AcDbEntity
  8
0
100
AcDbSpline
 62
7
  6
BYLAYER
 70
0
 71
3
 72
9
 73
5
 74
0
 42
0.0000001
 43
0.0000001
 44
0.0000000001
 40
0.0
 40
0.0
 40
0.0
 40
0.0
 40
0.5127360268
 40
1.0
 40
1.0
 40
1.0
 40
1.0
 10
16.7907356007
 20
42.0042725516
 30
0.0
 10
16.8008416558
 20
42.0271337325
 30
0.0
 10
16.8223550679
 20
42.0709292057
 30
0.0
 10
16.8468726065
 20
42.1131382043
 30
0.0
 10
16.859838552
 20
42.1330408925
 30
0.0
  0
SPLINE
  5
2E7
100
AcDbEntity
  8
0
100
AcDbSpline
 62
7
  6
BYLAYER
 70
0
 71
3
 72
9
 73
5
 74
0
 42
0.0000001
 43
0.0000001
 44
0.0000000001
 40
0.0
 40
0.0
 40
0.0
 40
0.0
 40
0.5033031497
 40
1.0
 40
1.0
 40
1.0
 40
1.0
 10
14.5794317093
 20
43.1631987245
 30
0.0
 10
14.96021824
 20
42.9864271218
 30
0.0
 10
15.7167824647
 20
42.6352074835
 30
0.0
 10
16.4785985086
 20
42.2952331905
 30
0.0
 10
16.8598384931
 20
42.1330412172
 30
0.0
  0
SPLINE
  5
2E8
100
AcDbEntity
  8
0
100
AcDbSpline
 62
7
  6
BYLAYER
 70
0
 71
3
 72
12
 73
8
 74
0
 42
0.0000001
 43
0.0000001
 44
0.0000000001
 40
0.0
 40
0.0
 40
0.0
 40
0.0
 40
0.2447561106
 40
0.4921258461
 40
0.6179291167
 40
0.7449525754
 40
1.0
 40
1.0
 40
1.0
 40
1.0
 10
7.4907285517
 20
35.26875
 30
0.0
 10
7.4642958701
 20
35.26875
 30
0.0
 10
7.4107120852
 20
35.2779654153
 30
0.0
 10
7.3516679484
 20
35.3124475883
 30
0.0
 10
7.3146195979
 20
35.3522357959
 30
0.0
 10
7.2858536293
 20
35.3992602049
 30
0.0
 10
7.2763053611
 20
35.4412058976
 30
0.0
 10
7.2763053611
 20
35.46875
 30
0.0
  0
ELLIPSE
  5
2E9
100
AcDbEntity
  8
0
100
AcDbEllipse
 62
7
  6
BYLAYER
 10
37.9294317093
 20
46.76875
 30
0.0
 11
20.4047686873
 21
-4.0147354537
 31
0.0
 40
0.2987966333
 41
4.8043933932
 42
4.8053643247
  0
ELLIPSE
  5
2EA
100
AcDbEntity
  8
0
100
AcDbEllipse
 62
7
  6
BYLAYER
 10
37.9294317093
 20
46.76875
 30
0.0
 11
20.4047686873
 21
4.0147354537
 31
0.0
 40
0.2987966333
 41
7.7610062897
 42
7.7619776672
  0
ENDSEC
  0
SECTION
  2
OBJECTS
  0
DICTIONARY
  5
C
100
AcDbDictionary
280
0
281
1
  3
ACAD_GROUP
350
D
  3
ACAD_MLINESTYLE
350
17
  3
ACAD_LAYOUT
350
1A
  3
ACAD_PLOTSETTINGS
350
19
  3
ACAD_PLOTSTYLENAME
350
E
  0
DICTIONARY
  5
D
102
{ACAD_REACTORS
330
C
102
}
100
AcDbDictionary
280
0
281
1
  0
ACDBDICTIONARYWDFLT
  5
E
102
{ACAD_REACTORS
330
C
102
}
100
AcDbDictionary
281
1
  3
Normal
350
F
100
AcDbDictionaryWithDefault
340
F
  0
DICTIONARY
  5
17
102
{ACAD_REACTORS
330
C
102
}
100
AcDbDictionary
280
0
281
1
  3
Standard
350
18
  0
DICTIONARY
  5
19
102
{ACAD_REACTORS
330
C
102
}
100
AcDbDictionary
281
1
  0
DICTIONARY
  5
1A
102
{ACAD_REACTORS
330
C
102
}
100
AcDbDictionary
281
1
  3
Model
350
2EB
  3
Layout1
350
2EC
  0
ACDBPLACEHOLDER
  5
F
102
{ACAD_REACTORS
330
E
102
}
  0
MLINESTYLE
  5
18
102
{ACAD_REACTORS
330
17
102
}
100
AcDbMlineStyle
  2
STANDARD
 70
0
  3

 62
256
 51
90.0
 52
90.0
 71
2
 49
0.5
 62
256
  6
BYLAYER
 49
-0.5
 62
256
  6
BYLAYER
  0
LAYOUT
  5
2EB
102
{ACAD_REACTORS
330
1A
102
}
100
AcDbPlotSettings
  1

  2
none_device
  4

  6

 40
0.0
 41
0.0
 42
0.0
 43
0.0
 44
210.0
 45
297.0
 46
0.0
 47
0.0
 48
0.0
 49
0.0
140
0.0
141
0.0
142
1.0
143
1.0
 70
1024
 72
1
 73
0
 74
0
  7

 75
0
147
1.0
148
0.0
149
0.0
100
AcDbLayout
  1
Model
 70
0
 71
0
 10
0.0
 20
0.0
 11
210.0
 21
297.0
 12
0.0
 22
0.0
 32
0.0
 14
0.0
 24
0.0
 34
0.0
 15
0.0
 25
0.0
 35
0.0
146
0.0
 13
0.0
 23
0.0
 33
0.0
 16
1.0
 26
0.0
 36
0.0
 17
0.0
 27
1.0
 37
0.0
 76
0
330
210
345
0
346
0
  0
LAYOUT
  5
2EC
102
{ACAD_REACTORS
330
1A
102
}
100
AcDbPlotSettings
  1

  2
none_device
  4

  6

 40
0.0
 41
0.0
 42
0.0
 43
0.0
 44
210.0
 45
297.0
 46
0.0
 47
0.0
 48
0.0
 49
0.0
140
0.0
141
0.0
142
1.0
143
1.0
 70
0
 72
1
 73
0
 74
0
  7

 75
0
147
1.0
148
0.0
149
0.0
100
AcDbLayout
  1
Layout1
 70
0
 71
1
 10
0.0
 20
0.0
 11
210.0
 21
297.0
 12
0.0
 22
0.0
 32
0.0
 14
0.0
 24
0.0
 34
0.0
 15
0.0
 25
0.0
 35
0.0
146
0.0
 13
0.0
 23
0.0
 33
0.0
 16
1.0
 26
0.0
 36
0.0
 17
0.0
 27
1.0
 37
0.0
 76
0
330
211
345
0
346
0
  0
ENDSEC
  0
EOF
