999
DXF file: C:\Users\sesa63760\Dev\_Creo\CAD\MCADID0004750_3D-CAD\drw0001_3.dxf
999
Pro/ENGINEER 2019471 by Parametric Technology Corporation
  0
SECTION
  2
HEADER
  9
$ACADVER
  1
AC1024
  9
$DWGCODEPAGE
  3
ANSI_1252
  9
$EXTMAX
 10
68.4490086864
 20
96.8064551422
 30
0.0
  9
$EXTMIN
 10
0.0
 20
0.0
 30
0.0
  9
$LIMMIN
 10
0.0
 20
0.0
  9
$LIMMAX
 10
68.4490086864
 20
96.8064551422
  9
$VIEWCTR
 10
34.2245043432
 20
48.4032275711
  9
$VIEWSIZE
 40
96.8064551422
  9
$CLAYER
  8
0
  9
$LTSCALE
 40
6.3103467056
  9
$CELTYPE
  6
BYLAYER
  9
$DIMSCALE
 40
1.0
  9
$DIMASZ
 40
0.814869151
  9
$DIMEXO
 40
1.0
  9
$DIMDLI
 40
4.3598759057
  9
$DIMEXE
 40
1.0
  9
$DIMCEN
 40
1.0326021882
  9
$DIMLFAC
 40
1.0
  9
$DIMBLK
  1
_FILLED
  9
$DIMALT
 70
0
  9
$DIMALTF
 40
0.0393700787
  9
$DIMTXT
 40
1.1408168114
  9
$DIMTOL
 70
1
  9
$DIMLIM
 70
0
  9
$DIMTFAC
 40
1.0
  9
$DIMTP
 40
0.01
  9
$DIMTM
 40
0.01
  9
$DIMGAP
 40
0.625
  9
$DIMDSEP
 70
46
  9
$AUNITS
 70
0
  9
$PDMODE
 70
3
  9
$PDSIZE
 40
0.3125
  9
$HANDSEED
  5
300
  9
$TILEMODE
 70
1
  9
$MEASUREMENT
 70
1
  9
$INSUNITS
 70
4
  0
ENDSEC
  0
SECTION
  2
CLASSES
  0
CLASS
  1
ACDBDICTIONARYWDFLT
  2
AcDbDictionaryWithDefault
  3
AutoCAD 2000
 90
0
 91
1
280
0
281
0
  0
CLASS
  1
ACDBPLACEHOLDER
  2
AcDbPlaceHolder
  3
AutoCAD 2000
 90
0
 91
1
280
0
281
0
  0
CLASS
  1
LAYOUT
  2
AcDbLayout
  3
AutoCAD 2000
 90
0
 91
0
280
0
281
0
  0
ENDSEC
  0
SECTION
  2
TABLES
  0
TABLE
  2
VPORT
  5
8
100
AcDbSymbolTable
 70
2
  0
VPORT
  5
1F4
100
AcDbSymbolTableRecord
100
AcDbViewportTableRecord
  2
*ACTIVE
 70
0
 10
0.0
 20
0.0
 11
1.0
 21
1.0
 12
34.2245043432
 22
48.4032275711
 13
0.0
 23
0.0
 14
1.0
 24
1.0
 15
0.0
 25
0.0
 16
0.0
 26
0.0
 36
1.0
 17
0.0
 27
0.0
 37
0.0
 40
96.8064551422
 41
0.7070707071
 42
50.0
 43
0.0
 44
0.0
 50
0.0
 51
0.0
 71
0
 72
100
 73
1
 74
1
 75
0
 76
0
 77
0
 78
0
  0
ENDTAB
  0
TABLE
  2
LTYPE
  5
5
100
AcDbSymbolTable
 70
6
  0
LTYPE
  5
14
100
AcDbSymbolTableRecord
100
AcDbLinetypeTableRecord
  2
BYBLOCK
 70
0
  3

 72
65
 73
0
 40
0.0
  0
LTYPE
  5
15
100
AcDbSymbolTableRecord
100
AcDbLinetypeTableRecord
  2
BYLAYER
 70
0
  3

 72
65
 73
0
 40
0.0
  0
LTYPE
  5
16
100
AcDbSymbolTableRecord
100
AcDbLinetypeTableRecord
  2
CONTINUOUS
 70
64
  3
Solid line
 72
65
 73
0
 40
0.0
  0
LTYPE
  5
1F5
100
AcDbSymbolTableRecord
100
AcDbLinetypeTableRecord
  2
CENTER
 70
64
  3
____ _ ____ _ ____ _ ____ _ ____ _ ____ _ ____
 72
65
 73
4
 40
0.6
 49
0.375
 74
0
 49
-0.075
 74
0
 49
0.075
 74
0
 49
-0.075
 74
0
  0
LTYPE
  5
1F6
100
AcDbSymbolTableRecord
100
AcDbLinetypeTableRecord
  2
HIDDEN
 70
64
  3
- - - - - - - - - - - - - - - - - - - -
 72
65
 73
2
 40
0.2
 49
0.1
 74
0
 49
-0.1
 74
0
  0
LTYPE
  5
1F7
100
AcDbSymbolTableRecord
100
AcDbLinetypeTableRecord
  2
PHANTOM
 70
64
  3
_____ _ _ _____ _ _ _____ _ _ _____
 72
65
 73
6
 40
0.8
 49
0.45
 74
0
 49
-0.05
 74
0
 49
0.1
 74
0
 49
-0.05
 74
0
 49
0.1
 74
0
 49
-0.05
 74
0
  0
LTYPE
  5
1F8
100
AcDbSymbolTableRecord
100
AcDbLinetypeTableRecord
  2
DOT
 70
64
  3
. . . . . . . . . . . . . . . . . . . .
 72
65
 73
2
 40
0.2
 49
0.1
 74
0
 49
-0.1
 74
0
  0
LTYPE
  5
1F9
100
AcDbSymbolTableRecord
100
AcDbLinetypeTableRecord
  2
DASHED
 70
64
  3
- - - - - - - - - - - - - - - - - - - -
 72
65
 73
2
 40
0.2
 49
0.1
 74
0
 49
-0.1
 74
0
  0
ENDTAB
  0
TABLE
  2
LAYER
  5
2
100
AcDbSymbolTable
 70
36
  0
LAYER
  5
10
100
AcDbSymbolTableRecord
100
AcDbLayerTableRecord
  2
0
 70
0
 62
7
  6
CONTINUOUS
370
-3
390
F
  0
LAYER
  5
1FA
100
AcDbSymbolTableRecord
100
AcDbLayerTableRecord
  2
DEFAULT_1
 70
0
 62
7
  6
CENTER
370
-3
390
F
  0
LAYER
  5
1FB
100
AcDbSymbolTableRecord
100
AcDbLayerTableRecord
  2
DEFAULT_2
 70
0
 62
7
  6
HIDDEN
370
-3
390
F
  0
LAYER
  5
1FC
100
AcDbSymbolTableRecord
100
AcDbLayerTableRecord
  2
DEFAULT_3
 70
0
 62
7
  6
PHANTOM
370
-3
390
F
  0
LAYER
  5
1FD
100
AcDbSymbolTableRecord
100
AcDbLayerTableRecord
  2
00_COMPONENTS
 70
0
 62
7
  6
CONTINUOUS
370
-3
390
F
  0
LAYER
  5
1FE
100
AcDbSymbolTableRecord
100
AcDbLayerTableRecord
  2
01_1_DEFAULT_DATUMS
 70
0
 62
7
  6
CONTINUOUS
370
-3
390
F
  0
LAYER
  5
1FF
100
AcDbSymbolTableRecord
100
AcDbLayerTableRecord
  2
01_PLANES
 70
0
 62
7
  6
CONTINUOUS
370
-3
390
F
  0
LAYER
  5
200
100
AcDbSymbolTableRecord
100
AcDbLayerTableRecord
  2
02_COORD_SYS
 70
0
 62
7
  6
CONTINUOUS
370
-3
390
F
  0
LAYER
  5
201
100
AcDbSymbolTableRecord
100
AcDbLayerTableRecord
  2
03_AXES
 70
0
 62
7
  6
CONTINUOUS
370
-3
390
F
  0
LAYER
  5
202
100
AcDbSymbolTableRecord
100
AcDbLayerTableRecord
  2
04_POINTS
 70
0
 62
7
  6
CONTINUOUS
370
-3
390
F
  0
LAYER
  5
203
100
AcDbSymbolTableRecord
100
AcDbLayerTableRecord
  2
05_CURVES
 70
0
 62
7
  6
CONTINUOUS
370
-3
390
F
  0
LAYER
  5
204
100
AcDbSymbolTableRecord
100
AcDbLayerTableRecord
  2
06_SURFS
 70
0
 62
7
  6
CONTINUOUS
370
-3
390
F
  0
LAYER
  5
205
100
AcDbSymbolTableRecord
100
AcDbLayerTableRecord
  2
07_COSMETICS
 70
0
 62
7
  6
CONTINUOUS
370
-3
390
F
  0
LAYER
  5
206
100
AcDbSymbolTableRecord
100
AcDbLayerTableRecord
  2
10_NOTES
 70
0
 62
7
  6
CONTINUOUS
370
-3
390
F
  0
LAYER
  5
207
100
AcDbSymbolTableRecord
100
AcDbLayerTableRecord
  2
11_NOTES_PUB
 70
0
 62
7
  6
CONTINUOUS
370
-3
390
F
  0
LAYER
  5
208
100
AcDbSymbolTableRecord
100
AcDbLayerTableRecord
  2
13_REF_GTOL
 70
0
 62
7
  6
CONTINUOUS
370
-3
390
F
  0
LAYER
  5
209
100
AcDbSymbolTableRecord
100
AcDbLayerTableRecord
  2
16_MISC
 70
0
 62
7
  6
CONTINUOUS
370
-3
390
F
  0
LAYER
  5
20A
100
AcDbSymbolTableRecord
100
AcDbLayerTableRecord
  2
17_NO_PRINT
 70
0
 62
7
  6
CONTINUOUS
370
-3
390
F
  0
LAYER
  5
20B
100
AcDbSymbolTableRecord
100
AcDbLayerTableRecord
  2
18_DATUM_CAMS_JOINTS
 70
0
 62
7
  6
CONTINUOUS
370
-3
390
F
  0
LAYER
  5
20C
100
AcDbSymbolTableRecord
100
AcDbLayerTableRecord
  2
19_DATUM_FUNCTIONAL
 70
0
 62
7
  6
CONTINUOUS
370
-3
390
F
  0
LAYER
  5
20D
100
AcDbSymbolTableRecord
100
AcDbLayerTableRecord
  2
20_DATUM_KINEMATIC_SCHEME
 70
0
 62
7
  6
CONTINUOUS
370
-3
390
F
  0
ENDTAB
  0
TABLE
  2
STYLE
  5
3
100
AcDbSymbolTable
 70
1
  0
STYLE
  5
11
100
AcDbSymbolTableRecord
100
AcDbTextStyleTableRecord
  2
STANDARD
 70
0
 40
0.0
 41
1.0
 50
0.0
 71
0
 42
0.2
  3
ARIAL.TTF
  4

  0
STYLE
  5
20E
100
AcDbSymbolTableRecord
100
AcDbTextStyleTableRecord
  2
TEXTSTYLE_1
 70
0
 40
0.0
 41
0.8
 50
0.0
 71
0
 42
0.2
  3
gdt
  4

  0
ENDTAB
  0
TABLE
  2
VIEW
  5
6
100
AcDbSymbolTable
 70
0
  0
ENDTAB
  0
TABLE
  2
UCS
  5
7
100
AcDbSymbolTable
 70
0
  0
ENDTAB
  0
TABLE
  2
APPID
  5
9
100
AcDbSymbolTable
 70
1
  0
APPID
  5
20F
100
AcDbSymbolTableRecord
100
AcDbRegAppTableRecord
  2
ACAD
 70
0
  0
ENDTAB
  0
TABLE
  2
BLOCK_RECORD
  5
1
100
AcDbSymbolTable
 70
0
  0
BLOCK_RECORD
  5
210
100
AcDbSymbolTableRecord
100
AcDbBlockTableRecord
  2
*Model_Space
  0
BLOCK_RECORD
  5
211
100
AcDbSymbolTableRecord
100
AcDbBlockTableRecord
  2
*Paper_Space
  0
BLOCK_RECORD
  5
212
100
AcDbSymbolTableRecord
100
AcDbBlockTableRecord
  2
_FILLED
  0
ENDTAB
  0
TABLE
  2
DIMSTYLE
  5
A
100
AcDbSymbolTable
 70
1
100
AcDbDimStyleTable
 71
0
  0
DIMSTYLE
105
213
100
AcDbSymbolTableRecord
100
AcDbDimStyleTableRecord
  2
STANDARD
 70
0
  3

  4

 40
1.0
 41
0.814869151
 42
1.0
 43
0.38
 44
1.0
 45
0.0
 46
0.0
 47
0.01
 48
0.01
140
1.1408168114
141
0.09
142
0.0
143
25.4
144
1.0
145
0.0
146
1.0
147
0.625
 71
1
 72
0
 73
0
 74
0
 75
0
 76
0
 77
1
 78
8
 79
2
170
0
171
1
172
0
173
0
174
0
175
0
176
0
177
0
178
0
270
2
179
2
271
2
272
2
273
2
274
2
275
0
280
0
281
0
282
0
283
1
284
8
285
0
286
0
287
3
288
0
340
11
278
46
341
212
342
212
343
212
344
212
  0
ENDTAB
  0
ENDSEC
  0
SECTION
  2
BLOCKS
  0
BLOCK
  5
20
100
AcDbEntity
  8
0
100
AcDbBlockBegin
  2
*Model_Space
 70
0
 10
0.0
 20
0.0
 30
0.0
  3
*Model_Space
  1

  0
ENDBLK
  5
21
100
AcDbEntity
  8
0
100
AcDbBlockEnd
  0
BLOCK
  5
1C
100
AcDbEntity
  8
0
100
AcDbBlockBegin
  2
*Paper_Space
 70
0
 10
0.0
 20
0.0
 30
0.0
  3
*Paper_Space
  1

  0
ENDBLK
  5
1D
100
AcDbEntity
  8
0
100
AcDbBlockEnd
  0
BLOCK
  5
214
100
AcDbEntity
  8
0
100
AcDbBlockBegin
  2
_FILLED
 70
64
 10
0.0
 20
0.0
  3
_FILLED
  1

  0
SOLID
  5
215
100
AcDbEntity
  8
0
  6
BYBLOCK
 62
0
100
AcDbTrace
 10
0.0
 20
0.0
 11
-1.0
 21
0.25
 12
-1.0
 22
-0.25
 13
-1.0
 23
-0.25
  0
ENDBLK
  5
216
100
AcDbEntity
  8
0
  6
BYBLOCK
 62
0
100
AcDbBlockEnd
  0
ENDSEC
  0
SECTION
  2
ENTITIES
  0
LINE
  5
217
100
AcDbEntity
  8
0
100
AcDbLine
 62
7
  6
BYLAYER
 10
13.0197737181
 20
42.6889005351
 11
13.0544440418
 21
41.8948195696
  0
LINE
  5
218
100
AcDbEntity
  8
0
100
AcDbLine
 62
7
  6
BYLAYER
 10
12.3474255686
 20
50.6402078609
 11
12.3474255686
 21
46.640207882
  0
LINE
  5
219
100
AcDbEntity
  8
0
100
AcDbLine
 62
7
  6
BYLAYER
 10
12.5974255686
 20
51.9402078778
 11
12.5974255686
 21
51.4686350025
  0
LINE
  5
21A
100
AcDbEntity
  8
0
100
AcDbLine
 62
7
  6
BYLAYER
 10
12.5974255686
 20
45.3402078778
 11
12.5974255686
 21
51.3663813828
  0
LINE
  5
21B
100
AcDbEntity
  8
0
100
AcDbLine
 62
7
  6
BYLAYER
 10
12.7974255686
 20
52.1402078778
 11
12.7974255686
 21
50.8402078778
  0
LINE
  5
21C
100
AcDbEntity
  8
0
100
AcDbLine
 62
7
  6
BYLAYER
 10
12.7974255686
 20
45.1402078778
 11
12.7974255686
 21
46.4402078778
  0
LINE
  5
21D
100
AcDbEntity
  8
0
100
AcDbLine
 62
7
  6
BYLAYER
 10
13.0544440418
 20
55.3855961859
 11
13.0197737181
 21
54.5915152205
  0
LINE
  5
21E
100
AcDbEntity
  8
0
100
AcDbLine
 62
7
  6
BYLAYER
 10
12.5295368576
 20
51.3471964567
 11
12.5439626662
 21
51.3992524176
  0
LINE
  5
21F
100
AcDbEntity
  8
0
100
AcDbLine
 62
7
  6
BYLAYER
 10
14.9039660837
 20
55.943334226
 11
14.6649538454
 21
55.1852842534
  0
LINE
  5
220
100
AcDbEntity
  8
0
100
AcDbLine
 62
7
  6
BYLAYER
 10
14.6649538454
 20
42.0951315022
 11
14.9039660837
 21
41.3370815296
  0
LINE
  5
221
100
AcDbEntity
  8
0
100
AcDbLine
 62
7
  6
BYLAYER
 10
15.4474255686
 20
52.8402073324
 11
15.4474255686
 21
53.6402078778
  0
LINE
  5
222
100
AcDbEntity
  8
0
100
AcDbLine
 62
7
  6
BYLAYER
 10
16.0974255683
 20
52.3902078778
 11
16.0974255683
 21
52.1402078778
  0
LINE
  5
223
100
AcDbEntity
  8
0
100
AcDbLine
 62
7
  6
BYLAYER
 10
16.0974255686
 20
45.1402078778
 11
16.0974255686
 21
44.8902078778
  0
LINE
  5
224
100
AcDbEntity
  8
0
100
AcDbLine
 62
7
  6
BYLAYER
 10
16.8348204172
 20
56.0033762744
 11
16.4077545534
 21
55.3330171475
  0
LINE
  5
225
100
AcDbEntity
  8
0
100
AcDbLine
 62
7
  6
BYLAYER
 10
16.4077545534
 20
41.947398608
 11
16.8348204172
 21
41.2770394812
  0
LINE
  5
226
100
AcDbEntity
  8
0
100
AcDbLine
 62
7
  6
BYLAYER
 10
16.7474255686
 20
53.6402078778
 11
16.7474255686
 21
52.8402073026
  0
LINE
  5
227
100
AcDbEntity
  8
0
100
AcDbLine
 62
7
  6
BYLAYER
 10
14.016903533
 20
44.7392311242
 11
14.0974247451
 21
44.890208317
  0
LINE
  5
228
100
AcDbEntity
  8
0
100
AcDbLine
 62
7
  6
BYLAYER
 10
9.712987296
 20
46.6082265924
 11
9.1760028816
 21
46.022210936
  0
LINE
  5
229
100
AcDbEntity
  8
0
100
AcDbLine
 62
7
  6
BYLAYER
 10
9.1760028816
 20
51.2582048196
 11
9.712987296
 21
50.6721891631
  0
LINE
  5
22A
100
AcDbEntity
  8
0
100
AcDbLine
 62
7
  6
BYLAYER
 10
14.0974241112
 20
52.3902071005
 11
13.9818082889
 21
52.6069895798
  0
LINE
  5
22B
100
AcDbEntity
  8
0
100
AcDbLine
 62
7
  6
BYLAYER
 10
19.1750774191
 20
54.5915152205
 11
19.1404070954
 21
55.3855961859
  0
LINE
  5
22C
100
AcDbEntity
  8
0
100
AcDbLine
 62
7
  6
BYLAYER
 10
18.7474255686
 20
47.9081612654
 11
18.7474255686
 21
49.3722544902
  0
LINE
  5
22D
100
AcDbEntity
  8
0
100
AcDbLine
 62
7
  6
BYLAYER
 10
19.1404070954
 20
41.8948195696
 11
19.1750774191
 21
42.6889005351
  0
LINE
  5
22E
100
AcDbEntity
  8
0
100
AcDbLine
 62
7
  6
BYLAYER
 10
17.2908850535
 20
41.3370815296
 11
17.5298972917
 21
42.0951315022
  0
LINE
  5
22F
100
AcDbEntity
  8
0
100
AcDbLine
 62
7
  6
BYLAYER
 10
18.7154225104
 20
55.5616305648
 11
18.1294068539
 21
55.0246461503
  0
LINE
  5
230
100
AcDbEntity
  8
0
100
AcDbLine
 62
7
  6
BYLAYER
 10
18.1294068539
 20
42.2557696052
 11
18.7154225104
 21
41.7187851908
  0
LINE
  5
231
100
AcDbEntity
  8
0
100
AcDbLine
 62
7
  6
BYLAYER
 10
17.5298972917
 20
55.1852842534
 11
17.2908850535
 21
55.943334226
  0
LINE
  5
232
100
AcDbEntity
  8
0
100
AcDbLine
 62
7
  6
BYLAYER
 10
9.4046162989
 20
48.329878893
 11
8.734257172
 21
47.9028130292
  0
LINE
  5
233
100
AcDbEntity
  8
0
100
AcDbLine
 62
7
  6
BYLAYER
 10
8.734257172
 20
49.3776027264
 11
9.4046162989
 21
48.9505368626
  0
LINE
  5
234
100
AcDbEntity
  8
0
100
AcDbLine
 62
7
  6
BYLAYER
 10
15.36003072
 20
41.2770394812
 11
15.7870965838
 21
41.947398608
  0
LINE
  5
235
100
AcDbEntity
  8
0
100
AcDbLine
 62
7
  6
BYLAYER
 10
15.7870965838
 20
55.3330171475
 11
15.36003072
 21
56.0033762744
  0
LINE
  5
236
100
AcDbEntity
  8
0
100
AcDbLine
 62
7
  6
BYLAYER
 10
22.4818638411
 20
50.6721891631
 11
23.0188482556
 21
51.2582048196
  0
LINE
  5
237
100
AcDbEntity
  8
0
100
AcDbLine
 62
7
  6
BYLAYER
 10
13.4794286268
 20
41.7187851908
 11
14.0654442832
 21
42.2557696052
  0
LINE
  5
238
100
AcDbEntity
  8
0
100
AcDbLine
 62
7
  6
BYLAYER
 10
14.0654442832
 20
55.0246461503
 11
13.4794286268
 21
55.5616305648
  0
LINE
  5
239
100
AcDbEntity
  8
0
100
AcDbLine
 62
7
  6
BYLAYER
 10
23.0188482556
 20
46.022210936
 11
22.4818638411
 21
46.6082265924
  0
LINE
  5
23A
100
AcDbEntity
  8
0
100
AcDbLine
 62
7
  6
BYLAYER
 10
9.552349193
 20
50.0726796009
 11
8.7942992204
 21
49.8336673627
  0
LINE
  5
23B
100
AcDbEntity
  8
0
100
AcDbLine
 62
7
  6
BYLAYER
 10
16.0974255686
 20
40.6402078778
 11
38.7474255686
 21
40.6402078778
  0
LINE
  5
23C
100
AcDbEntity
  8
0
100
AcDbLine
 62
7
  6
BYLAYER
 10
39.4474255686
 20
40.7402078778
 11
38.9974255686
 21
40.7402078778
  0
LINE
  5
23D
100
AcDbEntity
  8
0
100
AcDbLine
 62
7
  6
BYLAYER
 10
18.3778323524
 20
40.9259221635
 11
38.7474255686
 21
40.9259221635
  0
LINE
  5
23E
100
AcDbEntity
  8
0
100
AcDbLine
 62
7
  6
BYLAYER
 10
8.7942992204
 20
47.4467483929
 11
9.552349193
 21
47.2077361546
  0
LINE
  5
23F
100
AcDbEntity
  8
0
100
AcDbLine
 62
7
  6
BYLAYER
 10
22.7902348383
 20
48.9505368626
 11
23.4605939652
 21
49.3776027264
  0
LINE
  5
240
100
AcDbEntity
  8
0
100
AcDbLine
 62
7
  6
BYLAYER
 10
17.1651333938
 20
42.9902078778
 11
15.0297177434
 21
42.9902078778
  0
LINE
  5
241
100
AcDbEntity
  8
0
100
AcDbLine
 62
7
  6
BYLAYER
 10
23.4605939652
 20
47.9028130292
 11
22.7902348383
 21
48.329878893
  0
LINE
  5
242
100
AcDbEntity
  8
0
100
AcDbLine
 62
7
  6
BYLAYER
 10
61.6286234151
 20
44.0214057243
 11
59.3662277221
 21
44.0214057243
  0
LINE
  5
243
100
AcDbEntity
  8
0
100
AcDbLine
 62
7
  6
BYLAYER
 10
49.9754789249
 20
44.2452078778
 11
53.5193722123
 21
44.2452078778
  0
LINE
  5
244
100
AcDbEntity
  8
0
100
AcDbLine
 62
7
  6
BYLAYER
 10
40.5474255686
 20
44.6402078778
 11
49.4474255686
 21
44.6402078778
  0
LINE
  5
245
100
AcDbEntity
  8
0
100
AcDbLine
 62
7
  6
BYLAYER
 10
14.0974255686
 20
44.8902078778
 11
16.0974255686
 21
44.8902080875
  0
LINE
  5
246
100
AcDbEntity
  8
0
100
AcDbLine
 62
7
  6
BYLAYER
 10
9.3520372604
 20
45.597226351
 11
10.1461182259
 21
45.5625560273
  0
LINE
  5
247
100
AcDbEntity
  8
0
100
AcDbLine
 62
7
  6
BYLAYER
 10
18.7474255686
 20
47.9081570702
 11
19.4184298482
 21
47.7283620154
  0
LINE
  5
248
100
AcDbEntity
  8
0
100
AcDbLine
 62
7
  6
BYLAYER
 10
22.6425019442
 20
47.2077361546
 11
23.4005519168
 21
47.4467483929
  0
LINE
  5
249
100
AcDbEntity
  8
0
100
AcDbLine
 62
7
  6
BYLAYER
 10
22.0487329113
 20
45.5625560273
 11
22.8428138767
 21
45.597226351
  0
LINE
  5
24A
100
AcDbEntity
  8
0
100
AcDbLine
 62
7
  6
BYLAYER
 10
12.7974255686
 20
45.1402078778
 11
16.0974255683
 21
45.1402078778
  0
LINE
  5
24B
100
AcDbEntity
  8
0
100
AcDbLine
 62
7
  6
BYLAYER
 10
17.0850578508
 20
45.3402078778
 11
12.7974255686
 21
45.3402078778
  0
LINE
  5
24C
100
AcDbEntity
  8
0
100
AcDbLine
 62
7
  6
BYLAYER
 10
53.7474255686
 20
46.1402078778
 11
58.7474255686
 21
46.1402078778
  0
LINE
  5
24D
100
AcDbEntity
  8
0
100
AcDbLine
 62
7
  6
BYLAYER
 10
61.6286234151
 20
46.330806801
 11
59.3662277221
 21
46.330806801
  0
LINE
  5
24E
100
AcDbEntity
  8
0
100
AcDbLine
 62
7
  6
BYLAYER
 10
50.0921699166
 20
46.3744930223
 11
53.4026812206
 21
46.3744930223
  0
LINE
  5
24F
100
AcDbEntity
  8
0
100
AcDbLine
 62
7
  6
BYLAYER
 10
12.5974255686
 20
46.6402078313
 11
12.3474255686
 21
46.6402078313
  0
LINE
  5
250
100
AcDbEntity
  8
0
100
AcDbLine
 62
7
  6
BYLAYER
 10
49.4474255686
 20
46.7037162047
 11
45.2474255686
 21
46.7037162047
  0
LINE
  5
251
100
AcDbEntity
  8
0
100
AcDbLine
 62
7
  6
BYLAYER
 10
38.7474255686
 20
47.0039010606
 11
34.2474255686
 21
47.0039010597
  0
LINE
  5
252
100
AcDbEntity
  8
0
100
AcDbLine
 62
7
  6
BYLAYER
 10
23.4005519168
 20
49.8336673627
 11
22.6425019442
 21
50.0726796009
  0
LINE
  5
253
100
AcDbEntity
  8
0
100
AcDbLine
 62
7
  6
BYLAYER
 10
34.2474255686
 20
50.2765146936
 11
34.2474255686
 21
47.0039010619
  0
LINE
  5
254
100
AcDbEntity
  8
0
100
AcDbLine
 62
7
  6
BYLAYER
 10
12.5974255686
 20
47.6402078778
 11
19.4011251545
 21
47.6402078778
  0
LINE
  5
255
100
AcDbEntity
  8
0
100
AcDbLine
 62
7
  6
BYLAYER
 10
18.8144128667
 20
47.8902078778
 11
12.5974255686
 21
47.8902078778
  0
LINE
  5
256
100
AcDbEntity
  8
0
100
AcDbLine
 62
7
  6
BYLAYER
 10
24.0974209922
 20
48.6402078898
 11
24.3474255683
 21
48.6402079794
  0
LINE
  5
257
100
AcDbEntity
  8
0
100
AcDbLine
 62
7
  6
BYLAYER
 10
12.5974255686
 20
49.3902078778
 11
18.8144128667
 21
49.3902078778
  0
LINE
  5
258
100
AcDbEntity
  8
0
100
AcDbLine
 62
7
  6
BYLAYER
 10
19.3985132012
 20
49.6402078778
 11
12.5974255686
 21
49.6402078778
  0
LINE
  5
259
100
AcDbEntity
  8
0
100
AcDbLine
 62
7
  6
BYLAYER
 10
34.2474255686
 20
50.2765146959
 11
38.7474255686
 21
50.276514695
  0
LINE
  5
25A
100
AcDbEntity
  8
0
100
AcDbLine
 62
7
  6
BYLAYER
 10
45.2474255686
 20
50.5766995509
 11
49.4474255686
 21
50.5766995509
  0
LINE
  5
25B
100
AcDbEntity
  8
0
100
AcDbLine
 62
7
  6
BYLAYER
 10
12.3474255686
 20
50.6402078778
 11
12.5974255686
 21
50.6402078778
  0
LINE
  5
25C
100
AcDbEntity
  8
0
100
AcDbLine
 62
7
  6
BYLAYER
 10
38.7474255686
 20
56.6402078778
 11
38.7474255686
 21
40.6402078778
  0
LINE
  5
25D
100
AcDbEntity
  8
0
100
AcDbLine
 62
7
  6
BYLAYER
 10
38.9974255686
 20
40.7402078778
 11
38.9974255686
 21
56.5402078778
  0
LINE
  5
25E
100
AcDbEntity
  8
0
100
AcDbLine
 62
7
  6
BYLAYER
 10
50.0921699166
 20
50.9059227333
 11
53.4026812206
 21
50.9059227333
  0
LINE
  5
25F
100
AcDbEntity
  8
0
100
AcDbLine
 62
7
  6
BYLAYER
 10
61.6286234151
 20
50.9496089546
 11
59.3662277221
 21
50.9496089546
  0
LINE
  5
260
100
AcDbEntity
  8
0
100
AcDbLine
 62
7
  6
BYLAYER
 10
53.7474255686
 20
51.1402078778
 11
58.7474255686
 21
51.1402078778
  0
LINE
  5
261
100
AcDbEntity
  8
0
100
AcDbLine
 62
7
  6
BYLAYER
 10
12.7974255686
 20
51.9402078778
 11
17.102893467
 21
51.9402078778
  0
LINE
  5
262
100
AcDbEntity
  8
0
100
AcDbLine
 62
7
  6
BYLAYER
 10
12.7974255686
 20
52.1402078778
 11
16.0974255683
 21
52.1402078778
  0
LINE
  5
263
100
AcDbEntity
  8
0
100
AcDbLine
 62
7
  6
BYLAYER
 10
16.0974212811
 20
52.3902078778
 11
14.0974255686
 21
52.3902078778
  0
LINE
  5
264
100
AcDbEntity
  8
0
100
AcDbLine
 62
7
  6
BYLAYER
 10
40.5474255686
 20
52.6402078778
 11
49.4474255686
 21
52.6402078778
  0
LINE
  5
265
100
AcDbEntity
  8
0
100
AcDbLine
 62
7
  6
BYLAYER
 10
22.8428138767
 20
51.6831894046
 11
22.0487329113
 21
51.7178597283
  0
LINE
  5
266
100
AcDbEntity
  8
0
100
AcDbLine
 62
7
  6
BYLAYER
 10
39.4474255686
 20
56.5402078778
 11
39.4474255686
 21
40.7402078778
  0
LINE
  5
267
100
AcDbEntity
  8
0
100
AcDbLine
 62
7
  6
BYLAYER
 10
40.0474255686
 20
45.0108893554
 11
40.0474255686
 21
44.8062621803
  0
LINE
  5
268
100
AcDbEntity
  8
0
100
AcDbLine
 62
7
  6
BYLAYER
 10
40.0880992329
 20
56.2515230665
 11
40.0880992329
 21
52.6440224206
  0
LINE
  5
269
100
AcDbEntity
  8
0
100
AcDbLine
 62
7
  6
BYLAYER
 10
40.0880992329
 20
52.2477081241
 11
40.0880992329
 21
45.0327072178
  0
LINE
  5
26A
100
AcDbEntity
  8
0
100
AcDbLine
 62
7
  6
BYLAYER
 10
40.0880992329
 20
44.6363929354
 11
40.0880992329
 21
41.028892675
  0
LINE
  5
26B
100
AcDbEntity
  8
0
100
AcDbLine
 62
7
  6
BYLAYER
 10
40.1474255686
 20
52.1833236799
 11
40.1474255686
 21
45.0970920757
  0
LINE
  5
26C
100
AcDbEntity
  8
0
100
AcDbLine
 62
7
  6
BYLAYER
 10
40.1474255686
 20
44.7758425658
 11
40.1474255686
 21
41.1209635717
  0
LINE
  5
26D
100
AcDbEntity
  8
0
100
AcDbLine
 62
7
  6
BYLAYER
 10
40.1474255686
 20
52.5045731898
 11
40.1474255686
 21
56.1594521839
  0
LINE
  5
26E
100
AcDbEntity
  8
0
100
AcDbLine
 62
7
  6
BYLAYER
 10
40.5474255686
 20
53.640202352
 11
40.5474255686
 21
43.6402134036
  0
LINE
  5
26F
100
AcDbEntity
  8
0
100
AcDbLine
 62
7
  6
BYLAYER
 10
18.7474255686
 20
49.3722586854
 11
19.4161686668
 21
49.5514478585
  0
LINE
  5
270
100
AcDbEntity
  8
0
100
AcDbLine
 62
7
  6
BYLAYER
 10
10.1461182259
 20
51.7178597283
 11
9.3520372604
 21
51.6831894046
  0
LINE
  5
271
100
AcDbEntity
  8
0
100
AcDbLine
 62
7
  6
BYLAYER
 10
49.9754789249
 20
53.0352078778
 11
53.5193722123
 21
53.0352078778
  0
LINE
  5
272
100
AcDbEntity
  8
0
100
AcDbLine
 62
7
  6
BYLAYER
 10
61.6286234151
 20
53.2590100313
 11
59.3662277221
 21
53.2590100313
  0
LINE
  5
273
100
AcDbEntity
  8
0
100
AcDbLine
 62
7
  6
BYLAYER
 10
15.4474255686
 20
53.3902078778
 11
16.7474255686
 21
53.3902078778
  0
LINE
  5
274
100
AcDbEntity
  8
0
100
AcDbLine
 62
7
  6
BYLAYER
 10
16.7474255686
 20
53.6402078778
 11
15.4474255686
 21
53.6402078778
  0
LINE
  5
275
100
AcDbEntity
  8
0
100
AcDbLine
 62
7
  6
BYLAYER
 10
15.0297177434
 20
54.2902078778
 11
17.1651333938
 21
54.2902078778
  0
LINE
  5
276
100
AcDbEntity
  8
0
100
AcDbLine
 62
7
  6
BYLAYER
 10
40.5474255686
 20
43.6402078778
 11
40.1474255686
 21
43.2402078778
  0
LINE
  5
277
100
AcDbEntity
  8
0
100
AcDbLine
 62
7
  6
BYLAYER
 10
38.7474255686
 20
56.3544935921
 11
18.3778323524
 21
56.3544935921
  0
LINE
  5
278
100
AcDbEntity
  8
0
100
AcDbLine
 62
7
  6
BYLAYER
 10
40.5474255686
 20
53.6402078778
 11
40.1474255686
 21
54.0402078778
  0
LINE
  5
279
100
AcDbEntity
  8
0
100
AcDbLine
 62
7
  6
BYLAYER
 10
39.5541064885
 20
40.7878903529
 11
39.4474255686
 21
40.7402113615
  0
LINE
  5
27A
100
AcDbEntity
  8
0
100
AcDbLine
 62
7
  6
BYLAYER
 10
38.9974255686
 20
40.7402078778
 11
38.7474255686
 21
40.6402078778
  0
LINE
  5
27B
100
AcDbEntity
  8
0
100
AcDbLine
 62
7
  6
BYLAYER
 10
38.9974255686
 20
56.5402078778
 11
39.4474255686
 21
56.5402078778
  0
LINE
  5
27C
100
AcDbEntity
  8
0
100
AcDbLine
 62
7
  6
BYLAYER
 10
38.7474255686
 20
56.6402078778
 11
16.0974255686
 21
56.6402078778
  0
LINE
  5
27D
100
AcDbEntity
  8
0
100
AcDbLine
 62
7
  6
BYLAYER
 10
38.7474255686
 20
56.6402078778
 11
38.9974255686
 21
56.5402078778
  0
LINE
  5
27E
100
AcDbEntity
  8
0
100
AcDbLine
 62
7
  6
BYLAYER
 10
39.4474255686
 20
56.5402087236
 11
39.5541382554
 21
56.4926058952
  0
LINE
  5
27F
100
AcDbEntity
  8
0
100
AcDbLine
 62
7
  6
BYLAYER
 10
45.2474255686
 20
50.5766995509
 11
45.2474255686
 21
46.7037162047
  0
LINE
  5
280
100
AcDbEntity
  8
0
100
AcDbLine
 62
7
  6
BYLAYER
 10
49.7474255686
 20
52.6402078778
 11
49.9754789249
 21
53.0352078778
  0
LINE
  5
281
100
AcDbEntity
  8
0
100
AcDbLine
 62
7
  6
BYLAYER
 10
49.7474255686
 20
44.6402078778
 11
49.9754789249
 21
44.2452078778
  0
LINE
  5
282
100
AcDbEntity
  8
0
100
AcDbLine
 62
7
  6
BYLAYER
 10
49.4474255686
 20
52.6402078778
 11
49.4474255686
 21
44.6402078778
  0
LINE
  5
283
100
AcDbEntity
  8
0
100
AcDbLine
 62
7
  6
BYLAYER
 10
49.7474255686
 20
44.6402086769
 11
49.7474255686
 21
52.6402070787
  0
LINE
  5
284
100
AcDbEntity
  8
0
100
AcDbLine
 62
7
  6
BYLAYER
 10
58.7474255686
 20
52.6402078778
 11
59.3662277221
 21
53.2590100313
  0
LINE
  5
285
100
AcDbEntity
  8
0
100
AcDbLine
 62
7
  6
BYLAYER
 10
58.7474255686
 20
44.6402078778
 11
59.3662277221
 21
44.0214057243
  0
LINE
  5
286
100
AcDbEntity
  8
0
100
AcDbLine
 62
7
  6
BYLAYER
 10
53.7474255686
 20
52.6402070787
 11
53.7474255686
 21
44.6402086769
  0
LINE
  5
287
100
AcDbEntity
  8
0
100
AcDbLine
 62
7
  6
BYLAYER
 10
53.7474255686
 20
44.6402078778
 11
53.5193722123
 21
44.2452078778
  0
LINE
  5
288
100
AcDbEntity
  8
0
100
AcDbLine
 62
7
  6
BYLAYER
 10
53.7474255686
 20
52.6402078778
 11
53.5193722123
 21
53.0352078778
  0
LINE
  5
289
100
AcDbEntity
  8
0
100
AcDbLine
 62
7
  6
BYLAYER
 10
62.2474255686
 20
44.6402078778
 11
61.6286234151
 21
44.0214057243
  0
LINE
  5
28A
100
AcDbEntity
  8
0
100
AcDbLine
 62
7
  6
BYLAYER
 10
62.2474255686
 20
52.6402078778
 11
61.6286234151
 21
53.2590100313
  0
LINE
  5
28B
100
AcDbEntity
  8
0
100
AcDbLine
 62
7
  6
BYLAYER
 10
58.7474255686
 20
44.6402570777
 11
58.7474255686
 21
52.6401586779
  0
LINE
  5
28C
100
AcDbEntity
  8
0
100
AcDbLine
 62
7
  6
BYLAYER
 10
62.2474255686
 20
52.6401586779
 11
62.2474255686
 21
44.6402570777
  0
ARC
  5
28D
100
AcDbEntity
  8
0
100
AcDbCircle
 62
7
  6
BYLAYER
 10
-41.3699122587
 20
-99.3563876229
 40
172.1023245231
100
AcDbArc
 50
61.750535394
 51
61.9923868395
  0
ARC
  5
28E
100
AcDbEntity
  8
0
100
AcDbCircle
 62
7
  6
BYLAYER
 10
-40.1875206892
 20
194.4250335848
 40
169.5943459357
100
AcDbArc
 50
298.0058251397
 51
298.2512594572
  0
ARC
  5
28F
100
AcDbEntity
  8
0
100
AcDbCircle
 62
7
  6
BYLAYER
 10
49.6007400686
 20
-64.4435906874
 40
117.4733986663
100
AcDbArc
 50
94.6447230207
 51
94.9583038951
  0
ARC
  5
290
100
AcDbEntity
  8
0
100
AcDbCircle
 62
7
  6
BYLAYER
 10
8.3174147471
 20
-13.4047408586
 40
76.5595975613
100
AcDbArc
 50
65.4819680774
 51
65.9204060986
  0
ARC
  5
291
100
AcDbEntity
  8
0
100
AcDbCircle
 62
7
  6
BYLAYER
 10
16.100724419
 20
47.4219478005
 40
9.2182606676
100
AcDbArc
 50
76.0870340644
 51
90.020503891
  0
ARC
  5
292
100
AcDbEntity
  8
0
100
AcDbCircle
 62
7
  6
BYLAYER
 10
51.5933592131
 20
45.3107243379
 40
1.926942085
100
AcDbArc
 50
196.672540225
 51
199.954640456
  0
ARC
  5
293
100
AcDbEntity
  8
0
100
AcDbCircle
 62
7
  6
BYLAYER
 10
49.4474255686
 20
44.9402078778
 40
0.3
100
AcDbArc
 50
270.0
 51
360.0
  0
ARC
  5
294
100
AcDbEntity
  8
0
100
AcDbCircle
 62
7
  6
BYLAYER
 10
12.5974255686
 20
46.4402078778
 40
0.2
100
AcDbArc
 50
0.0
 51
90.0
  0
ARC
  5
295
100
AcDbEntity
  8
0
100
AcDbCircle
 62
7
  6
BYLAYER
 10
12.7974255686
 20
45.3402078778
 40
0.2
100
AcDbArc
 50
180.0
 51
270.0
  0
ARC
  5
296
100
AcDbEntity
  8
0
100
AcDbCircle
 62
7
  6
BYLAYER
 10
12.5974255686
 20
50.8402078778
 40
0.2
100
AcDbArc
 50
270.0
 51
360.0
  0
ARC
  5
297
100
AcDbEntity
  8
0
100
AcDbCircle
 62
7
  6
BYLAYER
 10
12.7974255686
 20
51.9402078778
 40
0.2
100
AcDbArc
 50
90.0
 51
180.0
  0
ARC
  5
298
100
AcDbEntity
  8
0
100
AcDbCircle
 62
7
  6
BYLAYER
 10
16.1311716693
 20
47.5668351963
 40
9.0703045321
100
AcDbArc
 50
75.6588987793
 51
76.0536567559
  0
CIRCLE
  5
299
100
AcDbEntity
  8
0
100
AcDbCircle
 62
7
  6
BYLAYER
 10
16.0974255686
 20
48.6402078778
 40
8.0
  0
ARC
  5
29A
100
AcDbEntity
  8
0
100
AcDbCircle
 62
7
  6
BYLAYER
 10
16.0974255686
 20
48.6402078778
 40
7.4
100
AcDbArc
 50
110.7188983855
 51
114.2811016145
  0
ARC
  5
29B
100
AcDbEntity
  8
0
100
AcDbCircle
 62
7
  6
BYLAYER
 10
16.0974255686
 20
48.6402078778
 40
7.4
100
AcDbArc
 50
95.7188983855
 51
99.2811016145
  0
ARC
  5
29C
100
AcDbEntity
  8
0
100
AcDbCircle
 62
7
  6
BYLAYER
 10
16.0974255686
 20
48.6402078778
 40
7.4
100
AcDbArc
 50
80.7188983855
 51
84.2811016145
  0
ARC
  5
29D
100
AcDbEntity
  8
0
100
AcDbCircle
 62
7
  6
BYLAYER
 10
16.0974255686
 20
48.6402078778
 40
7.4
100
AcDbArc
 50
65.7188983855
 51
69.2811016145
  0
ARC
  5
29E
100
AcDbEntity
  8
0
100
AcDbCircle
 62
7
  6
BYLAYER
 10
16.0974255686
 20
48.6402078778
 40
7.4
100
AcDbArc
 50
20.7188983855
 51
24.2811016145
  0
ARC
  5
29F
100
AcDbEntity
  8
0
100
AcDbCircle
 62
7
  6
BYLAYER
 10
16.0974255686
 20
48.6402078778
 40
7.4
100
AcDbArc
 50
5.7188983855
 51
9.2811016145
  0
ARC
  5
2A0
100
AcDbEntity
  8
0
100
AcDbCircle
 62
7
  6
BYLAYER
 10
16.0974255686
 20
48.6402078778
 40
7.4
100
AcDbArc
 50
350.7188983855
 51
354.2811016145
  0
ARC
  5
2A1
100
AcDbEntity
  8
0
100
AcDbCircle
 62
7
  6
BYLAYER
 10
16.0974255686
 20
48.6402078778
 40
7.4
100
AcDbArc
 50
335.7188983855
 51
339.2811016145
  0
ARC
  5
2A2
100
AcDbEntity
  8
0
100
AcDbCircle
 62
7
  6
BYLAYER
 10
16.0974255686
 20
48.6402078778
 40
7.4
100
AcDbArc
 50
155.7188983855
 51
159.2811016145
  0
ARC
  5
2A3
100
AcDbEntity
  8
0
100
AcDbCircle
 62
7
  6
BYLAYER
 10
16.0974255686
 20
48.6402078778
 40
7.4
100
AcDbArc
 50
290.7188983855
 51
294.2811016145
  0
ARC
  5
2A4
100
AcDbEntity
  8
0
100
AcDbCircle
 62
7
  6
BYLAYER
 10
16.0974255686
 20
48.6402078778
 40
7.4
100
AcDbArc
 50
170.7188983855
 51
174.2811016145
  0
ARC
  5
2A5
100
AcDbEntity
  8
0
100
AcDbCircle
 62
7
  6
BYLAYER
 10
16.0974255686
 20
48.6402078778
 40
7.4
100
AcDbArc
 50
185.7188983855
 51
189.2811016145
  0
ARC
  5
2A6
100
AcDbEntity
  8
0
100
AcDbCircle
 62
7
  6
BYLAYER
 10
16.0974255686
 20
48.6402078778
 40
7.4
100
AcDbArc
 50
275.7188983855
 51
279.2811016145
  0
ARC
  5
2A7
100
AcDbEntity
  8
0
100
AcDbCircle
 62
7
  6
BYLAYER
 10
16.0974255686
 20
48.6402078778
 40
7.4
100
AcDbArc
 50
200.7188983855
 51
204.2811016145
  0
ARC
  5
2A8
100
AcDbEntity
  8
0
100
AcDbCircle
 62
7
  6
BYLAYER
 10
16.0974255686
 20
48.6402078778
 40
7.4
100
AcDbArc
 50
260.7188983855
 51
264.2811016145
  0
ARC
  5
2A9
100
AcDbEntity
  8
0
100
AcDbCircle
 62
7
  6
BYLAYER
 10
16.0974255686
 20
48.6402078778
 40
7.4
100
AcDbArc
 50
245.7188983855
 51
249.2811016145
  0
ARC
  5
2AA
100
AcDbEntity
  8
0
100
AcDbCircle
 62
7
  6
BYLAYER
 10
16.0974255686
 20
48.6402078778
 40
7.2
100
AcDbArc
 50
79.9127185521
 51
85.0872814469
  0
ARC
  5
2AB
100
AcDbEntity
  8
0
100
AcDbCircle
 62
7
  6
BYLAYER
 10
16.0974255686
 20
48.6402078778
 40
7.2
100
AcDbArc
 50
64.9127185521
 51
70.0872814469
  0
ARC
  5
2AC
100
AcDbEntity
  8
0
100
AcDbCircle
 62
7
  6
BYLAYER
 10
16.0974255686
 20
48.6402078778
 40
7.2
100
AcDbArc
 50
19.9127185415
 51
25.087281476
  0
ARC
  5
2AD
100
AcDbEntity
  8
0
100
AcDbCircle
 62
7
  6
BYLAYER
 10
16.0974255686
 20
48.6402078778
 40
7.2
100
AcDbArc
 50
4.9127185415
 51
10.087281476
  0
ARC
  5
2AE
100
AcDbEntity
  8
0
100
AcDbCircle
 62
7
  6
BYLAYER
 10
16.0974255686
 20
48.6402078778
 40
7.2
100
AcDbArc
 50
349.9127185415
 51
355.087281476
  0
ARC
  5
2AF
100
AcDbEntity
  8
0
100
AcDbCircle
 62
7
  6
BYLAYER
 10
16.0974255686
 20
48.6402078778
 40
7.2
100
AcDbArc
 50
334.9127185415
 51
340.087281476
  0
ARC
  5
2B0
100
AcDbEntity
  8
0
100
AcDbCircle
 62
7
  6
BYLAYER
 10
16.0974255686
 20
48.6402078778
 40
7.2
100
AcDbArc
 50
154.9127185521
 51
160.0872814469
  0
ARC
  5
2B1
100
AcDbEntity
  8
0
100
AcDbCircle
 62
7
  6
BYLAYER
 10
16.0974255686
 20
48.6402078778
 40
7.2
100
AcDbArc
 50
169.9127185521
 51
175.0872814469
  0
ARC
  5
2B2
100
AcDbEntity
  8
0
100
AcDbCircle
 62
7
  6
BYLAYER
 10
16.0974255686
 20
48.6402078778
 40
7.2
100
AcDbArc
 50
184.9127185521
 51
190.0872814469
  0
ARC
  5
2B3
100
AcDbEntity
  8
0
100
AcDbCircle
 62
7
  6
BYLAYER
 10
16.0974255686
 20
48.6402078778
 40
7.2
100
AcDbArc
 50
289.9127185415
 51
295.087281476
  0
ARC
  5
2B4
100
AcDbEntity
  8
0
100
AcDbCircle
 62
7
  6
BYLAYER
 10
16.0974255686
 20
48.6402078778
 40
7.2
100
AcDbArc
 50
199.9127185521
 51
205.0872814469
  0
ARC
  5
2B5
100
AcDbEntity
  8
0
100
AcDbCircle
 62
7
  6
BYLAYER
 10
16.0974255686
 20
48.6402078778
 40
7.2
100
AcDbArc
 50
109.9127185521
 51
115.0872814469
  0
ARC
  5
2B6
100
AcDbEntity
  8
0
100
AcDbCircle
 62
7
  6
BYLAYER
 10
16.0974255686
 20
48.6402078778
 40
7.2
100
AcDbArc
 50
274.9127185415
 51
280.087281476
  0
ARC
  5
2B7
100
AcDbEntity
  8
0
100
AcDbCircle
 62
7
  6
BYLAYER
 10
16.0974255686
 20
48.6402078778
 40
7.2
100
AcDbArc
 50
244.9127185415
 51
250.087281476
  0
ARC
  5
2B8
100
AcDbEntity
  8
0
100
AcDbCircle
 62
7
  6
BYLAYER
 10
16.0974255686
 20
48.6402078778
 40
7.2
100
AcDbArc
 50
94.9127185521
 51
100.0872814469
  0
ARC
  5
2B9
100
AcDbEntity
  8
0
100
AcDbCircle
 62
7
  6
BYLAYER
 10
16.0974255686
 20
48.6402078778
 40
7.2
100
AcDbArc
 50
259.9127185415
 51
265.087281476
  0
CIRCLE
  5
2BA
100
AcDbEntity
  8
0
100
AcDbCircle
 62
7
  6
BYLAYER
 10
16.0974255686
 20
48.6402078778
 40
6.7
  0
CIRCLE
  5
2BB
100
AcDbEntity
  8
0
100
AcDbCircle
 62
7
  6
BYLAYER
 10
16.0974255686
 20
48.6402078778
 40
6.5
  0
CIRCLE
  5
2BC
100
AcDbEntity
  8
0
100
AcDbCircle
 62
7
  6
BYLAYER
 10
16.0974255686
 20
48.6402078778
 40
6.35
  0
ARC
  5
2BD
100
AcDbEntity
  8
0
100
AcDbCircle
 62
7
  6
BYLAYER
 10
16.0974255686
 20
48.6402078778
 40
5.75
100
AcDbArc
 50
100.7012654404
 51
259.2987345596
  0
ARC
  5
2BE
100
AcDbEntity
  8
0
100
AcDbCircle
 62
7
  6
BYLAYER
 10
16.0974255686
 20
48.6402078778
 40
5.75
100
AcDbArc
 50
280.7012654404
 51
79.2987345596
  0
CIRCLE
  5
2BF
100
AcDbEntity
  8
0
100
AcDbCircle
 62
7
  6
BYLAYER
 10
16.0974255686
 20
48.6402078778
 40
5.4999998494
  0
CIRCLE
  5
2C0
100
AcDbEntity
  8
0
100
AcDbCircle
 62
7
  6
BYLAYER
 10
16.0974255686
 20
48.6402078778
 40
5.25
  0
ARC
  5
2C1
100
AcDbEntity
  8
0
100
AcDbCircle
 62
7
  6
BYLAYER
 10
16.0974255686
 20
48.6402078778
 40
4.5
100
AcDbArc
 50
98.3051095281
 51
128.9424403558
  0
ARC
  5
2C2
100
AcDbEntity
  8
0
100
AcDbCircle
 62
7
  6
BYLAYER
 10
16.0974255686
 20
48.6402078778
 40
4.5
100
AcDbArc
 50
231.0575568018
 51
81.6948904719
  0
ARC
  5
2C3
100
AcDbEntity
  8
0
100
AcDbCircle
 62
7
  6
BYLAYER
 10
16.0974255686
 20
48.6402078778
 40
4.5
100
AcDbArc
 50
141.057558731
 51
218.942441269
  0
ARC
  5
2C4
100
AcDbEntity
  8
0
100
AcDbCircle
 62
7
  6
BYLAYER
 10
16.0974255686
 20
48.6402078778
 40
4.25
100
AcDbArc
 50
241.927513064
 51
81.2025900092
  0
ARC
  5
2C5
100
AcDbEntity
  8
0
100
AcDbCircle
 62
7
  6
BYLAYER
 10
16.0974255686
 20
48.6402078778
 40
4.25
100
AcDbArc
 50
98.7974102892
 51
118.072486936
  0
ARC
  5
2C6
100
AcDbEntity
  8
0
100
AcDbCircle
 62
7
  6
BYLAYER
 10
16.0974255686
 20
48.6402078778
 40
4.25
100
AcDbArc
 50
151.9275132656
 51
208.0724868855
  0
ARC
  5
2C7
100
AcDbEntity
  8
0
100
AcDbCircle
 62
7
  6
BYLAYER
 10
16.0974255686
 20
48.6402078778
 40
3.7499995806
100
AcDbArc
 50
270.0
 51
90.0000655074
  0
ARC
  5
2C8
100
AcDbEntity
  8
0
100
AcDbCircle
 62
7
  6
BYLAYER
 10
16.0974255686
 20
48.6402078778
 40
3.5
100
AcDbArc
 50
269.999999998
 51
90.0000000023
  0
ARC
  5
2C9
100
AcDbEntity
  8
0
100
AcDbCircle
 62
7
  6
BYLAYER
 10
16.1311638223
 20
49.7136144557
 40
9.070339316
100
AcDbArc
 50
283.9463351481
 51
284.3410962086
  0
ARC
  5
2CA
100
AcDbEntity
  8
0
100
AcDbCircle
 62
7
  6
BYLAYER
 10
16.2457133297
 20
48.5231755751
 40
8.1112817278
100
AcDbArc
 50
66.7743166033
 51
68.0971437904
  0
ARC
  5
2CB
100
AcDbEntity
  8
0
100
AcDbCircle
 62
7
  6
BYLAYER
 10
16.1008752562
 20
49.8575238382
 40
9.2173079768
100
AcDbArc
 50
270.1207521428
 51
283.9134624225
  0
ARC
  5
2CC
100
AcDbEntity
  8
0
100
AcDbCircle
 62
7
  6
BYLAYER
 10
8.488930061
 20
110.304338601
 40
76.1419383602
100
AcDbArc
 50
294.0786803625
 51
294.519538236
  0
ARC
  5
2CD
100
AcDbEntity
  8
0
100
AcDbCircle
 62
7
  6
BYLAYER
 10
51.8700025793
 20
51.9592496946
 40
1.9601036057
100
AcDbArc
 50
16.7008479873
 51
19.9341406492
  0
ARC
  5
2CE
100
AcDbEntity
  8
0
100
AcDbCircle
 62
7
  6
BYLAYER
 10
49.4474255686
 20
52.3402078778
 40
0.3
100
AcDbArc
 50
0.0
 51
90.0
  0
ARC
  5
2CF
100
AcDbEntity
  8
0
100
AcDbCircle
 62
7
  6
BYLAYER
 10
49.7597806531
 20
163.6173589768
 40
119.3734142785
100
AcDbArc
 50
265.0441913028
 51
265.3527730696
  0
SPLINE
  5
2D0
100
AcDbEntity
  8
0
100
AcDbSpline
 62
7
  6
BYLAYER
 70
0
 71
3
 72
10
 73
6
 74
0
 42
0.0000001
 43
0.0000001
 44
0.0000000001
 40
0.0
 40
0.0
 40
0.0
 40
0.0
 40
0.4867371641
 40
0.740145526
 40
1.0
 40
1.0
 40
1.0
 40
1.0
 10
49.7474255686
 20
51.6070584484
 30
0.0
 10
49.7838683411
 20
51.4852682082
 30
0.0
 10
49.8584874884
 20
51.3055737964
 30
0.0
 10
49.9836852675
 20
51.076330846
 30
0.0
 10
50.0548180602
 20
50.9625883095
 30
0.0
 10
50.0921699166
 20
50.9059227333
 30
0.0
  0
SPLINE
  5
2D1
100
AcDbEntity
  8
0
100
AcDbSpline
 62
7
  6
BYLAYER
 70
0
 71
3
 72
9
 73
5
 74
0
 42
0.0000001
 43
0.0000001
 44
0.0000000001
 40
0.0
 40
0.0
 40
0.0
 40
0.0
 40
0.2574726776
 40
1.0
 40
1.0
 40
1.0
 40
1.0
 10
49.9754789249
 20
53.0352078778
 30
0.0
 10
49.9513724572
 20
52.9934542509
 30
0.0
 10
49.8613146272
 20
52.8293426188
 30
0.0
 10
49.7872842555
 20
52.655739957
 30
0.0
 10
49.7474255686
 20
52.5225338719
 30
0.0
  0
SPLINE
  5
2D2
100
AcDbEntity
  8
0
100
AcDbSpline
 62
7
  6
BYLAYER
 70
0
 71
3
 72
9
 73
5
 74
0
 42
0.0000001
 43
0.0000001
 44
0.0000000001
 40
0.0
 40
0.0
 40
0.0
 40
0.0
 40
0.492290771
 40
1.0
 40
1.0
 40
1.0
 40
1.0
 10
49.7821047679
 20
44.6531050455
 30
0.0
 10
49.8073585543
 20
44.5833912962
 30
0.0
 10
49.8663839525
 20
44.4445168609
 30
0.0
 10
49.9372443489
 20
44.3114321061
 30
0.0
 10
49.9754789249
 20
44.2452078778
 30
0.0
  0
SPLINE
  5
2D3
100
AcDbEntity
  8
0
100
AcDbSpline
 62
7
  6
BYLAYER
 70
0
 71
3
 72
10
 73
6
 74
0
 42
0.0000001
 43
0.0000001
 44
0.0000000001
 40
0.0
 40
0.0
 40
0.0
 40
0.0
 40
0.2598545766
 40
0.5132629787
 40
1.0
 40
1.0
 40
1.0
 40
1.0
 10
50.0921699166
 20
46.3744930223
 30
0.0
 10
50.0548180454
 20
46.3178274237
 30
0.0
 10
49.9836852356
 20
46.2040848538
 30
0.0
 10
49.8584874581
 20
45.974841902
 30
0.0
 10
49.7838683304
 20
45.7951475118
 30
0.0
 10
49.7474255686
 20
45.6733573072
 30
0.0
  0
SPLINE
  5
2D4
100
AcDbEntity
  8
0
100
AcDbSpline
 62
7
  6
BYLAYER
 70
0
 71
3
 72
11
 73
7
 74
0
 42
0.0000001
 43
0.0000001
 44
0.0000000001
 40
0.0
 40
0.0
 40
0.0
 40
0.0
 40
0.2500109806
 40
0.5000134875
 40
0.7500081109
 40
1.0
 40
1.0
 40
1.0
 40
1.0
 10
50.0921699166
 20
46.3744930223
 30
0.0
 10
50.0397370657
 20
46.5587585898
 30
0.0
 10
49.9437852316
 20
46.92992248
 30
0.0
 10
49.8334034798
 20
47.4943608845
 30
0.0
 10
49.7634477531
 20
48.0653283112
 30
0.0
 10
49.7474255686
 20
48.4486422285
 30
0.0
 10
49.7474255686
 20
48.6402078778
 30
0.0
  0
SPLINE
  5
2D5
100
AcDbEntity
  8
0
100
AcDbSpline
 62
7
  6
BYLAYER
 70
0
 71
3
 72
10
 73
6
 74
0
 42
0.0000001
 43
0.0000001
 44
0.0000000001
 40
0.0
 40
0.0
 40
0.0
 40
0.0
 40
0.2598475145
 40
0.5132547273
 40
1.0
 40
1.0
 40
1.0
 40
1.0
 10
53.4026812206
 20
46.3744930223
 30
0.0
 10
53.4400320906
 20
46.3178289427
 30
0.0
 10
53.5111664238
 20
46.2040898144
 30
0.0
 10
53.6363631231
 20
45.9748460209
 30
0.0
 10
53.7109821754
 20
45.7951496216
 30
0.0
 10
53.7474255686
 20
45.6733573072
 30
0.0
  0
SPLINE
  5
2D6
100
AcDbEntity
  8
0
100
AcDbSpline
 62
7
  6
BYLAYER
 70
0
 71
3
 72
11
 73
7
 74
0
 42
0.0000001
 43
0.0000001
 44
0.0000000001
 40
0.0
 40
0.0
 40
0.0
 40
0.0
 40
0.2499919445
 40
0.4999865732
 40
0.749989059
 40
1.0
 40
1.0
 40
1.0
 40
1.0
 10
53.7474255686
 20
48.6402078777
 30
0.0
 10
53.7474255686
 20
48.4486421861
 30
0.0
 10
53.7314033851
 20
48.0653282223
 30
0.0
 10
53.6614476378
 20
47.4943607668
 30
0.0
 10
53.5510658479
 20
46.9299224147
 30
0.0
 10
53.4551140632
 20
46.5587585605
 30
0.0
 10
53.4026812206
 20
46.3744930223
 30
0.0
  0
SPLINE
  5
2D7
100
AcDbEntity
  8
0
100
AcDbSpline
 62
7
  6
BYLAYER
 70
0
 71
3
 72
9
 73
5
 74
0
 42
0.0000001
 43
0.0000001
 44
0.0000000001
 40
0.0
 40
0.0
 40
0.0
 40
0.0
 40
0.5077111145
 40
1.0
 40
1.0
 40
1.0
 40
1.0
 10
53.5193722123
 20
53.0352078778
 30
0.0
 10
53.5575874622
 20
52.9690171233
 30
0.0
 10
53.6284178861
 20
52.8360033387
 30
0.0
 10
53.6874172203
 20
52.697201777
 30
0.0
 10
53.7126668504
 20
52.6275269792
 30
0.0
  0
SPLINE
  5
2D8
100
AcDbEntity
  8
0
100
AcDbSpline
 62
7
  6
BYLAYER
 70
0
 71
3
 72
11
 73
7
 74
0
 42
0.0000001
 43
0.0000001
 44
0.0000000001
 40
0.0
 40
0.0
 40
0.0
 40
0.0
 40
0.2499919581
 40
0.4999865759
 40
0.7499891542
 40
1.0
 40
1.0
 40
1.0
 40
1.0
 10
49.7474255686
 20
48.6402078778
 30
0.0
 10
49.7474255686
 20
48.8317735775
 30
0.0
 10
49.7634474131
 20
49.2150875518
 30
0.0
 10
49.8334035537
 20
49.7860550617
 30
0.0
 10
49.9437862221
 20
50.3504931907
 30
0.0
 10
50.0397370946
 20
50.7216572674
 30
0.0
 10
50.0921699166
 20
50.9059227333
 30
0.0
  0
SPLINE
  5
2D9
100
AcDbEntity
  8
0
100
AcDbSpline
 62
7
  6
BYLAYER
 70
0
 71
3
 72
10
 73
6
 74
0
 42
0.0000001
 43
0.0000001
 44
0.0000000001
 40
0.0
 40
0.0
 40
0.0
 40
0.0
 40
0.4867453556
 40
0.7401525403
 40
1.0
 40
1.0
 40
1.0
 40
1.0
 10
53.7474255686
 20
51.6070584484
 30
0.0
 10
53.7109821693
 20
51.4852661135
 30
0.0
 10
53.6363631365
 20
51.3055696867
 30
0.0
 10
53.5111663611
 20
51.0763259365
 30
0.0
 10
53.4400320826
 20
50.9625868009
 30
0.0
 10
53.4026812206
 20
50.9059227333
 30
0.0
  0
SPLINE
  5
2DA
100
AcDbEntity
  8
0
100
AcDbSpline
 62
7
  6
BYLAYER
 70
0
 71
3
 72
11
 73
7
 74
0
 42
0.0000001
 43
0.0000001
 44
0.0000000001
 40
0.0
 40
0.0
 40
0.0
 40
0.0
 40
0.2500108778
 40
0.5000134767
 40
0.7500080909
 40
1.0
 40
1.0
 40
1.0
 40
1.0
 10
53.4026812206
 20
50.9059227333
 30
0.0
 10
53.4551140493
 20
50.7216572438
 30
0.0
 10
53.5510649262
 20
50.3504931267
 30
0.0
 10
53.6614476114
 20
49.7860549623
 30
0.0
 10
53.7314037206
 20
49.2150874731
 30
0.0
 10
53.7474255686
 20
48.8317735399
 30
0.0
 10
53.7474255686
 20
48.6402078777
 30
0.0
  0
SPLINE
  5
2DB
100
AcDbEntity
  8
0
100
AcDbSpline
 62
7
  6
BYLAYER
 70
0
 71
3
 72
10
 73
6
 74
0
 42
0.0000001
 43
0.0000001
 44
0.0000000001
 40
0.0
 40
0.0
 40
0.0
 40
0.0
 40
0.242957108
 40
0.6159867521
 40
1.0
 40
1.0
 40
1.0
 40
1.0
 10
53.7474255686
 20
44.7578818837
 30
0.0
 10
53.7343728597
 20
44.7142602698
 30
0.0
 10
53.6971812942
 20
44.6048609679
 30
0.0
 10
53.6223536284
 20
44.4327560008
 30
0.0
 10
53.5553561867
 20
44.3075339498
 30
0.0
 10
53.5193722123
 20
44.2452078778
 30
0.0
  0
SPLINE
  5
2DC
100
AcDbEntity
  8
0
100
AcDbSpline
 62
7
  6
BYLAYER
 70
0
 71
3
 72
15
 73
11
 74
0
 42
0.0000001
 43
0.0000001
 44
0.0000000001
 40
0.0
 40
0.0
 40
0.0
 40
0.0
 40
0.1124503548
 40
0.2267503277
 40
0.3443553327
 40
0.4662329807
 40
0.5928204734
 40
0.7241542733
 40
0.8600065311
 40
1.0
 40
1.0
 40
1.0
 40
1.0
 10
58.7474255684
 20
52.1043094962
 30
0.0
 10
58.7474255686
 20
52.1546783334
 30
0.0
 10
58.7552000288
 20
52.2564013178
 30
0.0
 10
58.789456569
 20
52.4072885176
 30
0.0
 10
58.8448780628
 20
52.5561900841
 30
0.0
 10
58.9194562135
 20
52.7025548582
 30
0.0
 10
59.0109690095
 20
52.8462183596
 30
0.0
 10
59.1172902336
 20
52.9871379477
 30
0.0
 10
59.2363692706
 20
53.1254155313
 30
0.0
 10
59.3218879075
 20
53.2146702167
 30
0.0
 10
59.3662277221
 20
53.2590100313
 30
0.0
  0
SPLINE
  5
2DD
100
AcDbEntity
  8
0
100
AcDbSpline
 62
7
  6
BYLAYER
 70
0
 71
3
 72
15
 73
11
 74
0
 42
0.0000001
 43
0.0000001
 44
0.0000000001
 40
0.0
 40
0.0
 40
0.0
 40
0.0
 40
0.1399940219
 40
0.2758467133
 40
0.4071807583
 40
0.533768201
 40
0.6556460951
 40
0.773250746
 40
0.8875500136
 40
1.0
 40
1.0
 40
1.0
 40
1.0
 10
59.3662277221
 20
50.9496089546
 30
0.0
 10
59.3218877311
 20
50.9939489455
 30
0.0
 10
59.236368439
 20
51.0832036174
 30
0.0
 10
59.1172890776
 20
51.2214816787
 30
0.0
 10
59.0109682148
 20
51.3624019225
 30
0.0
 10
58.9194558353
 20
51.5060658662
 30
0.0
 10
58.8448769584
 20
51.6524302517
 30
0.0
 10
58.7894568574
 20
51.8013319188
 30
0.0
 10
58.7551993062
 20
51.9522182242
 30
0.0
 10
58.7474255683
 20
52.0539408225
 30
0.0
 10
58.7474255684
 20
52.1043094962
 30
0.0
  0
SPLINE
  5
2DE
100
AcDbEntity
  8
0
100
AcDbSpline
 62
7
  6
BYLAYER
 70
0
 71
3
 72
15
 73
11
 74
0
 42
0.0000001
 43
0.0000001
 44
0.0000000001
 40
0.0
 40
0.0
 40
0.0
 40
0.0
 40
0.1399939696
 40
0.2758466122
 40
0.4071806548
 40
0.533768151
 40
0.6556460977
 40
0.7732507655
 40
0.887550023
 40
1.0
 40
1.0
 40
1.0
 40
1.0
 10
61.6286234151
 20
53.2590100313
 30
0.0
 10
61.6729633875
 20
53.2146700589
 30
0.0
 10
61.7584825973
 20
53.1254153769
 30
0.0
 10
61.8775618515
 20
52.9871372974
 30
0.0
 10
61.9838826979
 20
52.846217051
 30
0.0
 10
62.0753951211
 20
52.7025530931
 30
0.0
 10
62.1499741289
 20
52.5561887189
 30
0.0
 10
62.2053942411
 20
52.407287034
 30
0.0
 10
62.2396518474
 20
52.2564007493
 30
0.0
 10
62.2474255686
 20
52.1546781614
 30
0.0
 10
62.2474255686
 20
52.1043094942
 30
0.0
  0
SPLINE
  5
2DF
100
AcDbEntity
  8
0
100
AcDbSpline
 62
7
  6
BYLAYER
 70
0
 71
3
 72
13
 73
9
 74
0
 42
0.0000001
 43
0.0000001
 44
0.0000000001
 40
0.0
 40
0.0
 40
0.0
 40
0.0
 40
0.1250130275
 40
0.250048898
 40
0.3750720526
 40
0.5000885859
 40
0.7500286835
 40
1.0
 40
1.0
 40
1.0
 40
1.0
 10
58.7474255686
 20
48.6402078778
 30
0.0
 10
58.7474255685
 20
48.7407323364
 30
0.0
 10
58.7550496094
 20
48.9418802657
 30
0.0
 10
58.7888293742
 20
49.2418357859
 30
0.0
 10
58.8437156709
 20
49.5386481168
 30
0.0
 10
58.9425626986
 20
49.9285947604
 30
0.0
 10
59.1089645622
 20
50.40384428
 30
0.0
 10
59.2763355975
 20
50.7698247053
 30
0.0
 10
59.3662277221
 20
50.9496089546
 30
0.0
  0
SPLINE
  5
2E0
100
AcDbEntity
  8
0
100
AcDbSpline
 62
7
  6
BYLAYER
 70
0
 71
3
 72
15
 73
11
 74
0
 42
0.0000001
 43
0.0000001
 44
0.0000000001
 40
0.0
 40
0.0
 40
0.0
 40
0.0
 40
0.1124503645
 40
0.2267503478
 40
0.3443553341
 40
0.4662329311
 40
0.5928203721
 40
0.7241541744
 40
0.8600064795
 40
1.0
 40
1.0
 40
1.0
 40
1.0
 10
62.2474255686
 20
45.1761062641
 30
0.0
 10
62.2474255687
 20
45.1257374202
 30
0.0
 10
62.2396510817
 20
45.024014426
 30
0.0
 10
62.2053946006
 20
44.8731272066
 30
0.0
 10
62.1499731298
 20
44.7242256532
 30
0.0
 10
62.0753951019
 20
44.577860871
 30
0.0
 10
61.9838823448
 20
44.4341973858
 30
0.0
 10
61.8775611053
 20
44.2932777998
 30
0.0
 10
61.7584819658
 20
44.1550002321
 30
0.0
 10
61.672963248
 20
44.0657455572
 30
0.0
 10
61.6286234151
 20
44.0214057243
 30
0.0
  0
SPLINE
  5
2E1
100
AcDbEntity
  8
0
100
AcDbSpline
 62
7
  6
BYLAYER
 70
0
 71
3
 72
15
 73
11
 74
0
 42
0.0000001
 43
0.0000001
 44
0.0000000001
 40
0.0
 40
0.0
 40
0.0
 40
0.0
 40
0.1399940219
 40
0.2758467133
 40
0.4071807583
 40
0.533768201
 40
0.6556460951
 40
0.773250746
 40
0.8875500136
 40
1.0
 40
1.0
 40
1.0
 40
1.0
 10
59.3662277221
 20
44.0214057243
 30
0.0
 10
59.3218877311
 20
44.0657457153
 30
0.0
 10
59.2363684389
 20
44.1550003871
 30
0.0
 10
59.1172890776
 20
44.2932784485
 30
0.0
 10
59.0109682147
 20
44.4341986923
 30
0.0
 10
58.9194558352
 20
44.5778626361
 30
0.0
 10
58.8448769583
 20
44.7242270216
 30
0.0
 10
58.7894568573
 20
44.8731286888
 30
0.0
 10
58.7551993062
 20
45.0240149942
 30
0.0
 10
58.7474255682
 20
45.1257375925
 30
0.0
 10
58.7474255684
 20
45.1761062662
 30
0.0
  0
SPLINE
  5
2E2
100
AcDbEntity
  8
0
100
AcDbSpline
 62
7
  6
BYLAYER
 70
0
 71
3
 72
13
 73
9
 74
0
 42
0.0000001
 43
0.0000001
 44
0.0000000001
 40
0.0
 40
0.0
 40
0.0
 40
0.0
 40
0.2499716815
 40
0.4999125338
 40
0.6249294545
 40
0.7499522425
 40
0.8749872958
 40
1.0
 40
1.0
 40
1.0
 40
1.0
 10
59.3662277221
 20
46.330806801
 30
0.0
 10
59.2763354738
 20
46.5105912978
 30
0.0
 10
59.1089635395
 20
46.876572419
 30
0.0
 10
58.9425651692
 20
47.3518242367
 30
0.0
 10
58.8437149588
 20
47.7417706616
 30
0.0
 10
58.7888292598
 20
48.0385824532
 30
0.0
 10
58.7550487947
 20
48.3385366491
 30
0.0
 10
58.7474255685
 20
48.5396836876
 30
0.0
 10
58.7474255686
 20
48.6402078778
 30
0.0
  0
SPLINE
  5
2E3
100
AcDbEntity
  8
0
100
AcDbSpline
 62
7
  6
BYLAYER
 70
0
 71
3
 72
15
 73
11
 74
0
 42
0.0000001
 43
0.0000001
 44
0.0000000001
 40
0.0
 40
0.0
 40
0.0
 40
0.0
 40
0.1124503548
 40
0.2267503277
 40
0.3443553327
 40
0.4662329807
 40
0.5928204735
 40
0.7241542733
 40
0.8600065311
 40
1.0
 40
1.0
 40
1.0
 40
1.0
 10
58.7474255684
 20
45.1761062662
 30
0.0
 10
58.7474255686
 20
45.2264751035
 30
0.0
 10
58.7552000289
 20
45.3281980878
 30
0.0
 10
58.7894565691
 20
45.4790852876
 30
0.0
 10
58.8448780629
 20
45.627986854
 30
0.0
 10
58.9194562135
 20
45.774351628
 30
0.0
 10
59.0109690096
 20
45.9180151295
 30
0.0
 10
59.1172902337
 20
46.0589347175
 30
0.0
 10
59.2363692706
 20
46.1972123011
 30
0.0
 10
59.3218879075
 20
46.2864669864
 30
0.0
 10
59.3662277221
 20
46.330806801
 30
0.0
  0
SPLINE
  5
2E4
100
AcDbEntity
  8
0
100
AcDbSpline
 62
7
  6
BYLAYER
 70
0
 71
3
 72
13
 73
9
 74
0
 42
0.0000001
 43
0.0000001
 44
0.0000000001
 40
0.0
 40
0.0
 40
0.0
 40
0.0
 40
0.2499720143
 40
0.4999126281
 40
0.624929376
 40
0.7499522992
 40
0.8749873624
 40
1.0
 40
1.0
 40
1.0
 40
1.0
 10
61.6286234151
 20
50.9496089546
 30
0.0
 10
61.7185157903
 20
50.7698242041
 30
0.0
 10
61.8858879822
 20
50.4038431563
 30
0.0
 10
62.0522881709
 20
49.9285919022
 30
0.0
 10
62.1511366078
 20
49.5386451879
 30
0.0
 10
62.2060214454
 20
49.2418332679
 30
0.0
 10
62.2398022714
 20
48.9418790374
 30
0.0
 10
62.2474255687
 20
48.7407320225
 30
0.0
 10
62.2474255686
 20
48.6402078778
 30
0.0
  0
SPLINE
  5
2E5
100
AcDbEntity
  8
0
100
AcDbSpline
 62
7
  6
BYLAYER
 70
0
 71
3
 72
15
 73
11
 74
0
 42
0.0000001
 43
0.0000001
 44
0.0000000001
 40
0.0
 40
0.0
 40
0.0
 40
0.0
 40
0.1124503645
 40
0.2267503478
 40
0.3443553341
 40
0.4662329311
 40
0.5928203721
 40
0.7241541744
 40
0.8600064795
 40
1.0
 40
1.0
 40
1.0
 40
1.0
 10
62.2474255686
 20
52.1043094942
 30
0.0
 10
62.2474255687
 20
52.0539406504
 30
0.0
 10
62.2396510816
 20
51.9522176562
 30
0.0
 10
62.2053946006
 20
51.8013304368
 30
0.0
 10
62.1499731298
 20
51.6524288834
 30
0.0
 10
62.0753951018
 20
51.5060641012
 30
0.0
 10
61.9838823448
 20
51.362400616
 30
0.0
 10
61.8775611053
 20
51.2214810301
 30
0.0
 10
61.7584819657
 20
51.0832034624
 30
0.0
 10
61.672963248
 20
50.9939487874
 30
0.0
 10
61.6286234151
 20
50.9496089546
 30
0.0
  0
SPLINE
  5
2E6
100
AcDbEntity
  8
0
100
AcDbSpline
 62
7
  6
BYLAYER
 70
0
 71
3
 72
15
 73
11
 74
0
 42
0.0000001
 43
0.0000001
 44
0.0000000001
 40
0.0
 40
0.0
 40
0.0
 40
0.0
 40
0.1399939696
 40
0.2758466122
 40
0.4071806548
 40
0.533768151
 40
0.6556460977
 40
0.7732507655
 40
0.887550023
 40
1.0
 40
1.0
 40
1.0
 40
1.0
 10
61.6286234151
 20
46.330806801
 30
0.0
 10
61.6729633875
 20
46.2864668286
 30
0.0
 10
61.7584825973
 20
46.1972121466
 30
0.0
 10
61.8775618515
 20
46.0589340672
 30
0.0
 10
61.9838826978
 20
45.9180138208
 30
0.0
 10
62.075395121
 20
45.7743498628
 30
0.0
 10
62.1499741289
 20
45.6279854887
 30
0.0
 10
62.205394241
 20
45.4790838039
 30
0.0
 10
62.2396518474
 20
45.3281975192
 30
0.0
 10
62.2474255686
 20
45.2264749313
 30
0.0
 10
62.2474255686
 20
45.1761062641
 30
0.0
  0
SPLINE
  5
2E7
100
AcDbEntity
  8
0
100
AcDbSpline
 62
7
  6
BYLAYER
 70
0
 71
3
 72
13
 73
9
 74
0
 42
0.0000001
 43
0.0000001
 44
0.0000000001
 40
0.0
 40
0.0
 40
0.0
 40
0.0
 40
0.1250130721
 40
0.2500488847
 40
0.3750718862
 40
0.5000886032
 40
0.7500289722
 40
1.0
 40
1.0
 40
1.0
 40
1.0
 10
62.2474255686
 20
48.6402078778
 30
0.0
 10
62.2474255687
 20
48.5396833918
 30
0.0
 10
62.2398016489
 20
48.3385354926
 30
0.0
 10
62.2060221318
 20
48.0385800913
 30
0.0
 10
62.1511349943
 20
47.7417679341
 30
0.0
 10
62.0522862217
 20
47.3518215542
 30
0.0
 10
61.8858863053
 20
46.8765713505
 30
0.0
 10
61.7185154282
 20
46.5105908274
 30
0.0
 10
61.6286234151
 20
46.330806801
 30
0.0
  0
SPLINE
  5
2E8
100
AcDbEntity
  8
0
100
AcDbSpline
 62
7
  6
BYLAYER
 70
0
 71
3
 72
16
 73
12
 74
0
 42
0.0000001
 43
0.0000001
 44
0.0000000001
 40
0.0
 40
0.0
 40
0.0
 40
0.0
 40
0.3605410134
 40
0.5232896145
 40
0.6665068666
 40
0.7861275855
 40
0.8798246093
 40
0.9171465536
 40
0.9487120943
 40
0.9756861955
 40
1.0
 40
1.0
 40
1.0
 40
1.0
 10
49.4474255686
 20
46.7037162047
 30
0.0
 10
49.48631719
 20
46.7037162047
 30
0.0
 10
49.5428510568
 20
46.7064135235
 30
0.0
 10
49.614110974
 20
46.7162136955
 30
0.0
 10
49.6590863153
 20
46.7257270986
 30
0.0
 10
49.6958409476
 20
46.7372058335
 30
0.0
 10
49.720489392
 20
46.7487891451
 30
0.0
 10
49.7346735915
 20
46.7592086536
 30
0.0
 10
49.7418580143
 20
46.7667458411
 30
0.0
 10
49.7463573563
 20
46.7746000662
 30
0.0
 10
49.7474255686
 20
46.7801675814
 30
0.0
 10
49.7474255686
 20
46.7827903157
 30
0.0
  0
SPLINE
  5
2E9
100
AcDbEntity
  8
0
100
AcDbSpline
 62
7
  6
BYLAYER
 70
0
 71
3
 72
16
 73
12
 74
0
 42
0.0000001
 43
0.0000001
 44
0.0000000001
 40
0.0
 40
0.0
 40
0.0
 40
0.0
 40
0.360537453
 40
0.5232845444
 40
0.6665005794
 40
0.7861182179
 40
0.8798102162
 40
0.9171323887
 40
0.948702301
 40
0.975682769
 40
1.0
 40
1.0
 40
1.0
 40
1.0
 10
49.4474255686
 20
50.5766995509
 30
0.0
 10
49.4863171147
 20
50.5766995509
 30
0.0
 10
49.5428508164
 20
50.5740005412
 30
0.0
 10
49.6141105701
 20
50.5642003395
 30
0.0
 10
49.6590857729
 20
50.5546874809
 30
0.0
 10
49.6958403197
 20
50.5432116921
 30
0.0
 10
49.7204903091
 20
50.5316327981
 30
0.0
 10
49.7346745996
 20
50.5212129828
 30
0.0
 10
49.7418585576
 20
50.5136734725
 30
0.0
 10
49.746357221
 20
50.5058171046
 30
0.0
 10
49.7474255686
 20
50.5002485646
 30
0.0
 10
49.7474255686
 20
50.4976254399
 30
0.0
  0
SPLINE
  5
2EA
100
AcDbEntity
  8
0
100
AcDbSpline
 62
7
  6
BYLAYER
 70
0
 71
3
 72
9
 73
5
 74
0
 42
0.0000001
 43
0.0000001
 44
0.0000000001
 40
0.0
 40
0.0
 40
0.0
 40
0.0
 40
0.4930428313
 40
1.0
 40
1.0
 40
1.0
 40
1.0
 10
40.0880860623
 20
56.2515325339
 30
0.0
 10
40.1051554244
 20
56.2437460665
 30
0.0
 10
40.1359134716
 20
56.217627306
 30
0.0
 10
40.1474255686
 20
56.1787431127
 30
0.0
 10
40.1474255686
 20
56.1594521839
 30
0.0
  0
SPLINE
  5
2EB
100
AcDbEntity
  8
0
100
AcDbSpline
 62
7
  6
BYLAYER
 70
0
 71
3
 72
9
 73
5
 74
0
 42
0.0000001
 43
0.0000001
 44
0.0000000001
 40
0.0
 40
0.0
 40
0.0
 40
0.0
 40
0.506960946
 40
1.0
 40
1.0
 40
1.0
 40
1.0
 10
40.1474255686
 20
41.1209635717
 30
0.0
 10
40.1474255686
 20
41.1016760171
 30
0.0
 10
40.1359165706
 20
41.0628002105
 30
0.0
 10
40.1051687169
 20
41.0366800882
 30
0.0
 10
40.0881025984
 20
41.0288951004
 30
0.0
  0
SPLINE
  5
2EC
100
AcDbEntity
  8
0
100
AcDbSpline
 62
7
  6
BYLAYER
 70
0
 71
3
 72
11
 73
7
 74
0
 42
0.0000001
 43
0.0000001
 44
0.0000000001
 40
0.0
 40
0.0
 40
0.0
 40
0.0
 40
0.1812458826
 40
0.4126499471
 40
0.690679005
 40
1.0
 40
1.0
 40
1.0
 40
1.0
 10
40.1474255686
 20
45.0970920757
 30
0.0
 10
40.1474255686
 20
45.0916143521
 30
0.0
 10
40.1433102424
 20
45.0792618946
 30
0.0
 10
40.1304080105
 20
45.0626676334
 30
0.0
 10
40.1114740134
 20
45.0465212328
 30
0.0
 10
40.0963373936
 20
45.0371347518
 30
0.0
 10
40.0881025984
 20
45.0327095546
 30
0.0
  0
SPLINE
  5
2ED
100
AcDbEntity
  8
0
100
AcDbSpline
 62
7
  6
BYLAYER
 70
0
 71
3
 72
11
 73
7
 74
0
 42
0.0000001
 43
0.0000001
 44
0.0000000001
 40
0.0
 40
0.0
 40
0.0
 40
0.0
 40
0.3092985013
 40
0.5873527443
 40
0.8187831824
 40
1.0
 40
1.0
 40
1.0
 40
1.0
 10
40.0880860623
 20
52.2477172548
 30
0.0
 10
40.0963221509
 20
52.2432913626
 30
0.0
 10
40.1114637624
 20
52.2339047496
 30
0.0
 10
40.1304021541
 20
52.2177539917
 30
0.0
 10
40.1433121385
 20
52.2011579303
 30
0.0
 10
40.1474255686
 20
52.1888017836
 30
0.0
 10
40.1474255686
 20
52.1833236799
 30
0.0
  0
LINE
  5
2EE
100
AcDbEntity
  8
0
100
AcDbLine
 62
7
  6
BYLAYER
 10
12.5367681027
 20
45.9070646824
 11
12.5300072219
 21
45.9314834981
  0
LINE
  5
2EF
100
AcDbEntity
  8
0
100
AcDbLine
 62
7
  6
BYLAYER
 10
12.5300072219
 20
45.9314834981
 11
12.5219553044
 21
45.9606672854
  0
SPLINE
  5
2F0
100
AcDbEntity
  8
0
100
AcDbSpline
 62
7
  6
BYLAYER
 70
0
 71
3
 72
9
 73
5
 74
0
 42
0.0000001
 43
0.0000001
 44
0.0000000001
 40
0.0
 40
0.0
 40
0.0
 40
0.0
 40
0.2138467479
 40
1.0
 40
1.0
 40
1.0
 40
1.0
 10
12.5219553044
 20
45.9606672854
 30
0.0
 10
12.5086784576
 20
46.0088854996
 30
0.0
 10
12.447194389
 20
46.2345270061
 30
0.0
 10
12.389225871
 20
46.4611635685
 30
0.0
 10
12.3474257643
 20
46.6402079424
 30
0.0
  0
SPLINE
  5
2F1
100
AcDbEntity
  8
0
100
AcDbSpline
 62
7
  6
BYLAYER
 70
0
 71
3
 72
12
 73
8
 74
0
 42
0.0000001
 43
0.0000001
 44
0.0000000001
 40
0.0
 40
0.0
 40
0.0
 40
0.0
 40
0.3259053016
 40
0.5946528733
 40
0.8070354043
 40
0.9028328127
 40
1.0
 40
1.0
 40
1.0
 40
1.0
 10
40.0880860625
 20
44.6363925988
 30
0.0
 10
40.0959776566
 20
44.6357517094
 30
0.0
 10
40.1105228472
 20
44.6356949806
 30
0.0
 10
40.1298868025
 20
44.6398300045
 30
0.0
 10
40.1420683358
 20
44.6481008965
 30
0.0
 10
40.1467180611
 20
44.6569902989
 30
0.0
 10
40.1474255686
 20
44.6617187847
 30
0.0
 10
40.1474255686
 20
44.6640793738
 30
0.0
  0
SPLINE
  5
2F2
100
AcDbEntity
  8
0
100
AcDbSpline
 62
7
  6
BYLAYER
 70
0
 71
3
 72
12
 73
8
 74
0
 42
0.0000001
 43
0.0000001
 44
0.0000000001
 40
0.0
 40
0.0
 40
0.0
 40
0.0
 40
0.0971750608
 40
0.192988909
 40
0.4053530686
 40
0.674076569
 40
1.0
 40
1.0
 40
1.0
 40
1.0
 10
40.1474255686
 20
52.6163363818
 30
0.0
 10
40.1474255686
 20
52.6186965602
 30
0.0
 10
40.1467171218
 20
52.6234244173
 30
0.0
 10
40.1420672089
 20
52.6323105622
 30
0.0
 10
40.1298929925
 20
52.6405831947
 30
0.0
 10
40.1105336932
 20
52.6447170066
 30
0.0
 10
40.0959926189
 20
52.6446630936
 30
0.0
 10
40.0881025984
 20
52.644022332
 30
0.0
  0
SPLINE
  5
2F3
100
AcDbEntity
  8
0
100
AcDbSpline
 62
7
  6
BYLAYER
 70
0
 71
3
 72
20
 73
16
 74
0
 42
0.0000001
 43
0.0000001
 44
0.0000000001
 40
0.0
 40
0.0
 40
0.0
 40
0.0
 40
0.156424578
 40
0.3108563369
 40
0.4623016088
 40
0.6086275393
 40
0.6790281855
 40
0.746718741
 40
0.8107449156
 40
0.8696383257
 40
0.9214526164
 40
0.962847238
 40
0.9784897435
 40
0.9901794434
 40
1.0
 40
1.0
 40
1.0
 40
1.0
 10
14.0974262063
 20
52.3902054862
 30
0.0
 10
14.0581103599
 20
52.3797213746
 30
0.0
 10
13.9801737103
 20
52.3581498141
 30
0.0
 10
13.8649127856
 20
52.3238266777
 30
0.0
 10
13.7528661889
 20
52.2879923836
 30
0.0
 10
13.6622373007
 20
52.2570230856
 30
0.0
 10
13.592603007
 20
52.2320095652
 30
0.0
 10
13.5433159288
 20
52.2137535718
 30
0.0
 10
13.4969385965
 20
52.1960510563
 30
0.0
 10
13.4547957647
 20
52.179537993
 30
0.0
 10
13.4175604722
 20
52.1645353859
 30
0.0
 10
13.3926194634
 20
52.1543419228
 30
0.0
 10
13.3742577581
 20
52.1466667245
 30
0.0
 10
13.3689021953
 20
52.1445126459
 30
0.0
 10
13.356504358
 20
52.1391421815
 30
0.0
 10
13.3588241331
 20
52.1402119514
 30
0.0
  0
SPLINE
  5
2F4
100
AcDbEntity
  8
0
100
AcDbSpline
 62
7
  6
BYLAYER
 70
0
 71
3
 72
11
 73
7
 74
0
 42
0.0000001
 43
0.0000001
 44
0.0000000001
 40
0.0
 40
0.0
 40
0.0
 40
0.0
 40
0.1952974295
 40
0.4188427499
 40
0.683651104
 40
1.0
 40
1.0
 40
1.0
 40
1.0
 10
18.3087296862
 20
40.9518919869
 30
0.0
 10
18.31353412
 20
40.9532747119
 30
0.0
 10
18.3244606812
 20
40.954257664
 30
0.0
 10
18.3417218116
 20
40.9502631863
 30
0.0
 10
18.3601784344
 20
40.9407495337
 30
0.0
 10
18.3718794269
 20
40.9314192136
 30
0.0
 10
18.3778324769
 20
40.9259289372
 30
0.0
  0
SPLINE
  5
2F5
100
AcDbEntity
  8
0
100
AcDbSpline
 62
7
  6
BYLAYER
 70
0
 71
3
 72
23
 73
19
 74
0
 42
0.0000001
 43
0.0000001
 44
0.0000000001
 40
0.0
 40
0.0
 40
0.0
 40
0.0
 40
0.0682996049
 40
0.1023915979
 40
0.1363530953
 40
0.2037120333
 40
0.2701786804
 40
0.3356199969
 40
0.3999211711
 40
0.4630772077
 40
0.5251505714
 40
0.5862202694
 40
0.6464136533
 40
0.7059095658
 40
0.7648875978
 40
0.8819612812
 40
0.9406823905
 40
1.0
 40
1.0
 40
1.0
 40
1.0
 10
24.3474255686
 20
48.6402078776
 30
0.0
 10
24.3491744173
 20
48.8528608565
 30
0.0
 10
24.335908396
 20
49.171991599
 30
0.0
 10
24.2911926311
 20
49.5942492503
 30
0.0
 10
24.2303924613
 20
50.0115641131
 30
0.0
 10
24.1253923588
 20
50.5239199955
 30
0.0
 10
23.9525099803
 20
51.120477583
 30
0.0
 10
23.7361632023
 20
51.6924749098
 30
0.0
 10
23.4812996668
 20
52.2369614753
 30
0.0
 10
23.1914583566
 20
52.7516407543
 30
0.0
 10
22.870096551
 20
53.2351546575
 30
0.0
 10
22.5212046675
 20
53.6875520304
 30
0.0
 10
22.1468903224
 20
54.1084724597
 30
0.0
 10
21.7482263709
 20
54.4971713911
 30
0.0
 10
21.1890483301
 20
54.9723367065
 30
0.0
 10
20.5869147625
 20
55.391188901
 30
0.0
 10
19.9470220421
 20
55.7475996944
 30
0.0
 10
19.614152975
 20
55.904270113
 30
0.0
 10
19.4444287626
 20
55.9771081511
 30
0.0
  0
SPLINE
  5
2F6
100
AcDbEntity
  8
0
100
AcDbSpline
 62
7
  6
BYLAYER
 70
0
 71
3
 72
9
 73
5
 74
0
 42
0.0000001
 43
0.0000001
 44
0.0000000001
 40
0.0
 40
0.0
 40
0.0
 40
0.0
 40
0.2470994382
 40
1.0
 40
1.0
 40
1.0
 40
1.0
 10
19.2714974816
 20
56.048966001
 30
0.0
 10
19.1993066776
 20
56.0779998945
 30
0.0
 10
18.9055081367
 20
56.1913897302
 30
0.0
 10
18.6056697545
 20
56.2889233095
 30
0.0
 10
18.3778323524
 20
56.3544935921
 30
0.0
  0
SPLINE
  5
2F7
100
AcDbEntity
  8
0
100
AcDbSpline
 62
7
  6
BYLAYER
 70
0
 71
3
 72
11
 73
7
 74
0
 42
0.0000001
 43
0.0000001
 44
0.0000000001
 40
0.0
 40
0.0
 40
0.0
 40
0.0
 40
0.206538455
 40
0.4360984203
 40
0.6991514588
 40
1.0
 40
1.0
 40
1.0
 40
1.0
 10
18.30872946
 20
56.3285193208
 30
0.0
 10
18.3138093407
 20
56.327058382
 30
0.0
 10
18.3252246802
 20
56.326168581
 30
0.0
 10
18.3427781958
 20
56.3306210199
 30
0.0
 10
18.360840859
 20
56.3402140701
 30
0.0
 10
18.3721730393
 20
56.349273714
 30
0.0
 10
18.3778324113
 20
56.3544940755
 30
0.0
  0
SPLINE
  5
2F8
100
AcDbEntity
  8
0
100
AcDbSpline
 62
7
  6
BYLAYER
 70
0
 71
3
 72
26
 73
22
 74
0
 42
0.0000001
 43
0.0000001
 44
0.0000000001
 40
0.0
 40
0.0
 40
0.0
 40
0.0
 40
0.0684791221
 40
0.1026216202
 40
0.1365928533
 40
0.1703566934
 40
0.2038837222
 40
0.2701136218
 40
0.3350951787
 40
0.3987851161
 40
0.4612405418
 40
0.5225476933
 40
0.5828700625
 40
0.6424235719
 40
0.7014433362
 40
0.7601612898
 40
0.8189166418
 40
0.8781596482
 40
0.9081335114
 40
0.9384210914
 40
1.0
 40
1.0
 40
1.0
 40
1.0
 10
24.3474255686
 20
48.6402078776
 30
0.0
 10
24.3496151665
 20
48.4011533224
 30
0.0
 10
24.3319254148
 20
48.0424798781
 30
0.0
 10
24.2758406906
 20
47.568876539
 30
0.0
 10
24.2190441045
 20
47.2176532824
 30
0.0
 10
24.1472524698
 20
46.8713853647
 30
0.0
 10
24.0319548095
 20
46.4195990914
 30
0.0
 10
23.8520739346
 20
45.8724810558
 30
0.0
 10
23.584360926
 20
45.2460689081
 30
0.0
 10
23.2703013871
 20
44.6564558264
 30
0.0
 10
22.9154019216
 20
44.1057862901
 30
0.0
 10
22.5248549121
 20
43.5945766898
 30
0.0
 10
22.102032611
 20
43.1232717032
 30
0.0
 10
21.6493162975
 20
42.6921172494
 30
0.0
 10
21.1690939809
 20
42.3007456395
 30
0.0
 10
20.6642078642
 20
41.9466454014
 30
0.0
 10
20.1339858795
 20
41.6301707545
 30
0.0
 10
19.6711217656
 20
41.3995603266
 30
0.0
 10
19.2874683571
 20
41.2354233494
 30
0.0
 10
18.8901435965
 20
41.0833472413
 30
0.0
 10
18.5844827422
 20
40.9851682462
 30
0.0
 10
18.3778323524
 20
40.9259221635
 30
0.0
  0
SPLINE
  5
2F9
100
AcDbEntity
  8
0
100
AcDbSpline
 62
7
  6
BYLAYER
 70
0
 71
3
 72
19
 73
15
 74
0
 42
0.0000001
 43
0.0000001
 44
0.0000000001
 40
0.0
 40
0.0
 40
0.0
 40
0.0
 40
0.0025354569
 40
0.0098434361
 40
0.0215123316
 40
0.0371306122
 40
0.0784989957
 40
0.1303055975
 40
0.1891925813
 40
0.2532149137
 40
0.3913145235
 40
0.5376559999
 40
0.6891181966
 40
1.0
 40
1.0
 40
1.0
 40
1.0
 10
13.3588267468
 20
45.1402023496
 30
0.0
 10
13.3594200872
 20
45.1399144054
 30
0.0
 10
13.3618113376
 20
45.1389897585
 30
0.0
 10
13.3669391384
 20
45.1367536858
 30
0.0
 10
13.3752581645
 20
45.1333191085
 30
0.0
 10
13.3917420963
 20
45.1264501055
 30
0.0
 10
13.417929567
 20
45.1157217361
 30
0.0
 10
13.4546224191
 20
45.1009510956
 30
0.0
 10
13.496935149
 20
45.0843645056
 30
0.0
 10
13.560366844
 20
45.0601569165
 30
0.0
 10
13.6455308803
 20
45.0291052258
 30
0.0
 10
13.7528318675
 20
44.9924338299
 30
0.0
 10
13.9036452929
 20
44.9442036879
 30
0.0
 10
14.0192906068
 20
44.9110463318
 30
0.0
 10
14.0974262464
 20
44.8902104198
 30
0.0
  0
SPLINE
  5
2FA
100
AcDbEntity
  8
0
100
AcDbSpline
 62
7
  6
BYLAYER
 70
0
 71
3
 72
9
 73
5
 74
0
 42
0.0000001
 43
0.0000001
 44
0.0000000001
 40
0.0
 40
0.0
 40
0.0
 40
0.0
 40
0.2731521391
 40
1.0
 40
1.0
 40
1.0
 40
1.0
 10
12.3474257661
 20
50.6402078128
 30
0.0
 10
12.3619614431
 20
50.7024691659
 30
0.0
 10
12.4168363686
 20
50.9300194558
 30
0.0
 10
12.476939556
 20
51.1562752879
 30
0.0
 10
12.5221072565
 20
51.3203002972
 30
0.0
  0
LINE
  5
2FB
100
AcDbEntity
  8
0
100
AcDbLine
 62
7
  6
BYLAYER
 10
12.5221072565
 20
51.3203002972
 11
12.5300034812
 21
51.3489187225
  0
ELLIPSE
  5
2FC
100
AcDbEntity
  8
0
100
AcDbEllipse
 62
7
  6
BYLAYER
 10
39.4474255686
 20
48.6402078778
 30
0.0
 11
20.4126526173
 21
-6.5022740143
 31
0.0
 40
0.1625559039
 41
-1.5016102927
 42
-1.4848084806
  0
ELLIPSE
  5
2FD
100
AcDbEntity
  8
0
100
AcDbEllipse
 62
7
  6
BYLAYER
 10
39.4474255686
 20
48.6402078778
 30
0.0
 11
20.4126526173
 21
6.5022740143
 31
0.0
 40
0.1625559039
 41
1.4848084806
 42
1.5016104192
  0
ENDSEC
  0
SECTION
  2
OBJECTS
  0
DICTIONARY
  5
C
100
AcDbDictionary
280
0
281
1
  3
ACAD_GROUP
350
D
  3
ACAD_MLINESTYLE
350
17
  3
ACAD_LAYOUT
350
1A
  3
ACAD_PLOTSETTINGS
350
19
  3
ACAD_PLOTSTYLENAME
350
E
  0
DICTIONARY
  5
D
102
{ACAD_REACTORS
330
C
102
}
100
AcDbDictionary
280
0
281
1
  0
ACDBDICTIONARYWDFLT
  5
E
102
{ACAD_REACTORS
330
C
102
}
100
AcDbDictionary
281
1
  3
Normal
350
F
100
AcDbDictionaryWithDefault
340
F
  0
DICTIONARY
  5
17
102
{ACAD_REACTORS
330
C
102
}
100
AcDbDictionary
280
0
281
1
  3
Standard
350
18
  0
DICTIONARY
  5
19
102
{ACAD_REACTORS
330
C
102
}
100
AcDbDictionary
281
1
  0
DICTIONARY
  5
1A
102
{ACAD_REACTORS
330
C
102
}
100
AcDbDictionary
281
1
  3
Model
350
2FE
  3
Layout1
350
2FF
  0
ACDBPLACEHOLDER
  5
F
102
{ACAD_REACTORS
330
E
102
}
  0
MLINESTYLE
  5
18
102
{ACAD_REACTORS
330
17
102
}
100
AcDbMlineStyle
  2
STANDARD
 70
0
  3

 62
256
 51
90.0
 52
90.0
 71
2
 49
0.5
 62
256
  6
BYLAYER
 49
-0.5
 62
256
  6
BYLAYER
  0
LAYOUT
  5
2FE
102
{ACAD_REACTORS
330
1A
102
}
100
AcDbPlotSettings
  1

  2
none_device
  4

  6

 40
0.0
 41
0.0
 42
0.0
 43
0.0
 44
210.0
 45
297.0
 46
0.0
 47
0.0
 48
0.0
 49
0.0
140
0.0
141
0.0
142
1.0
143
1.0
 70
1024
 72
1
 73
0
 74
0
  7

 75
0
147
1.0
148
0.0
149
0.0
100
AcDbLayout
  1
Model
 70
0
 71
0
 10
0.0
 20
0.0
 11
210.0
 21
297.0
 12
0.0
 22
0.0
 32
0.0
 14
0.0
 24
0.0
 34
0.0
 15
0.0
 25
0.0
 35
0.0
146
0.0
 13
0.0
 23
0.0
 33
0.0
 16
1.0
 26
0.0
 36
0.0
 17
0.0
 27
1.0
 37
0.0
 76
0
330
210
345
0
346
0
  0
LAYOUT
  5
2FF
102
{ACAD_REACTORS
330
1A
102
}
100
AcDbPlotSettings
  1

  2
none_device
  4

  6

 40
0.0
 41
0.0
 42
0.0
 43
0.0
 44
210.0
 45
297.0
 46
0.0
 47
0.0
 48
0.0
 49
0.0
140
0.0
141
0.0
142
1.0
143
1.0
 70
0
 72
1
 73
0
 74
0
  7

 75
0
147
1.0
148
0.0
149
0.0
100
AcDbLayout
  1
Layout1
 70
0
 71
1
 10
0.0
 20
0.0
 11
210.0
 21
297.0
 12
0.0
 22
0.0
 32
0.0
 14
0.0
 24
0.0
 34
0.0
 15
0.0
 25
0.0
 35
0.0
146
0.0
 13
0.0
 23
0.0
 33
0.0
 16
1.0
 26
0.0
 36
0.0
 17
0.0
 27
1.0
 37
0.0
 76
0
330
211
345
0
346
0
  0
ENDSEC
  0
EOF
