999
DXF file: C:\Users\sesa63760\Dev\_Creo\CAD\MCADID0004470_3D-CAD\drw0001_1.dxf
999
Pro/ENGINEER 2019471 by Parametric Technology Corporation
  0
SECTION
  2
HEADER
  9
$ACADVER
  1
AC1024
  9
$DWGCODEPAGE
  3
ANSI_1252
  9
$EXTMAX
 10
69.9056966468
 20
98.8666281147
 30
0.0
  9
$EXTMIN
 10
0.0
 20
0.0
 30
0.0
  9
$LIMMIN
 10
0.0
 20
0.0
  9
$LIMMAX
 10
69.9056966468
 20
98.8666281147
  9
$VIEWCTR
 10
34.9528483234
 20
49.4333140574
  9
$VIEWSIZE
 40
98.8666281147
  9
$CLAYER
  8
0
  9
$LTSCALE
 40
6.4446394623
  9
$CELTYPE
  6
BYLAYER
  9
$DIMSCALE
 40
1.0
  9
$DIMASZ
 40
0.8322106744
  9
$DIMEXO
 40
1.0
  9
$DIMDLI
 40
4.4526599921
  9
$DIMEXE
 40
1.0
  9
$DIMCEN
 40
1.0545773666
  9
$DIMLFAC
 40
1.0
  9
$DIMBLK
  1
_FILLED
  9
$DIMALT
 70
0
  9
$DIMALTF
 40
0.0393700787
  9
$DIMTXT
 40
1.1650949441
  9
$DIMTOL
 70
1
  9
$DIMLIM
 70
0
  9
$DIMTFAC
 40
1.0
  9
$DIMTP
 40
0.01
  9
$DIMTM
 40
0.01
  9
$DIMGAP
 40
0.625
  9
$DIMDSEP
 70
46
  9
$AUNITS
 70
0
  9
$PDMODE
 70
3
  9
$PDSIZE
 40
0.3125
  9
$HANDSEED
  5
29A
  9
$TILEMODE
 70
1
  9
$MEASUREMENT
 70
1
  9
$INSUNITS
 70
4
  0
ENDSEC
  0
SECTION
  2
CLASSES
  0
CLASS
  1
ACDBDICTIONARYWDFLT
  2
AcDbDictionaryWithDefault
  3
AutoCAD 2000
 90
0
 91
1
280
0
281
0
  0
CLASS
  1
ACDBPLACEHOLDER
  2
AcDbPlaceHolder
  3
AutoCAD 2000
 90
0
 91
1
280
0
281
0
  0
CLASS
  1
LAYOUT
  2
AcDbLayout
  3
AutoCAD 2000
 90
0
 91
0
280
0
281
0
  0
ENDSEC
  0
SECTION
  2
TABLES
  0
TABLE
  2
VPORT
  5
8
100
AcDbSymbolTable
 70
2
  0
VPORT
  5
1F4
100
AcDbSymbolTableRecord
100
AcDbViewportTableRecord
  2
*ACTIVE
 70
0
 10
0.0
 20
0.0
 11
1.0
 21
1.0
 12
34.9528483234
 22
49.4333140574
 13
0.0
 23
0.0
 14
1.0
 24
1.0
 15
0.0
 25
0.0
 16
0.0
 26
0.0
 36
1.0
 17
0.0
 27
0.0
 37
0.0
 40
98.8666281147
 41
0.7070707071
 42
50.0
 43
0.0
 44
0.0
 50
0.0
 51
0.0
 71
0
 72
100
 73
1
 74
1
 75
0
 76
0
 77
0
 78
0
  0
ENDTAB
  0
TABLE
  2
LTYPE
  5
5
100
AcDbSymbolTable
 70
6
  0
LTYPE
  5
14
100
AcDbSymbolTableRecord
100
AcDbLinetypeTableRecord
  2
BYBLOCK
 70
0
  3

 72
65
 73
0
 40
0.0
  0
LTYPE
  5
15
100
AcDbSymbolTableRecord
100
AcDbLinetypeTableRecord
  2
BYLAYER
 70
0
  3

 72
65
 73
0
 40
0.0
  0
LTYPE
  5
16
100
AcDbSymbolTableRecord
100
AcDbLinetypeTableRecord
  2
CONTINUOUS
 70
64
  3
Solid line
 72
65
 73
0
 40
0.0
  0
LTYPE
  5
1F5
100
AcDbSymbolTableRecord
100
AcDbLinetypeTableRecord
  2
CENTER
 70
64
  3
____ _ ____ _ ____ _ ____ _ ____ _ ____ _ ____
 72
65
 73
4
 40
0.6
 49
0.375
 74
0
 49
-0.075
 74
0
 49
0.075
 74
0
 49
-0.075
 74
0
  0
LTYPE
  5
1F6
100
AcDbSymbolTableRecord
100
AcDbLinetypeTableRecord
  2
HIDDEN
 70
64
  3
- - - - - - - - - - - - - - - - - - - -
 72
65
 73
2
 40
0.2
 49
0.1
 74
0
 49
-0.1
 74
0
  0
LTYPE
  5
1F7
100
AcDbSymbolTableRecord
100
AcDbLinetypeTableRecord
  2
PHANTOM
 70
64
  3
_____ _ _ _____ _ _ _____ _ _ _____
 72
65
 73
6
 40
0.8
 49
0.45
 74
0
 49
-0.05
 74
0
 49
0.1
 74
0
 49
-0.05
 74
0
 49
0.1
 74
0
 49
-0.05
 74
0
  0
LTYPE
  5
1F8
100
AcDbSymbolTableRecord
100
AcDbLinetypeTableRecord
  2
DOT
 70
64
  3
. . . . . . . . . . . . . . . . . . . .
 72
65
 73
2
 40
0.2
 49
0.1
 74
0
 49
-0.1
 74
0
  0
LTYPE
  5
1F9
100
AcDbSymbolTableRecord
100
AcDbLinetypeTableRecord
  2
DASHED
 70
64
  3
- - - - - - - - - - - - - - - - - - - -
 72
65
 73
2
 40
0.2
 49
0.1
 74
0
 49
-0.1
 74
0
  0
ENDTAB
  0
TABLE
  2
LAYER
  5
2
100
AcDbSymbolTable
 70
36
  0
LAYER
  5
10
100
AcDbSymbolTableRecord
100
AcDbLayerTableRecord
  2
0
 70
0
 62
7
  6
CONTINUOUS
370
-3
390
F
  0
LAYER
  5
1FA
100
AcDbSymbolTableRecord
100
AcDbLayerTableRecord
  2
DEFAULT_1
 70
0
 62
7
  6
CENTER
370
-3
390
F
  0
LAYER
  5
1FB
100
AcDbSymbolTableRecord
100
AcDbLayerTableRecord
  2
DEFAULT_2
 70
0
 62
7
  6
HIDDEN
370
-3
390
F
  0
LAYER
  5
1FC
100
AcDbSymbolTableRecord
100
AcDbLayerTableRecord
  2
DEFAULT_3
 70
0
 62
7
  6
PHANTOM
370
-3
390
F
  0
LAYER
  5
1FD
100
AcDbSymbolTableRecord
100
AcDbLayerTableRecord
  2
00_COMPONENTS
 70
0
 62
7
  6
CONTINUOUS
370
-3
390
F
  0
LAYER
  5
1FE
100
AcDbSymbolTableRecord
100
AcDbLayerTableRecord
  2
01_1_DEFAULT_DATUMS
 70
0
 62
7
  6
CONTINUOUS
370
-3
390
F
  0
LAYER
  5
1FF
100
AcDbSymbolTableRecord
100
AcDbLayerTableRecord
  2
01_PLANES
 70
0
 62
7
  6
CONTINUOUS
370
-3
390
F
  0
LAYER
  5
200
100
AcDbSymbolTableRecord
100
AcDbLayerTableRecord
  2
02_COORD_SYS
 70
0
 62
7
  6
CONTINUOUS
370
-3
390
F
  0
LAYER
  5
201
100
AcDbSymbolTableRecord
100
AcDbLayerTableRecord
  2
03_AXES
 70
0
 62
7
  6
CONTINUOUS
370
-3
390
F
  0
LAYER
  5
202
100
AcDbSymbolTableRecord
100
AcDbLayerTableRecord
  2
04_POINTS
 70
0
 62
7
  6
CONTINUOUS
370
-3
390
F
  0
LAYER
  5
203
100
AcDbSymbolTableRecord
100
AcDbLayerTableRecord
  2
05_CURVES
 70
0
 62
7
  6
CONTINUOUS
370
-3
390
F
  0
LAYER
  5
204
100
AcDbSymbolTableRecord
100
AcDbLayerTableRecord
  2
06_SURFS
 70
0
 62
7
  6
CONTINUOUS
370
-3
390
F
  0
LAYER
  5
205
100
AcDbSymbolTableRecord
100
AcDbLayerTableRecord
  2
07_COSMETICS
 70
0
 62
7
  6
CONTINUOUS
370
-3
390
F
  0
LAYER
  5
206
100
AcDbSymbolTableRecord
100
AcDbLayerTableRecord
  2
10_NOTES
 70
0
 62
7
  6
CONTINUOUS
370
-3
390
F
  0
LAYER
  5
207
100
AcDbSymbolTableRecord
100
AcDbLayerTableRecord
  2
11_NOTES_PUB
 70
0
 62
7
  6
CONTINUOUS
370
-3
390
F
  0
LAYER
  5
208
100
AcDbSymbolTableRecord
100
AcDbLayerTableRecord
  2
13_REF_GTOL
 70
0
 62
7
  6
CONTINUOUS
370
-3
390
F
  0
LAYER
  5
209
100
AcDbSymbolTableRecord
100
AcDbLayerTableRecord
  2
16_MISC
 70
0
 62
7
  6
CONTINUOUS
370
-3
390
F
  0
LAYER
  5
20A
100
AcDbSymbolTableRecord
100
AcDbLayerTableRecord
  2
17_NO_PRINT
 70
0
 62
7
  6
CONTINUOUS
370
-3
390
F
  0
LAYER
  5
20B
100
AcDbSymbolTableRecord
100
AcDbLayerTableRecord
  2
18_DATUM_CAMS_JOINTS
 70
0
 62
7
  6
CONTINUOUS
370
-3
390
F
  0
LAYER
  5
20C
100
AcDbSymbolTableRecord
100
AcDbLayerTableRecord
  2
19_DATUM_FUNCTIONAL
 70
0
 62
7
  6
CONTINUOUS
370
-3
390
F
  0
LAYER
  5
20D
100
AcDbSymbolTableRecord
100
AcDbLayerTableRecord
  2
20_DATUM_KINEMATIC_SCHEME
 70
0
 62
7
  6
CONTINUOUS
370
-3
390
F
  0
ENDTAB
  0
TABLE
  2
STYLE
  5
3
100
AcDbSymbolTable
 70
1
  0
STYLE
  5
11
100
AcDbSymbolTableRecord
100
AcDbTextStyleTableRecord
  2
STANDARD
 70
0
 40
0.0
 41
1.0
 50
0.0
 71
0
 42
0.2
  3
ARIAL.TTF
  4

  0
STYLE
  5
20E
100
AcDbSymbolTableRecord
100
AcDbTextStyleTableRecord
  2
TEXTSTYLE_1
 70
0
 40
0.0
 41
0.8
 50
0.0
 71
0
 42
0.2
  3
gdt
  4

  0
ENDTAB
  0
TABLE
  2
VIEW
  5
6
100
AcDbSymbolTable
 70
0
  0
ENDTAB
  0
TABLE
  2
UCS
  5
7
100
AcDbSymbolTable
 70
0
  0
ENDTAB
  0
TABLE
  2
APPID
  5
9
100
AcDbSymbolTable
 70
1
  0
APPID
  5
20F
100
AcDbSymbolTableRecord
100
AcDbRegAppTableRecord
  2
ACAD
 70
0
  0
ENDTAB
  0
TABLE
  2
BLOCK_RECORD
  5
1
100
AcDbSymbolTable
 70
0
  0
BLOCK_RECORD
  5
210
100
AcDbSymbolTableRecord
100
AcDbBlockTableRecord
  2
*Model_Space
  0
BLOCK_RECORD
  5
211
100
AcDbSymbolTableRecord
100
AcDbBlockTableRecord
  2
*Paper_Space
  0
BLOCK_RECORD
  5
212
100
AcDbSymbolTableRecord
100
AcDbBlockTableRecord
  2
_FILLED
  0
ENDTAB
  0
TABLE
  2
DIMSTYLE
  5
A
100
AcDbSymbolTable
 70
1
100
AcDbDimStyleTable
 71
0
  0
DIMSTYLE
105
213
100
AcDbSymbolTableRecord
100
AcDbDimStyleTableRecord
  2
STANDARD
 70
0
  3

  4

 40
1.0
 41
0.8322106744
 42
1.0
 43
0.38
 44
1.0
 45
0.0
 46
0.0
 47
0.01
 48
0.01
140
1.1650949441
141
0.09
142
0.0
143
25.4
144
1.0
145
0.0
146
1.0
147
0.625
 71
1
 72
0
 73
0
 74
0
 75
0
 76
0
 77
1
 78
8
 79
2
170
0
171
1
172
0
173
0
174
0
175
0
176
0
177
0
178
0
270
2
179
2
271
2
272
2
273
2
274
2
275
0
280
0
281
0
282
0
283
1
284
8
285
0
286
0
287
3
288
0
340
11
278
46
341
212
342
212
343
212
344
212
  0
ENDTAB
  0
ENDSEC
  0
SECTION
  2
BLOCKS
  0
BLOCK
  5
20
100
AcDbEntity
  8
0
100
AcDbBlockBegin
  2
*Model_Space
 70
0
 10
0.0
 20
0.0
 30
0.0
  3
*Model_Space
  1

  0
ENDBLK
  5
21
100
AcDbEntity
  8
0
100
AcDbBlockEnd
  0
BLOCK
  5
1C
100
AcDbEntity
  8
0
100
AcDbBlockBegin
  2
*Paper_Space
 70
0
 10
0.0
 20
0.0
 30
0.0
  3
*Paper_Space
  1

  0
ENDBLK
  5
1D
100
AcDbEntity
  8
0
100
AcDbBlockEnd
  0
BLOCK
  5
214
100
AcDbEntity
  8
0
100
AcDbBlockBegin
  2
_FILLED
 70
64
 10
0.0
 20
0.0
  3
_FILLED
  1

  0
SOLID
  5
215
100
AcDbEntity
  8
0
  6
BYBLOCK
 62
0
100
AcDbTrace
 10
0.0
 20
0.0
 11
-1.0
 21
0.25
 12
-1.0
 22
-0.25
 13
-1.0
 23
-0.25
  0
ENDBLK
  5
216
100
AcDbEntity
  8
0
  6
BYBLOCK
 62
0
100
AcDbBlockEnd
  0
ENDSEC
  0
SECTION
  2
ENTITIES
  0
LINE
  5
217
100
AcDbEntity
  8
0
100
AcDbLine
 62
7
  6
BYLAYER
 10
27.5261288855
 20
83.6426112778
 11
15.5053636529
 21
76.702460662
  0
LINE
  5
218
100
AcDbEntity
  8
0
100
AcDbLine
 62
7
  6
BYLAYER
 10
16.8135166444
 20
72.6812055976
 11
18.3338156889
 21
73.5589454208
  0
LINE
  5
219
100
AcDbEntity
  8
0
100
AcDbLine
 62
7
  6
BYLAYER
 10
19.3193246569
 20
72.4949210581
 11
16.8135166444
 21
71.0482007633
  0
LINE
  5
21A
100
AcDbEntity
  8
0
100
AcDbLine
 62
7
  6
BYLAYER
 10
50.8608499102
 20
15.4653020795
 11
26.1120095301
 21
29.7537284877
  0
LINE
  5
21B
100
AcDbEntity
  8
0
100
AcDbLine
 62
7
  6
BYLAYER
 10
43.7897526588
 20
21.0582390964
 11
46.6181915593
 21
19.4252760783
  0
LINE
  5
21C
100
AcDbEntity
  8
0
100
AcDbLine
 62
7
  6
BYLAYER
 10
15.5053636529
 20
48.1248760624
 11
15.5053636529
 21
76.702460662
  0
LINE
  5
21D
100
AcDbEntity
  8
0
100
AcDbLine
 62
7
  6
BYLAYER
 10
16.8135166444
 20
72.6812055976
 11
16.8135166444
 21
71.0482007633
  0
LINE
  5
21E
100
AcDbEntity
  8
0
100
AcDbLine
 62
7
  6
BYLAYER
 10
15.5182349408
 20
48.1025824615
 11
15.5243301535
 21
48.1166697218
  0
LINE
  5
21F
100
AcDbEntity
  8
0
100
AcDbLine
 62
7
  6
BYLAYER
 10
21.9019043785
 20
37.0458040354
 11
15.6659194949
 21
40.6460701377
  0
LINE
  5
220
100
AcDbEntity
  8
0
100
AcDbLine
 62
7
  6
BYLAYER
 10
46.6181915593
 20
22.9362364719
 11
43.7897526588
 21
24.56919949
  0
LINE
  5
221
100
AcDbEntity
  8
0
100
AcDbLine
 62
7
  6
BYLAYER
 10
15.5053636529
 20
48.1248760624
 11
26.1120095301
 21
29.7537284877
  0
LINE
  5
222
100
AcDbEntity
  8
0
100
AcDbLine
 62
7
  6
BYLAYER
 10
19.8540884625
 20
69.2927655189
 11
19.8540884625
 21
70.9257703531
  0
LINE
  5
223
100
AcDbEntity
  8
0
100
AcDbLine
 62
7
  6
BYLAYER
 10
15.4861035698
 20
48.1172711204
 11
15.4934392064
 21
48.13093945
  0
LINE
  5
224
100
AcDbEntity
  8
0
100
AcDbLine
 62
7
  6
BYLAYER
 10
14.5723042182
 20
42.1434754342
 11
9.3525390195
 21
45.1570401008
  0
LINE
  5
225
100
AcDbEntity
  8
0
100
AcDbLine
 62
7
  6
BYLAYER
 10
29.0960712071
 20
74.6710545052
 11
29.0960712071
 21
74.8343549886
  0
LINE
  5
226
100
AcDbEntity
  8
0
100
AcDbLine
 62
7
  6
BYLAYER
 10
56.0382970052
 20
28.1693100856
 11
55.9675860327
 21
28.2101341611
  0
LINE
  5
227
100
AcDbEntity
  8
0
100
AcDbLine
 62
7
  6
BYLAYER
 10
57.7041680479
 20
29.1310954395
 11
57.6334570754
 21
29.1719195149
  0
LINE
  5
228
100
AcDbEntity
  8
0
100
AcDbLine
 62
7
  6
BYLAYER
 10
30.7619422497
 20
75.632839859
 11
30.7619422497
 21
75.7961403424
  0
LINE
  5
229
100
AcDbEntity
  8
0
100
AcDbLine
 62
7
  6
BYLAYER
 10
15.5053636529
 20
55.4611135997
 11
15.3524372174
 21
55.5494037211
  0
LINE
  5
22A
100
AcDbEntity
  8
0
100
AcDbLine
 62
7
  6
BYLAYER
 10
60.9536648574
 20
33.9792307838
 11
60.8829538849
 21
34.0200548593
  0
LINE
  5
22B
100
AcDbEntity
  8
0
100
AcDbLine
 62
7
  6
BYLAYER
 10
36.5853010406
 20
76.0229402278
 11
36.5853010406
 21
76.1862407112
  0
LINE
  5
22C
100
AcDbEntity
  8
0
100
AcDbLine
 62
7
  6
BYLAYER
 10
62.1745113056
 20
40.5871452911
 11
62.1038003331
 21
40.6279693666
  0
LINE
  5
22D
100
AcDbEntity
  8
0
100
AcDbLine
 62
7
  6
BYLAYER
 10
42.9183344806
 20
73.7763362808
 11
42.9183344806
 21
73.9396367643
  0
LINE
  5
22E
100
AcDbEntity
  8
0
100
AcDbLine
 62
7
  6
BYLAYER
 10
50.8608499102
 20
43.0112718278
 11
39.3608020313
 21
62.9298284711
  0
LINE
  5
22F
100
AcDbEntity
  8
0
100
AcDbLine
 62
7
  6
BYLAYER
 10
62.1038003331
 20
49.5925002284
 11
62.1745113056
 21
49.551676153
  0
LINE
  5
230
100
AcDbEntity
  8
0
100
AcDbLine
 62
7
  6
BYLAYER
 10
15.5053636529
 20
76.702460662
 11
39.3608020313
 21
62.9298284711
  0
LINE
  5
231
100
AcDbEntity
  8
0
100
AcDbLine
 62
7
  6
BYLAYER
 10
32.3117769225
 20
67.8159744562
 11
40.075265212
 21
63.3338238022
  0
LINE
  5
232
100
AcDbEntity
  8
0
100
AcDbLine
 62
7
  6
BYLAYER
 10
50.6818227702
 20
69.4574861102
 11
50.6818227702
 21
69.2941856268
  0
LINE
  5
233
100
AcDbEntity
  8
0
100
AcDbLine
 62
7
  6
BYLAYER
 10
50.8608499102
 20
43.0112718278
 11
50.8608499102
 21
15.4653020795
  0
LINE
  5
234
100
AcDbEntity
  8
0
100
AcDbLine
 62
7
  6
BYLAYER
 10
51.5679537475
 20
43.4280138449
 11
51.5679537475
 21
34.4634829831
  0
LINE
  5
235
100
AcDbEntity
  8
0
100
AcDbLine
 62
7
  6
BYLAYER
 10
60.9536648574
 20
54.7498870241
 11
60.8829538849
 21
54.7907110995
  0
LINE
  5
236
100
AcDbEntity
  8
0
100
AcDbLine
 62
7
  6
BYLAYER
 10
54.5731633139
 20
65.6378780436
 11
54.5731633139
 21
65.8011785271
  0
LINE
  5
237
100
AcDbEntity
  8
0
100
AcDbLine
 62
7
  6
BYLAYER
 10
60.0379732831
 20
55.6801283952
 11
60.9536648574
 21
54.7498870241
  0
LINE
  5
238
100
AcDbEntity
  8
0
100
AcDbLine
 62
7
  6
BYLAYER
 10
54.5731633139
 20
65.8011785271
 11
54.9209236607
 21
64.543104007
  0
LINE
  5
239
100
AcDbEntity
  8
0
100
AcDbLine
 62
7
  6
BYLAYER
 10
62.1038003331
 20
40.6279693666
 11
62.1038003331
 21
49.5925002284
  0
LINE
  5
23A
100
AcDbEntity
  8
0
100
AcDbLine
 62
7
  6
BYLAYER
 10
42.9183344806
 20
73.7763362808
 11
50.6818227702
 21
69.2941856268
  0
LINE
  5
23B
100
AcDbEntity
  8
0
100
AcDbLine
 62
7
  6
BYLAYER
 10
50.6818227702
 20
69.4574861102
 11
42.9183344806
 21
73.9396367643
  0
LINE
  5
23C
100
AcDbEntity
  8
0
100
AcDbLine
 62
7
  6
BYLAYER
 10
51.3815672639
 20
69.869979087
 11
27.5261288855
 21
83.6426112778
  0
LINE
  5
23D
100
AcDbEntity
  8
0
100
AcDbLine
 62
7
  6
BYLAYER
 10
55.1861669788
 20
66.3998792989
 11
61.7786616277
 21
54.9814070049
  0
LINE
  5
23E
100
AcDbEntity
  8
0
100
AcDbLine
 62
7
  6
BYLAYER
 10
62.1745113056
 20
40.5871452911
 11
62.1745113056
 21
49.551676153
  0
LINE
  5
23F
100
AcDbEntity
  8
0
100
AcDbLine
 62
7
  6
BYLAYER
 10
62.8816151429
 20
22.4054526953
 11
62.8816151429
 21
49.9514224436
  0
LINE
  5
240
100
AcDbEntity
  8
0
100
AcDbLine
 62
7
  6
BYLAYER
 10
43.7897526588
 20
21.0582390964
 11
46.7854946529
 21
22.7878212189
  0
LINE
  5
241
100
AcDbEntity
  8
0
100
AcDbLine
 62
7
  6
BYLAYER
 10
48.1384906039
 20
20.3030159015
 11
46.6181915593
 21
19.4252760783
  0
LINE
  5
242
100
AcDbEntity
  8
0
100
AcDbLine
 62
7
  6
BYLAYER
 10
62.8816151429
 20
22.4054526953
 11
50.8608499102
 21
15.4653020795
  0
ARC
  5
243
100
AcDbEntity
  8
0
100
AcDbCircle
 62
7
  6
BYLAYER
 10
15.3893778519
 20
50.0052879398
 40
6.0624390753
100
AcDbArc
 50
120.0618982279
 51
123.8968370125
  0
ARC
  5
244
100
AcDbEntity
  8
0
100
AcDbCircle
 62
7
  6
BYLAYER
 10
14.0513616372
 20
47.901637861
 40
5.9414969054
100
AcDbArc
 50
176.066119321
 51
179.9799579612
  0
ARC
  5
245
100
AcDbEntity
  8
0
100
AcDbCircle
 62
7
  6
BYLAYER
 10
41.3148185733
 20
67.108790009
 40
3.0
100
AcDbArc
 50
47.2911913552
 51
132.6912339078
  0
ARC
  5
246
100
AcDbEntity
  8
0
100
AcDbCircle
 62
7
  6
BYLAYER
 10
46.2645866493
 20
64.2511047274
 40
3.0
100
AcDbArc
 50
47.2911913552
 51
132.6912339078
  0
ARC
  5
247
100
AcDbEntity
  8
0
100
AcDbCircle
 62
7
  6
BYLAYER
 10
30.4096604767
 20
72.7304338699
 40
2.3370339098
100
AcDbArc
 50
180.0018953771
 51
183.7436903181
  0
ARC
  5
248
100
AcDbEntity
  8
0
100
AcDbCircle
 62
7
  6
BYLAYER
 10
52.5869180003
 20
64.5431829106
 40
2.3340551254
100
AcDbArc
 50
356.0935179117
 51
359.9980630917
  0
ARC
  5
249
100
AcDbEntity
  8
0
100
AcDbCircle
 62
7
  6
BYLAYER
 10
54.8712265346
 20
30.3559142167
 40
2.3335532524
100
AcDbArc
 50
238.1324440313
 51
240.0004859737
  0
ARC
  5
24A
100
AcDbEntity
  8
0
100
AcDbCircle
 62
7
  6
BYLAYER
 10
58.8721588734
 20
53.6608041569
 40
2.3317427359
100
AcDbArc
 50
60.0009146925
 51
61.9512209103
  0
SPLINE
  5
24B
100
AcDbEntity
  8
0
100
AcDbSpline
 62
7
  6
BYLAYER
 70
0
 71
3
 72
15
 73
11
 74
0
 42
0.0000001
 43
0.0000001
 44
0.0000000001
 40
0.0
 40
0.0
 40
0.0
 40
0.0
 40
0.1141521769
 40
0.2373211784
 40
0.3669697741
 40
0.4999925449
 40
0.6330167115
 40
0.7626660967
 40
0.8858477933
 40
1.0
 40
1.0
 40
1.0
 40
1.0
 10
8.1098905209
 20
48.3456588403
 30
0.0
 10
8.1098880247
 20
48.6507726495
 30
0.0
 10
8.1657678551
 20
49.2856937859
 30
0.0
 10
8.3885416222
 20
50.2435513456
 30
0.0
 10
8.7454300335
 20
51.213790806
 30
0.0
 10
9.2230789718
 20
52.1599404416
 30
0.0
 10
9.8036256667
 20
53.0466843165
 30
0.0
 10
10.465421306
 20
53.8409417338
 30
0.0
 10
11.1835928046
 20
54.5128207989
 30
0.0
 10
11.7055282065
 20
54.8787085273
 30
0.0
 10
11.9697649797
 20
55.0312647888
 30
0.0
  0
SPLINE
  5
24C
100
AcDbEntity
  8
0
100
AcDbSpline
 62
7
  6
BYLAYER
 70
0
 71
3
 72
9
 73
5
 74
0
 42
0.0000001
 43
0.0000001
 44
0.0000000001
 40
0.0
 40
0.0
 40
0.0
 40
0.0
 40
0.2471647257
 40
1.0
 40
1.0
 40
1.0
 40
1.0
 10
56.5505365124
 20
33.2402484249
 30
0.0
 10
56.5461453166
 20
33.242779195
 30
0.0
 10
56.5288448166
 20
33.253817178
 30
0.0
 10
56.5136588544
 20
33.2680830184
 30
0.0
 10
56.5038011428
 20
33.2799631763
 30
0.0
  0
SPLINE
  5
24D
100
AcDbEntity
  8
0
100
AcDbSpline
 62
7
  6
BYLAYER
 70
0
 71
3
 72
9
 73
5
 74
0
 42
0.0000001
 43
0.0000001
 44
0.0000000001
 40
0.0
 40
0.0
 40
0.0
 40
0.0
 40
0.4597655665
 40
1.0
 40
1.0
 40
1.0
 40
1.0
 10
56.5038011428
 20
33.2799631763
 30
0.0
 10
56.4841864519
 20
33.3036020929
 30
0.0
 10
56.4543087146
 20
33.3657216864
 30
0.0
 10
56.4469696354
 20
33.4330297509
 30
0.0
 10
56.4469696354
 20
33.4691228942
 30
0.0
  0
SPLINE
  5
24E
100
AcDbEntity
  8
0
100
AcDbSpline
 62
7
  6
BYLAYER
 70
0
 71
3
 72
9
 73
5
 74
0
 42
0.0000001
 43
0.0000001
 44
0.0000000001
 40
0.0
 40
0.0
 40
0.0
 40
0.0
 40
0.2471647257
 40
1.0
 40
1.0
 40
1.0
 40
1.0
 10
56.5505365124
 20
44.5079817813
 30
0.0
 10
56.5461453166
 20
44.5105125514
 30
0.0
 10
56.5288448166
 20
44.5215505344
 30
0.0
 10
56.5136588544
 20
44.5358163748
 30
0.0
 10
56.5038011428
 20
44.5476965327
 30
0.0
  0
SPLINE
  5
24F
100
AcDbEntity
  8
0
100
AcDbSpline
 62
7
  6
BYLAYER
 70
0
 71
3
 72
9
 73
5
 74
0
 42
0.0000001
 43
0.0000001
 44
0.0000000001
 40
0.0
 40
0.0
 40
0.0
 40
0.0
 40
0.4597655665
 40
1.0
 40
1.0
 40
1.0
 40
1.0
 10
56.5038011428
 20
44.5476965327
 30
0.0
 10
56.4841864519
 20
44.5713354493
 30
0.0
 10
56.4543087146
 20
44.6334550428
 30
0.0
 10
56.4469696354
 20
44.7007631072
 30
0.0
 10
56.4469696354
 20
44.7368562506
 30
0.0
  0
SPLINE
  5
250
100
AcDbEntity
  8
0
100
AcDbSpline
 62
7
  6
BYLAYER
 70
0
 71
3
 72
10
 73
6
 74
0
 42
0.0000001
 43
0.0000001
 44
0.0000000001
 40
0.0
 40
0.0
 40
0.0
 40
0.0
 40
0.2428547623
 40
0.4890891856
 40
1.0
 40
1.0
 40
1.0
 40
1.0
 10
53.6392095574
 20
28.3740956201
 30
0.0
 10
53.5538062927
 20
28.4271869742
 30
0.0
 10
53.3885300747
 20
28.5454264136
 30
0.0
 10
53.0844543256
 20
28.8276577385
 30
0.0
 10
52.8959518233
 20
29.0828589487
 30
0.0
 10
52.7888001957
 20
29.265272112
 30
0.0
  0
SPLINE
  5
251
100
AcDbEntity
  8
0
100
AcDbSpline
 62
7
  6
BYLAYER
 70
0
 71
3
 72
11
 73
7
 74
0
 42
0.0000001
 43
0.0000001
 44
0.0000000001
 40
0.0
 40
0.0
 40
0.0
 40
0.0
 40
0.2741802682
 40
0.5291143705
 40
0.7689376394
 40
1.0
 40
1.0
 40
1.0
 40
1.0
 10
57.7041680479
 20
55.8458490504
 30
0.0
 10
57.9077169052
 20
55.906390171
 30
0.0
 10
58.3097714757
 20
55.9955217543
 30
0.0
 10
58.908054467
 20
56.0231516672
 30
0.0
 10
59.4676397109
 20
55.9372505907
 30
0.0
 10
59.8106527931
 20
55.8028315345
 30
0.0
 10
59.9685981595
 20
55.7186780787
 30
0.0
  0
SPLINE
  5
252
100
AcDbEntity
  8
0
100
AcDbSpline
 62
7
  6
BYLAYER
 70
0
 71
3
 72
10
 73
6
 74
0
 42
0.0000001
 43
0.0000001
 44
0.0000000001
 40
0.0
 40
0.0
 40
0.0
 40
0.0
 40
0.2717180323
 40
0.5298176142
 40
1.0
 40
1.0
 40
1.0
 40
1.0
 10
56.0382970052
 20
54.8840636966
 30
0.0
 10
56.1713530553
 20
54.9981280832
 30
0.0
 10
56.4401681434
 20
55.2101526678
 30
0.0
 10
56.9811476078
 20
55.5618005698
 30
0.0
 10
57.4134892266
 20
55.7593930428
 30
0.0
 10
57.7041680479
 20
55.8458490504
 30
0.0
  0
SPLINE
  5
253
100
AcDbEntity
  8
0
100
AcDbSpline
 62
7
  6
BYLAYER
 70
0
 71
3
 72
11
 73
7
 74
0
 42
0.0000001
 43
0.0000001
 44
0.0000000001
 40
0.0
 40
0.0
 40
0.0
 40
0.0
 40
0.252292529
 40
0.5082434669
 40
0.7599727079
 40
1.0
 40
1.0
 40
1.0
 40
1.0
 10
52.7888001957
 20
50.0359283522
 30
0.0
 10
52.9526155351
 20
50.5039614152
 30
0.0
 10
53.3464633363
 20
51.4254973346
 30
0.0
 10
54.1007494977
 20
52.7189783021
 30
0.0
 10
54.99469195
 20
53.8901121563
 30
0.0
 10
55.6801269681
 20
54.5770168126
 30
0.0
 10
56.0382970052
 20
54.8840636966
 30
0.0
  0
SPLINE
  5
254
100
AcDbEntity
  8
0
100
AcDbSpline
 62
7
  6
BYLAYER
 70
0
 71
3
 72
11
 73
7
 74
0
 42
0.0000001
 43
0.0000001
 44
0.0000000001
 40
0.0
 40
0.0
 40
0.0
 40
0.0
 40
0.2332717767
 40
0.4788003433
 40
0.7350293003
 40
1.0
 40
1.0
 40
1.0
 40
1.0
 10
51.5679537475
 20
43.4280138449
 30
0.0
 10
51.5679537475
 20
43.952792014
 30
0.0
 10
51.6240416027
 20
45.0304318466
 30
0.0
 10
51.8588681576
 20
46.6691620633
 30
0.0
 10
52.2438102194
 20
48.3523389696
 30
0.0
 10
52.5918777673
 20
49.4733057818
 30
0.0
 10
52.7888001957
 20
50.0359283522
 30
0.0
  0
SPLINE
  5
255
100
AcDbEntity
  8
0
100
AcDbSpline
 62
7
  6
BYLAYER
 70
0
 71
3
 72
11
 73
7
 74
0
 42
0.0000001
 43
0.0000001
 44
0.0000000001
 40
0.0
 40
0.0
 40
0.0
 40
0.0
 40
0.2257750993
 40
0.4669436192
 40
0.7249274594
 40
1.0
 40
1.0
 40
1.0
 40
1.0
 10
52.7888001957
 20
29.265272112
 30
0.0
 10
52.5830473556
 20
29.6155423529
 30
0.0
 10
52.220695664
 20
30.3783031389
 30
0.0
 10
51.8418294568
 20
31.6305475584
 30
0.0
 10
51.6150589422
 20
33.0084735556
 30
0.0
 10
51.5679537475
 20
33.9685526656
 30
0.0
 10
51.5679537475
 20
34.4634829831
 30
0.0
  0
SPLINE
  5
256
100
AcDbEntity
  8
0
100
AcDbSpline
 62
7
  6
BYLAYER
 70
0
 71
3
 72
19
 73
15
 74
0
 42
0.0000001
 43
0.0000001
 44
0.0000000001
 40
0.0
 40
0.0
 40
0.0
 40
0.0
 40
0.0428394104
 40
0.0874448899
 40
0.1352571039
 40
0.1871950253
 40
0.2436735499
 40
0.3046656819
 40
0.4382689093
 40
0.5825434307
 40
0.7296392143
 40
0.871166535
 40
0.9376088396
 40
1.0
 40
1.0
 40
1.0
 40
1.0
 10
17.2588110338
 20
49.1703665138
 30
0.0
 10
17.3118132523
 20
49.2009725165
 30
0.0
 10
17.4286655751
 20
49.2494931776
 30
0.0
 10
17.6215234773
 20
49.2778043107
 30
0.0
 10
17.8286334474
 20
49.2625289993
 30
0.0
 10
18.0453843565
 20
49.2049562898
 30
0.0
 10
18.2675444763
 20
49.1067974396
 30
0.0
 10
18.5742057962
 20
48.9190766186
 30
0.0
 10
18.9395368377
 20
48.5955499876
 30
0.0
 10
19.3150264279
 20
48.1148189324
 30
0.0
 10
19.6106959958
 20
47.5684521921
 30
0.0
 10
19.7743015704
 20
47.0849088424
 30
0.0
 10
19.8419431137
 20
46.7040256014
 30
0.0
 10
19.8540884625
 20
46.5198355125
 30
0.0
 10
19.8540884625
 20
46.4306978393
 30
0.0
  0
SPLINE
  5
257
100
AcDbEntity
  8
0
100
AcDbSpline
 62
7
  6
BYLAYER
 70
0
 71
3
 72
11
 73
7
 74
0
 42
0.0000001
 43
0.0000001
 44
0.0000000001
 40
0.0
 40
0.0
 40
0.0
 40
0.0
 40
0.2897033281
 40
0.5490895198
 40
0.7822165953
 40
1.0
 40
1.0
 40
1.0
 40
1.0
 10
19.8540884625
 20
69.2927655189
 30
0.0
 10
19.8540884625
 20
69.1838290084
 30
0.0
 10
19.8375720848
 20
68.9766548536
 30
0.0
 10
19.7536690377
 20
68.6920084216
 30
0.0
 10
19.6124041716
 20
68.4610339392
 30
0.0
 10
19.4797135842
 20
68.3494811378
 30
0.0
 10
19.4087923768
 20
68.3085350353
 30
0.0
  0
SPLINE
  5
258
100
AcDbEntity
  8
0
100
AcDbSpline
 62
7
  6
BYLAYER
 70
0
 71
3
 72
15
 73
11
 74
0
 42
0.0000001
 43
0.0000001
 44
0.0000000001
 40
0.0
 40
0.0
 40
0.0
 40
0.0
 40
0.1141232787
 40
0.2373467935
 40
0.3669716251
 40
0.4999988493
 40
0.6330262331
 40
0.7626515288
 40
0.885875802
 40
1.0
 40
1.0
 40
1.0
 40
1.0
 10
18.3338025535
 20
73.5589681722
 30
0.0
 10
18.4378492379
 20
73.4988981499
 30
0.0
 10
18.6434062038
 20
73.354749709
 30
0.0
 10
18.9263004681
 20
73.0901780928
 30
0.0
 10
19.186944501
 20
72.7773121007
 30
0.0
 10
19.4156245066
 20
72.4280959962
 30
0.0
 10
19.6037165516
 20
72.0554457306
 30
0.0
 10
19.744346984
 20
71.6732877779
 30
0.0
 10
19.8320284896
 20
71.2960067249
 30
0.0
 10
19.8540884625
 20
71.0459134039
 30
0.0
 10
19.8540884625
 20
70.9257703531
 30
0.0
  0
SPLINE
  5
259
100
AcDbEntity
  8
0
100
AcDbSpline
 62
7
  6
BYLAYER
 70
0
 71
3
 72
11
 73
7
 74
0
 42
0.0000001
 43
0.0000001
 44
0.0000000001
 40
0.0
 40
0.0
 40
0.0
 40
0.0
 40
0.2897033281
 40
0.5490895198
 40
0.7822165953
 40
1.0
 40
1.0
 40
1.0
 40
1.0
 10
48.1384774684
 20
20.3030386529
 30
0.0
 10
48.1384774684
 20
20.1941021424
 30
0.0
 10
48.1219610907
 20
19.9869279876
 30
0.0
 10
48.0380580436
 20
19.7022815556
 30
0.0
 10
47.8967931775
 20
19.4713070732
 30
0.0
 10
47.7641025901
 20
19.3597542718
 30
0.0
 10
47.6931813826
 20
19.3188081693
 30
0.0
  0
SPLINE
  5
25A
100
AcDbEntity
  8
0
100
AcDbSpline
 62
7
  6
BYLAYER
 70
0
 71
3
 72
15
 73
11
 74
0
 42
0.0000001
 43
0.0000001
 44
0.0000000001
 40
0.0
 40
0.0
 40
0.0
 40
0.0
 40
0.1141232787
 40
0.2373467935
 40
0.3669716251
 40
0.4999988493
 40
0.6330262331
 40
0.7626515288
 40
0.885875802
 40
1.0
 40
1.0
 40
1.0
 40
1.0
 10
46.6181915593
 20
22.9362364719
 30
0.0
 10
46.7222382437
 20
22.8761664497
 30
0.0
 10
46.9277952096
 20
22.7320180088
 30
0.0
 10
47.210689474
 20
22.4674463925
 30
0.0
 10
47.4713335068
 20
22.1545804005
 30
0.0
 10
47.7000135125
 20
21.805364296
 30
0.0
 10
47.8881055575
 20
21.4327140303
 30
0.0
 10
48.0287359898
 20
21.0505560777
 30
0.0
 10
48.1164174954
 20
20.6732750247
 30
0.0
 10
48.1384774684
 20
20.4231817036
 30
0.0
 10
48.1384774684
 20
20.3030386529
 30
0.0
  0
SPLINE
  5
25B
100
AcDbEntity
  8
0
100
AcDbSpline
 62
7
  6
BYLAYER
 70
0
 71
3
 72
11
 73
7
 74
0
 42
0.0000001
 43
0.0000001
 44
0.0000000001
 40
0.0
 40
0.0
 40
0.0
 40
0.0
 40
0.2897016594
 40
0.5490895814
 40
0.7822189142
 40
1.0
 40
1.0
 40
1.0
 40
1.0
 10
19.8540884625
 20
46.4306978393
 30
0.0
 10
19.8540884625
 20
46.3217617125
 30
0.0
 10
19.8375722595
 20
46.1145872238
 30
0.0
 10
19.7536734662
 20
45.8299382346
 30
0.0
 10
19.6124054701
 20
45.5989618774
 30
0.0
 10
19.4797115764
 20
45.4874155497
 30
0.0
 10
19.4087940731
 20
45.4464644092
 30
0.0
  0
SPLINE
  5
25C
100
AcDbEntity
  8
0
100
AcDbSpline
 62
7
  6
BYLAYER
 70
0
 71
3
 72
9
 73
5
 74
0
 42
0.0000001
 43
0.0000001
 44
0.0000000001
 40
0.0
 40
0.0
 40
0.0
 40
0.0
 40
0.511194329
 40
1.0
 40
1.0
 40
1.0
 40
1.0
 10
28.4204363788
 20
71.4722820394
 30
0.0
 10
28.3224756637
 20
71.6449359617
 30
0.0
 10
28.1633850364
 20
72.0028398402
 30
0.0
 10
28.0900033242
 20
72.3884315471
 30
0.0
 10
28.0776135176
 20
72.5778413542
 30
0.0
  0
SPLINE
  5
25D
100
AcDbEntity
  8
0
100
AcDbSpline
 62
7
  6
BYLAYER
 70
0
 71
3
 72
11
 73
7
 74
0
 42
0.0000001
 43
0.0000001
 44
0.0000000001
 40
0.0
 40
0.0
 40
0.0
 40
0.0
 40
0.2750734216
 40
0.533057512
 40
0.7742257027
 40
1.0
 40
1.0
 40
1.0
 40
1.0
 10
32.3117769225
 20
67.8159744562
 30
0.0
 10
31.8831564203
 20
68.0634330203
 30
0.0
 10
31.0752596719
 20
68.5842532997
 30
0.0
 10
29.9953304413
 20
69.4695847008
 30
0.0
 10
29.1002927195
 20
70.4237938551
 30
0.0
 10
28.6209012429
 20
71.1189664777
 30
0.0
 10
28.4204363788
 20
71.4722820394
 30
0.0
  0
SPLINE
  5
25E
100
AcDbEntity
  8
0
100
AcDbSpline
 62
7
  6
BYLAYER
 70
0
 71
3
 72
11
 73
7
 74
0
 42
0.0000001
 43
0.0000001
 44
0.0000000001
 40
0.0
 40
0.0
 40
0.0
 40
0.0
 40
0.2649712638
 40
0.5212004269
 40
0.7667288116
 40
1.0
 40
1.0
 40
1.0
 40
1.0
 10
46.4082986521
 20
61.0872198552
 30
0.0
 10
45.8225929162
 20
61.1979865199
 30
0.0
 10
44.6777755273
 20
61.4570243762
 30
0.0
 10
43.0276332703
 20
61.9652263748
 30
0.0
 10
41.4910412581
 20
62.5812075314
 30
0.0
 10
40.5297355282
 20
63.0714411787
 30
0.0
 10
40.075265212
 20
63.3338238022
 30
0.0
  0
SPLINE
  5
25F
100
AcDbEntity
  8
0
100
AcDbSpline
 62
7
  6
BYLAYER
 70
0
 71
3
 72
11
 73
7
 74
0
 42
0.0000001
 43
0.0000001
 44
0.0000000001
 40
0.0
 40
0.0
 40
0.0
 40
0.0
 40
0.2400275613
 40
0.4917569984
 40
0.7477078923
 40
1.0
 40
1.0
 40
1.0
 40
1.0
 10
52.2316574429
 20
61.477320224
 30
0.0
 10
51.7866611607
 20
61.3206598646
 30
0.0
 10
50.8490657892
 20
61.0705079559
 30
0.0
 10
49.3878623708
 20
60.8818942335
 30
0.0
 10
47.8905322835
 20
60.8753965456
 30
0.0
 10
46.8955348372
 20
60.9950754151
 30
0.0
 10
46.4082986521
 20
61.0872198552
 30
0.0
  0
SPLINE
  5
260
100
AcDbEntity
  8
0
100
AcDbSpline
 62
7
  6
BYLAYER
 70
0
 71
3
 72
10
 73
6
 74
0
 42
0.0000001
 43
0.0000001
 44
0.0000000001
 40
0.0
 40
0.0
 40
0.0
 40
0.0
 40
0.4701818743
 40
0.7282816263
 40
1.0
 40
1.0
 40
1.0
 40
1.0
 10
53.8975284855
 20
62.4391055778
 30
0.0
 10
53.6773144806
 20
62.2306004872
 30
0.0
 10
53.290022015
 20
61.9549809137
 30
0.0
 10
52.714995161
 20
61.6623054159
 30
0.0
 10
52.3969683976
 20
61.5355177295
 30
0.0
 10
52.2316574429
 20
61.477320224
 30
0.0
  0
SPLINE
  5
261
100
AcDbEntity
  8
0
100
AcDbSpline
 62
7
  6
BYLAYER
 70
0
 71
3
 72
11
 73
7
 74
0
 42
0.0000001
 43
0.0000001
 44
0.0000000001
 40
0.0
 40
0.0
 40
0.0
 40
0.0
 40
0.2177843137
 40
0.4509117637
 40
0.7102976701
 40
1.0
 40
1.0
 40
1.0
 40
1.0
 10
42.7147628355
 20
24.675667399
 30
0.0
 10
42.7856824429
 20
24.7166125776
 30
0.0
 10
42.9486312666
 20
24.7757480403
 30
0.0
 10
43.2192864859
 20
24.7826009783
 30
0.0
 10
43.5077415187
 20
24.7129442302
 30
0.0
 10
43.695413187
 20
24.6236651772
 30
0.0
 10
43.7897526588
 20
24.56919949
 30
0.0
  0
SPLINE
  5
262
100
AcDbEntity
  8
0
100
AcDbSpline
 62
7
  6
BYLAYER
 70
0
 71
3
 72
11
 73
7
 74
0
 42
0.0000001
 43
0.0000001
 44
0.0000000001
 40
0.0
 40
0.0
 40
0.0
 40
0.0
 40
0.2177843137
 40
0.4509117637
 40
0.7102976701
 40
1.0
 40
1.0
 40
1.0
 40
1.0
 10
17.2588127302
 20
73.6654360811
 30
0.0
 10
17.3297323376
 20
73.7063812598
 30
0.0
 10
17.4926811613
 20
73.7655167225
 30
0.0
 10
17.7633363806
 20
73.7723696605
 30
0.0
 10
18.0517914135
 20
73.7027129124
 30
0.0
 10
18.2394630817
 20
73.6134338594
 30
0.0
 10
18.3338025535
 20
73.5589681722
 30
0.0
  0
SPLINE
  5
263
100
AcDbEntity
  8
0
100
AcDbSpline
 62
7
  6
BYLAYER
 70
0
 71
3
 72
11
 73
7
 74
0
 42
0.0000001
 43
0.0000001
 44
0.0000000001
 40
0.0
 40
0.0
 40
0.0
 40
0.0
 40
0.2310399306
 40
0.4712394412
 40
0.726334011
 40
1.0
 40
1.0
 40
1.0
 40
1.0
 10
54.9155501298
 20
64.3841680249
 30
0.0
 10
54.9037761871
 20
64.2117247203
 30
0.0
 10
54.8402169983
 20
63.8616406452
 30
0.0
 10
54.6320712594
 20
63.3559409951
 30
0.0
 10
54.3153773758
 20
62.8721562226
 30
0.0
 10
54.0461957158
 20
62.5798680799
 30
0.0
 10
53.8975284855
 20
62.4391055778
 30
0.0
  0
SPLINE
  5
264
100
AcDbEntity
  8
0
100
AcDbSpline
 62
7
  6
BYLAYER
 70
0
 71
3
 72
18
 73
14
 74
0
 42
0.0000001
 43
0.0000001
 44
0.0000000001
 40
0.0
 40
0.0
 40
0.0
 40
0.0
 40
0.0454666108
 40
0.0917327478
 40
0.1395316672
 40
0.1894737741
 40
0.2420293687
 40
0.2975095841
 40
0.4176766831
 40
0.5500758012
 40
0.6931228098
 40
0.8441943965
 40
1.0
 40
1.0
 40
1.0
 40
1.0
 10
15.6659230354
 20
40.6460762608
 30
0.0
 10
15.5591297724
 20
40.707735266
 30
0.0
 10
15.353610255
 20
40.8502828991
 30
0.0
 10
15.0804284868
 20
41.1143540571
 30
0.0
 10
14.8437746012
 20
41.4269000732
 30
0.0
 10
14.6455069378
 20
41.7844830329
 30
0.0
 10
14.4872977152
 20
42.1838384782
 30
0.0
 10
14.3268930002
 20
42.7828188267
 30
0.0
 10
14.240399031
 20
43.6193373703
 30
0.0
 10
14.3084154413
 20
44.6939638731
 30
0.0
 10
14.5419931964
 20
45.8303817543
 30
0.0
 10
14.9327294674
 20
46.989203539
 30
0.0
 10
15.2865189195
 20
47.7447952687
 30
0.0
 10
15.4861035698
 20
48.1172711204
 30
0.0
  0
SPLINE
  5
265
100
AcDbEntity
  8
0
100
AcDbSpline
 62
7
  6
BYLAYER
 70
0
 71
3
 72
14
 73
10
 74
0
 42
0.0000001
 43
0.0000001
 44
0.0000000001
 40
0.0
 40
0.0
 40
0.0
 40
0.0
 40
0.1080477172
 40
0.2181310799
 40
0.3321075094
 40
0.4515016648
 40
0.5774650106
 40
0.7107278227
 40
1.0
 40
1.0
 40
1.0
 40
1.0
 10
9.3525390193
 20
45.1570401004
 30
0.0
 10
9.2541668026
 20
45.2138353549
 30
0.0
 10
9.0650608364
 20
45.3458456245
 30
0.0
 10
8.8151050665
 20
45.59174212
 30
0.0
 10
8.600225541
 20
45.8836856458
 30
0.0
 10
8.4222123885
 20
46.218233541
 30
0.0
 10
8.2826475163
 20
46.5921409019
 30
0.0
 10
8.1453518798
 20
47.153203293
 30
0.0
 10
8.1098672954
 20
47.5996046197
 30
0.0
 10
8.1098650953
 20
47.903716194
 30
0.0
  0
SPLINE
  5
266
100
AcDbEntity
  8
0
100
AcDbSpline
 62
7
  6
BYLAYER
 70
0
 71
3
 72
14
 73
10
 74
0
 42
0.0000001
 43
0.0000001
 44
0.0000000001
 40
0.0
 40
0.0
 40
0.0
 40
0.0
 40
0.2892710494
 40
0.4225536085
 40
0.5484974385
 40
0.6678867473
 40
0.7818678462
 40
0.8919525122
 40
1.0
 40
1.0
 40
1.0
 40
1.0
 10
12.3524881185
 20
55.2522364137
 30
0.0
 10
12.6158489187
 20
55.404286935
 30
0.0
 10
13.0201977385
 20
55.5967419723
 30
0.0
 10
13.5747112857
 20
55.7584173249
 30
0.0
 10
13.96829918
 20
55.8244660542
 30
0.0
 10
14.3470000829
 20
55.8375685423
 30
0.0
 10
14.7072641826
 20
55.7974709166
 30
0.0
 10
15.0451950941
 20
55.7039613034
 30
0.0
 10
15.2540677927
 20
55.6061973641
 30
0.0
 10
15.3524372176
 20
55.5494037214
 30
0.0
  0
SPLINE
  5
267
100
AcDbEntity
  8
0
100
AcDbSpline
 62
7
  6
BYLAYER
 70
0
 71
3
 72
14
 73
10
 74
0
 42
0.0000001
 43
0.0000001
 44
0.0000000001
 40
0.0
 40
0.0
 40
0.0
 40
0.0
 40
0.124174971
 40
0.2603589021
 40
0.4026503761
 40
0.5446767545
 40
0.6798833046
 40
0.8027834002
 40
1.0
 40
1.0
 40
1.0
 40
1.0
 10
56.4469696354
 20
44.7368562506
 30
0.0
 10
56.4469696354
 20
44.7752138001
 30
0.0
 10
56.4566586114
 20
44.855724944
 30
0.0
 10
56.4933422127
 20
44.9750957656
 30
0.0
 10
56.5507489915
 20
45.092219676
 30
0.0
 10
56.6246982753
 20
45.1991323181
 30
0.0
 10
56.711012434
 20
45.2889189706
 30
0.0
 10
56.8242907483
 20
45.3712207786
 30
0.0
 10
56.9268805471
 20
45.4039640332
 30
0.0
 10
56.9872024089
 20
45.3954478407
 30
0.0
  0
SPLINE
  5
268
100
AcDbEntity
  8
0
100
AcDbSpline
 62
7
  6
BYLAYER
 70
0
 71
3
 72
9
 73
5
 74
0
 42
0.0000001
 43
0.0000001
 44
0.0000000001
 40
0.0
 40
0.0
 40
0.0
 40
0.0
 40
0.2560036703
 40
1.0
 40
1.0
 40
1.0
 40
1.0
 10
56.9872024089
 20
45.3954478407
 30
0.0
 10
56.9928701339
 20
45.3946476757
 30
0.0
 10
57.0148573717
 20
45.3905472223
 30
0.0
 10
57.0360940188
 20
45.3822812487
 30
0.0
 10
57.0505065956
 20
45.3739748738
 30
0.0
  0
SPLINE
  5
269
100
AcDbEntity
  8
0
100
AcDbSpline
 62
7
  6
BYLAYER
 70
0
 71
3
 72
14
 73
10
 74
0
 42
0.0000001
 43
0.0000001
 44
0.0000000001
 40
0.0
 40
0.0
 40
0.0
 40
0.0
 40
0.124174971
 40
0.2603589021
 40
0.4026503761
 40
0.5446767545
 40
0.6798833046
 40
0.8027834002
 40
1.0
 40
1.0
 40
1.0
 40
1.0
 10
56.4469696354
 20
33.4691228942
 30
0.0
 10
56.4469696354
 20
33.5074804438
 30
0.0
 10
56.4566586114
 20
33.5879915876
 30
0.0
 10
56.4933422127
 20
33.7073624092
 30
0.0
 10
56.5507489915
 20
33.8244863196
 30
0.0
 10
56.6246982753
 20
33.9313989617
 30
0.0
 10
56.711012434
 20
34.0211856142
 30
0.0
 10
56.8242907483
 20
34.1034874222
 30
0.0
 10
56.9268805471
 20
34.1362306768
 30
0.0
 10
56.9872024089
 20
34.1277144843
 30
0.0
  0
SPLINE
  5
26A
100
AcDbEntity
  8
0
100
AcDbSpline
 62
7
  6
BYLAYER
 70
0
 71
3
 72
9
 73
5
 74
0
 42
0.0000001
 43
0.0000001
 44
0.0000000001
 40
0.0
 40
0.0
 40
0.0
 40
0.0
 40
0.2560036703
 40
1.0
 40
1.0
 40
1.0
 40
1.0
 10
56.9872024089
 20
34.1277144843
 30
0.0
 10
56.9928701339
 20
34.1269143194
 30
0.0
 10
57.0148573717
 20
34.1228138659
 30
0.0
 10
57.0360940188
 20
34.1145478924
 30
0.0
 10
57.0505065956
 20
34.1062415174
 30
0.0
  0
SPLINE
  5
26B
100
AcDbEntity
  8
0
100
AcDbSpline
 62
7
  6
BYLAYER
 70
0
 71
3
 72
11
 73
7
 74
0
 42
0.0000001
 43
0.0000001
 44
0.0000000001
 40
0.0
 40
0.0
 40
0.0
 40
0.0
 40
0.2310623606
 40
0.4708856295
 40
0.7258197318
 40
1.0
 40
1.0
 40
1.0
 40
1.0
 10
53.703155921
 20
28.3373051328
 30
0.0
 10
53.8611012875
 20
28.253151677
 30
0.0
 10
54.2041143697
 20
28.1187326209
 30
0.0
 10
54.7636996136
 20
28.0328315443
 30
0.0
 10
55.3619826049
 20
28.0604614572
 30
0.0
 10
55.7640371754
 20
28.1495930406
 30
0.0
 10
55.9675860327
 20
28.2101341611
 30
0.0
  0
SPLINE
  5
26C
100
AcDbEntity
  8
0
100
AcDbSpline
 62
7
  6
BYLAYER
 70
0
 71
3
 72
11
 73
7
 74
0
 42
0.0000001
 43
0.0000001
 44
0.0000000001
 40
0.0
 40
0.0
 40
0.0
 40
0.0
 40
0.2746434585
 40
0.5293799475
 40
0.7688330291
 40
1.0
 40
1.0
 40
1.0
 40
1.0
 10
56.0382970052
 20
28.1693100856
 30
0.0
 10
55.8274804934
 20
28.1066073615
 30
0.0
 10
55.4111734269
 20
28.0153977837
 30
0.0
 10
54.7920813943
 20
27.9929444455
 30
0.0
 10
54.2152824168
 20
28.0929285343
 30
0.0
 10
53.8647924219
 20
28.2424270665
 30
0.0
 10
53.7044670496
 20
28.3349879227
 30
0.0
  0
SPLINE
  5
26D
100
AcDbEntity
  8
0
100
AcDbSpline
 62
7
  6
BYLAYER
 70
0
 71
3
 72
10
 73
6
 74
0
 42
0.0000001
 43
0.0000001
 44
0.0000000001
 40
0.0
 40
0.0
 40
0.0
 40
0.0
 40
0.2717180323
 40
0.5298176142
 40
1.0
 40
1.0
 40
1.0
 40
1.0
 10
57.7041680479
 20
29.1310954395
 30
0.0
 10
57.5711119978
 20
29.0170310529
 30
0.0
 10
57.3022969097
 20
28.8050064683
 30
0.0
 10
56.7613174453
 20
28.4533585663
 30
0.0
 10
56.3289758265
 20
28.2557660932
 30
0.0
 10
56.0382970052
 20
28.1693100856
 30
0.0
  0
SPLINE
  5
26E
100
AcDbEntity
  8
0
100
AcDbSpline
 62
7
  6
BYLAYER
 70
0
 71
3
 72
11
 73
7
 74
0
 42
0.0000001
 43
0.0000001
 44
0.0000000001
 40
0.0
 40
0.0
 40
0.0
 40
0.0
 40
0.252292529
 40
0.5082434669
 40
0.7599727079
 40
1.0
 40
1.0
 40
1.0
 40
1.0
 10
60.9536648574
 20
33.9792307838
 30
0.0
 10
60.789849518
 20
33.5111977209
 30
0.0
 10
60.3960017168
 20
32.5896618015
 30
0.0
 10
59.6417155554
 20
31.296180834
 30
0.0
 10
58.7477731031
 20
30.1250469798
 30
0.0
 10
58.062338085
 20
29.4381423235
 30
0.0
 10
57.7041680479
 20
29.1310954395
 30
0.0
  0
SPLINE
  5
26F
100
AcDbEntity
  8
0
100
AcDbSpline
 62
7
  6
BYLAYER
 70
0
 71
3
 72
11
 73
7
 74
0
 42
0.0000001
 43
0.0000001
 44
0.0000000001
 40
0.0
 40
0.0
 40
0.0
 40
0.0
 40
0.2332717767
 40
0.4788003433
 40
0.7350293003
 40
1.0
 40
1.0
 40
1.0
 40
1.0
 10
62.1745113056
 20
40.5871452911
 30
0.0
 10
62.1745113056
 20
40.0623671221
 30
0.0
 10
62.1184234504
 20
38.9847272895
 30
0.0
 10
61.8835968955
 20
37.3459970727
 30
0.0
 10
61.4986548337
 20
35.6628201665
 30
0.0
 10
61.1505872858
 20
34.5418533543
 30
0.0
 10
60.9536648574
 20
33.9792307838
 30
0.0
  0
SPLINE
  5
270
100
AcDbEntity
  8
0
100
AcDbSpline
 62
7
  6
BYLAYER
 70
0
 71
3
 72
11
 73
7
 74
0
 42
0.0000001
 43
0.0000001
 44
0.0000000001
 40
0.0
 40
0.0
 40
0.0
 40
0.0
 40
0.2177843137
 40
0.4509117637
 40
0.7102976701
 40
1.0
 40
1.0
 40
1.0
 40
1.0
 10
47.6931813826
 20
19.3188081693
 30
0.0
 10
47.6222617752
 20
19.2778629906
 30
0.0
 10
47.4593129515
 20
19.218727528
 30
0.0
 10
47.1886577322
 20
19.21187459
 30
0.0
 10
46.9002026994
 20
19.2815313381
 30
0.0
 10
46.7125310311
 20
19.3708103911
 30
0.0
 10
46.6181915593
 20
19.4252760783
 30
0.0
  0
SPLINE
  5
271
100
AcDbEntity
  8
0
100
AcDbSpline
 62
7
  6
BYLAYER
 70
0
 71
3
 72
11
 73
7
 74
0
 42
0.0000001
 43
0.0000001
 44
0.0000000001
 40
0.0
 40
0.0
 40
0.0
 40
0.0
 40
0.2257750993
 40
0.4669436192
 40
0.7249274594
 40
1.0
 40
1.0
 40
1.0
 40
1.0
 10
60.9536648574
 20
54.7498870241
 30
0.0
 10
61.1594176975
 20
54.3996167832
 30
0.0
 10
61.5217693891
 20
53.6368559971
 30
0.0
 10
61.9006355963
 20
52.3846115776
 30
0.0
 10
62.1274061109
 20
51.0066855804
 30
0.0
 10
62.1745113056
 20
50.0466064704
 30
0.0
 10
62.1745113056
 20
49.551676153
 30
0.0
  0
SPLINE
  5
272
100
AcDbEntity
  8
0
100
AcDbSpline
 62
7
  6
BYLAYER
 70
0
 71
3
 72
15
 73
11
 74
0
 42
0.0000001
 43
0.0000001
 44
0.0000000001
 40
0.0
 40
0.0
 40
0.0
 40
0.0
 40
0.1161993854
 40
0.239762091
 40
0.3685284892
 40
0.4999828261
 40
0.6314370454
 40
0.7602058967
 40
0.8837591858
 40
1.0
 40
1.0
 40
1.0
 40
1.0
 10
8.123863582
 20
48.3092556749
 30
0.0
 10
8.1448196173
 20
48.6185672888
 30
0.0
 10
8.2344250836
 20
49.2541508995
 30
0.0
 10
8.4887489664
 20
50.2059694642
 30
0.0
 10
8.8600558628
 20
51.1623020211
 30
0.0
 10
9.3371150276
 20
52.0940458952
 30
0.0
 10
9.9054718815
 20
52.9730913105
 30
0.0
 10
10.5480101763
 20
53.7728040802
 30
0.0
 10
11.2451477073
 20
54.4690982316
 30
0.0
 10
11.7508792688
 20
54.8645004241
 30
0.0
 10
12.008359898
 20
55.0373735051
 30
0.0
  0
SPLINE
  5
273
100
AcDbEntity
  8
0
100
AcDbSpline
 62
7
  6
BYLAYER
 70
0
 71
3
 72
14
 73
10
 74
0
 42
0.0000001
 43
0.0000001
 44
0.0000000001
 40
0.0
 40
0.0
 40
0.0
 40
0.0
 40
0.1973037968
 40
0.3202214927
 40
0.4554211492
 40
0.5974306038
 40
0.7396977948
 40
0.8758558119
 40
1.0
 40
1.0
 40
1.0
 40
1.0
 10
56.5435278529
 20
33.2595413821
 30
0.0
 10
56.6038696132
 20
33.2511569004
 30
0.0
 10
56.7063773789
 20
33.2840077871
 30
0.0
 10
56.8195836153
 20
33.3663667927
 30
0.0
 10
56.9058192963
 20
33.4561502528
 30
0.0
 10
56.9796965407
 20
33.5630282087
 30
0.0
 10
57.0370429064
 20
33.6800971204
 30
0.0
 10
57.0736851118
 20
33.799399276
 30
0.0
 10
57.0833625001
 20
33.8798591266
 30
0.0
 10
57.0833625001
 20
33.9181911235
 30
0.0
  0
SPLINE
  5
274
100
AcDbEntity
  8
0
100
AcDbSpline
 62
7
  6
BYLAYER
 70
0
 71
3
 72
11
 73
7
 74
0
 42
0.0000001
 43
0.0000001
 44
0.0000000001
 40
0.0
 40
0.0
 40
0.0
 40
0.0
 40
0.2177843137
 40
0.4509117637
 40
0.7102976701
 40
1.0
 40
1.0
 40
1.0
 40
1.0
 10
19.4087923768
 20
68.3085350353
 30
0.0
 10
19.3378727694
 20
68.2675898566
 30
0.0
 10
19.1749239457
 20
68.208454394
 30
0.0
 10
18.9042687263
 20
68.201601456
 30
0.0
 10
18.6158136935
 20
68.2712582041
 30
0.0
 10
18.4281420252
 20
68.360537257
 30
0.0
 10
18.3338025535
 20
68.4150029443
 30
0.0
  0
SPLINE
  5
275
100
AcDbEntity
  8
0
100
AcDbSpline
 62
7
  6
BYLAYER
 70
0
 71
3
 72
16
 73
12
 74
0
 42
0.0000001
 43
0.0000001
 44
0.0000000001
 40
0.0
 40
0.0
 40
0.0
 40
0.0
 40
0.1318107817
 40
0.2521365669
 40
0.3648544551
 40
0.4755260864
 40
0.5902514626
 40
0.7140691942
 40
0.7805665412
 40
0.8503841319
 40
1.0
 40
1.0
 40
1.0
 40
1.0
 10
39.2806808929
 20
69.3138442629
 30
0.0
 10
39.2127195277
 20
69.2511781979
 30
0.0
 10
39.0927272863
 20
69.1193574527
 30
0.0
 10
38.9659658735
 20
68.8941669375
 30
0.0
 10
38.9068188292
 20
68.6570740032
 30
0.0
 10
38.9194379376
 20
68.4167579015
 30
0.0
 10
39.0026244577
 20
68.1831952901
 30
0.0
 10
39.1236708626
 20
68.0043586865
 30
0.0
 10
39.2482441702
 20
67.8707744741
 30
0.0
 10
39.3985440068
 20
67.7376427674
 30
0.0
 10
39.5268961819
 20
67.6511728598
 30
0.0
 10
39.617769364
 20
67.5987083906
 30
0.0
  0
SPLINE
  5
276
100
AcDbEntity
  8
0
100
AcDbSpline
 62
7
  6
BYLAYER
 70
0
 71
3
 72
11
 73
7
 74
0
 42
0.0000001
 43
0.0000001
 44
0.0000000001
 40
0.0
 40
0.0
 40
0.0
 40
0.0
 40
0.2176899422
 40
0.4508856506
 40
0.7106204681
 40
1.0
 40
1.0
 40
1.0
 40
1.0
 10
57.0505065956
 20
34.1062415174
 30
0.0
 10
57.0669996167
 20
34.0967361238
 30
0.0
 10
57.0978606138
 20
34.070801107
 30
0.0
 10
57.1307479303
 20
34.017070111
 30
0.0
 10
57.1501835893
 20
33.9508441596
 30
0.0
 10
57.1540734726
 20
33.9026720814
 30
0.0
 10
57.1540734726
 20
33.8773670481
 30
0.0
  0
SPLINE
  5
277
100
AcDbEntity
  8
0
100
AcDbSpline
 62
7
  6
BYLAYER
 70
0
 71
3
 72
16
 73
12
 74
0
 42
0.0000001
 43
0.0000001
 44
0.0000000001
 40
0.0
 40
0.0
 40
0.0
 40
0.0
 40
0.1318107817
 40
0.2521365669
 40
0.3648544551
 40
0.4755260864
 40
0.5902514626
 40
0.7140691942
 40
0.7805665412
 40
0.8503841319
 40
1.0
 40
1.0
 40
1.0
 40
1.0
 10
44.2304489689
 20
66.4561589813
 30
0.0
 10
44.1624876038
 20
66.3934929163
 30
0.0
 10
44.0424953623
 20
66.2616721711
 30
0.0
 10
43.9157339496
 20
66.0364816559
 30
0.0
 10
43.8565869052
 20
65.7993887216
 30
0.0
 10
43.8692060136
 20
65.5590726199
 30
0.0
 10
43.9523925337
 20
65.3255100085
 30
0.0
 10
44.0734389387
 20
65.1466734049
 30
0.0
 10
44.1980122462
 20
65.0130891924
 30
0.0
 10
44.3483120828
 20
64.8799574858
 30
0.0
 10
44.476664258
 20
64.7934875782
 30
0.0
 10
44.56753744
 20
64.7410231089
 30
0.0
  0
SPLINE
  5
278
100
AcDbEntity
  8
0
100
AcDbSpline
 62
7
  6
BYLAYER
 70
0
 71
3
 72
19
 73
15
 74
0
 42
0.0000001
 43
0.0000001
 44
0.0000000001
 40
0.0
 40
0.0
 40
0.0
 40
0.0
 40
0.0428394104
 40
0.0874448899
 40
0.1352571039
 40
0.1871950253
 40
0.2436735499
 40
0.3046656819
 40
0.4382689093
 40
0.5825434307
 40
0.7296392143
 40
0.871166535
 40
0.9376088396
 40
1.0
 40
1.0
 40
1.0
 40
1.0
 10
19.4087940731
 20
45.4464644092
 30
0.0
 10
19.3557918547
 20
45.4158584065
 30
0.0
 10
19.2389395318
 20
45.3673377453
 30
0.0
 10
19.0460816297
 20
45.3390266122
 30
0.0
 10
18.8389716596
 20
45.3543019236
 30
0.0
 10
18.6222207505
 20
45.4118746332
 30
0.0
 10
18.4000606306
 20
45.5100334833
 30
0.0
 10
18.0933993107
 20
45.6977543043
 30
0.0
 10
17.7280682692
 20
46.0212809353
 30
0.0
 10
17.352578679
 20
46.5020119906
 30
0.0
 10
17.0569091111
 20
47.0483787309
 30
0.0
 10
16.8933035365
 20
47.5319220805
 30
0.0
 10
16.8256619933
 20
47.9128053215
 30
0.0
 10
16.8135166444
 20
48.0969954104
 30
0.0
 10
16.8135166444
 20
48.1861330837
 30
0.0
  0
SPLINE
  5
279
100
AcDbEntity
  8
0
100
AcDbSpline
 62
7
  6
BYLAYER
 70
0
 71
3
 72
11
 73
7
 74
0
 42
0.0000001
 43
0.0000001
 44
0.0000000001
 40
0.0
 40
0.0
 40
0.0
 40
0.0
 40
0.2311656508
 40
0.4706180376
 40
0.7253548959
 40
1.0
 40
1.0
 40
1.0
 40
1.0
 10
28.0726265683
 20
72.7303565595
 30
0.0
 10
28.0726273862
 20
72.9154826209
 30
0.0
 10
28.1184007638
 20
73.2937657632
 30
0.0
 10
28.3202128663
 20
73.8432815583
 30
0.0
 10
28.6492094032
 20
74.368205709
 30
0.0
 10
28.9363578223
 20
74.6831336628
 30
0.0
 10
29.0960712071
 20
74.8343549886
 30
0.0
  0
SPLINE
  5
27A
100
AcDbEntity
  8
0
100
AcDbSpline
 62
7
  6
BYLAYER
 70
0
 71
3
 72
9
 73
5
 74
0
 42
0.0000001
 43
0.0000001
 44
0.0000000001
 40
0.0
 40
0.0
 40
0.0
 40
0.0
 40
0.488805671
 40
1.0
 40
1.0
 40
1.0
 40
1.0
 10
54.915986175
 20
64.5323187288
 30
0.0
 10
54.9035963684
 20
64.7217285359
 30
0.0
 10
54.8302146562
 20
65.1073202428
 30
0.0
 10
54.671124029
 20
65.4652241213
 30
0.0
 10
54.5731633139
 20
65.6378780436
 30
0.0
  0
SPLINE
  5
27B
100
AcDbEntity
  8
0
100
AcDbSpline
 62
7
  6
BYLAYER
 70
0
 71
3
 72
11
 73
7
 74
0
 42
0.0000001
 43
0.0000001
 44
0.0000000001
 40
0.0
 40
0.0
 40
0.0
 40
0.0
 40
0.273665989
 40
0.5287605588
 40
0.7689600694
 40
1.0
 40
1.0
 40
1.0
 40
1.0
 10
29.0960712071
 20
74.6710545052
 30
0.0
 10
28.9474039768
 20
74.5302920031
 30
0.0
 10
28.6782223168
 20
74.2380038605
 30
0.0
 10
28.3615284332
 20
73.7542190879
 30
0.0
 10
28.1533826944
 20
73.2485194378
 30
0.0
 10
28.0898235055
 20
72.8984353628
 30
0.0
 10
28.0780495628
 20
72.7259920581
 30
0.0
  0
SPLINE
  5
27C
100
AcDbEntity
  8
0
100
AcDbSpline
 62
7
  6
BYLAYER
 70
0
 71
3
 72
10
 73
6
 74
0
 42
0.0000001
 43
0.0000001
 44
0.0000000001
 40
0.0
 40
0.0
 40
0.0
 40
0.0
 40
0.2717183737
 40
0.5298181257
 40
1.0
 40
1.0
 40
1.0
 40
1.0
 10
30.7619422497
 20
75.632839859
 30
0.0
 10
30.596631295
 20
75.5746423535
 30
0.0
 10
30.2786045317
 20
75.4478546672
 30
0.0
 10
29.7035776777
 20
75.1551791693
 30
0.0
 10
29.316285212
 20
74.8795595959
 30
0.0
 10
29.0960712071
 20
74.6710545052
 30
0.0
  0
SPLINE
  5
27D
100
AcDbEntity
  8
0
100
AcDbSpline
 62
7
  6
BYLAYER
 70
0
 71
3
 72
11
 73
7
 74
0
 42
0.0000001
 43
0.0000001
 44
0.0000000001
 40
0.0
 40
0.0
 40
0.0
 40
0.0
 40
0.2522921077
 40
0.5082430016
 40
0.7599724387
 40
1.0
 40
1.0
 40
1.0
 40
1.0
 10
36.5853010406
 20
76.0229402278
 30
0.0
 10
36.0980648555
 20
76.1150846679
 30
0.0
 10
35.1030674091
 20
76.2347635375
 30
0.0
 10
33.6057373218
 20
76.2282658495
 30
0.0
 10
32.1445339034
 20
76.0396521271
 30
0.0
 10
31.2069385319
 20
75.7895002185
 30
0.0
 10
30.7619422497
 20
75.632839859
 30
0.0
  0
SPLINE
  5
27E
100
AcDbEntity
  8
0
100
AcDbSpline
 62
7
  6
BYLAYER
 70
0
 71
3
 72
11
 73
7
 74
0
 42
0.0000001
 43
0.0000001
 44
0.0000000001
 40
0.0
 40
0.0
 40
0.0
 40
0.0
 40
0.2332711884
 40
0.4787995731
 40
0.7350287362
 40
1.0
 40
1.0
 40
1.0
 40
1.0
 10
42.9183344806
 20
73.7763362808
 30
0.0
 10
42.4638641644
 20
74.0387189043
 30
0.0
 10
41.5025584345
 20
74.5289525516
 30
0.0
 10
39.9659664223
 20
75.1449337082
 30
0.0
 10
38.3158241653
 20
75.6531357068
 30
0.0
 10
37.1710067764
 20
75.9121735632
 30
0.0
 10
36.5853010406
 20
76.0229402278
 30
0.0
  0
SPLINE
  5
27F
100
AcDbEntity
  8
0
100
AcDbSpline
 62
7
  6
BYLAYER
 70
0
 71
3
 72
11
 73
7
 74
0
 42
0.0000001
 43
0.0000001
 44
0.0000000001
 40
0.0
 40
0.0
 40
0.0
 40
0.0
 40
0.2257742973
 40
0.466942488
 40
0.7249265784
 40
1.0
 40
1.0
 40
1.0
 40
1.0
 10
54.5731633139
 20
65.6378780436
 30
0.0
 10
54.3726984497
 20
65.9911936053
 30
0.0
 10
53.8933069732
 20
66.686366228
 30
0.0
 10
52.9982692513
 20
67.6405753823
 30
0.0
 10
51.9183400207
 20
68.5259067833
 30
0.0
 10
51.1104432723
 20
69.0467270627
 30
0.0
 10
50.6818227702
 20
69.2941856268
 30
0.0
  0
SPLINE
  5
280
100
AcDbEntity
  8
0
100
AcDbSpline
 62
7
  6
BYLAYER
 70
0
 71
3
 72
23
 73
19
 74
0
 42
0.0000001
 43
0.0000001
 44
0.0000000001
 40
0.0
 40
0.0
 40
0.0
 40
0.0
 40
0.0661249355
 40
0.1371800502
 40
0.2119651989
 40
0.2889617683
 40
0.3665214056
 40
0.4429321584
 40
0.5165569032
 40
0.585965581
 40
0.650059119
 40
0.7082493627
 40
0.7606635475
 40
0.8083630237
 40
0.853438926
 40
0.8987020533
 40
0.9469013933
 40
1.0
 40
1.0
 40
1.0
 40
1.0
 10
44.56753744
 20
64.7410231089
 30
0.0
 10
44.6749637677
 20
64.6790018929
 30
0.0
 10
44.908550901
 20
64.5684911725
 30
0.0
 10
45.2880463474
 20
64.4467232684
 30
0.0
 10
45.6992143223
 20
64.3664871688
 30
0.0
 10
46.1286612744
 20
64.3297727222
 30
0.0
 10
46.5626483368
 20
64.3382456313
 30
0.0
 10
46.9870893331
 20
64.3915092175
 30
0.0
 10
47.3882566135
 20
64.4878623382
 30
0.0
 10
47.7532430104
 20
64.624271946
 30
0.0
 10
48.0704251587
 20
64.7966200383
 30
0.0
 10
48.3297858272
 20
64.9999618768
 30
0.0
 10
48.5228155518
 20
65.2290268999
 30
0.0
 10
48.6415576709
 20
65.4781242053
 30
0.0
 10
48.678406572
 20
65.7389169316
 30
0.0
 10
48.6297331138
 20
65.9986284073
 30
0.0
 10
48.5007136699
 20
66.2451796079
 30
0.0
 10
48.3725761887
 20
66.3879789756
 30
0.0
 10
48.2993656326
 20
66.4555217537
 30
0.0
  0
SPLINE
  5
281
100
AcDbEntity
  8
0
100
AcDbSpline
 62
7
  6
BYLAYER
 70
0
 71
3
 72
11
 73
7
 74
0
 42
0.0000001
 43
0.0000001
 44
0.0000000001
 40
0.0
 40
0.0
 40
0.0
 40
0.0
 40
0.2897033281
 40
0.5490895198
 40
0.7822165953
 40
1.0
 40
1.0
 40
1.0
 40
1.0
 10
16.8135166444
 20
72.6812055976
 30
0.0
 10
16.8135166444
 20
72.790142108
 30
0.0
 10
16.8300330221
 20
72.9973162629
 30
0.0
 10
16.9139360692
 20
73.2819626949
 30
0.0
 10
17.0552009353
 20
73.5129371773
 30
0.0
 10
17.1878915227
 20
73.6244899787
 30
0.0
 10
17.2588127302
 20
73.6654360811
 30
0.0
  0
SPLINE
  5
282
100
AcDbEntity
  8
0
100
AcDbSpline
 62
7
  6
BYLAYER
 70
0
 71
3
 72
23
 73
19
 74
0
 42
0.0000001
 43
0.0000001
 44
0.0000000001
 40
0.0
 40
0.0
 40
0.0
 40
0.0
 40
0.0661249355
 40
0.1371800502
 40
0.2119651989
 40
0.2889617683
 40
0.3665214056
 40
0.4429321584
 40
0.5165569032
 40
0.585965581
 40
0.650059119
 40
0.7082493627
 40
0.7606635475
 40
0.8083630237
 40
0.853438926
 40
0.8987020533
 40
0.9469013933
 40
1.0
 40
1.0
 40
1.0
 40
1.0
 10
39.617769364
 20
67.5987083906
 30
0.0
 10
39.7251956917
 20
67.5366871745
 30
0.0
 10
39.9587828249
 20
67.4261764541
 30
0.0
 10
40.3382782713
 20
67.30440855
 30
0.0
 10
40.7494462463
 20
67.2241724504
 30
0.0
 10
41.1788931984
 20
67.1874580039
 30
0.0
 10
41.6128802608
 20
67.1959309129
 30
0.0
 10
42.037321257
 20
67.2491944992
 30
0.0
 10
42.4384885375
 20
67.3455476198
 30
0.0
 10
42.8034749344
 20
67.4819572277
 30
0.0
 10
43.1206570827
 20
67.65430532
 30
0.0
 10
43.3800177511
 20
67.8576471584
 30
0.0
 10
43.5730474758
 20
68.0867121816
 30
0.0
 10
43.6917895949
 20
68.3358094869
 30
0.0
 10
43.728638496
 20
68.5966022132
 30
0.0
 10
43.6799650378
 20
68.8563136889
 30
0.0
 10
43.5509455939
 20
69.1028648895
 30
0.0
 10
43.4228081127
 20
69.2456642572
 30
0.0
 10
43.3495975566
 20
69.3132070353
 30
0.0
  0
SPLINE
  5
283
100
AcDbEntity
  8
0
100
AcDbSpline
 62
7
  6
BYLAYER
 70
0
 71
3
 72
15
 73
11
 74
0
 42
0.0000001
 43
0.0000001
 44
0.0000000001
 40
0.0
 40
0.0
 40
0.0
 40
0.0
 40
0.1141232787
 40
0.2373467935
 40
0.3669716251
 40
0.4999988493
 40
0.6330262331
 40
0.7626515288
 40
0.885875802
 40
1.0
 40
1.0
 40
1.0
 40
1.0
 10
18.3338025535
 20
68.4150029443
 30
0.0
 10
18.2297558691
 20
68.4750729665
 30
0.0
 10
18.0241989032
 20
68.6192214074
 30
0.0
 10
17.7413046389
 20
68.8837930237
 30
0.0
 10
17.480660606
 20
69.1966590157
 30
0.0
 10
17.2519806003
 20
69.5458751202
 30
0.0
 10
17.0638885553
 20
69.9185253859
 30
0.0
 10
16.923258123
 20
70.3006833385
 30
0.0
 10
16.8355766174
 20
70.6779643915
 30
0.0
 10
16.8135166444
 20
70.9280577126
 30
0.0
 10
16.8135166444
 20
71.0482007633
 30
0.0
  0
SPLINE
  5
284
100
AcDbEntity
  8
0
100
AcDbSpline
 62
7
  6
BYLAYER
 70
0
 71
3
 72
15
 73
11
 74
0
 42
0.0000001
 43
0.0000001
 44
0.0000000001
 40
0.0
 40
0.0
 40
0.0
 40
0.0
 40
0.1141232787
 40
0.2373467935
 40
0.3669716251
 40
0.4999988493
 40
0.6330262331
 40
0.7626515288
 40
0.885875802
 40
1.0
 40
1.0
 40
1.0
 40
1.0
 10
43.7897526588
 20
21.0582390964
 30
0.0
 10
43.6857059744
 20
21.1183091186
 30
0.0
 10
43.4801490085
 20
21.2624575595
 30
0.0
 10
43.1972547441
 20
21.5270291758
 30
0.0
 10
42.9366107113
 20
21.8398951678
 30
0.0
 10
42.7079307056
 20
22.1891112723
 30
0.0
 10
42.5198386606
 20
22.561761538
 30
0.0
 10
42.3792082283
 20
22.9439194906
 30
0.0
 10
42.2915267227
 20
23.3212005436
 30
0.0
 10
42.2694667497
 20
23.5712938646
 30
0.0
 10
42.2694667497
 20
23.6914369154
 30
0.0
  0
SPLINE
  5
285
100
AcDbEntity
  8
0
100
AcDbSpline
 62
7
  6
BYLAYER
 70
0
 71
3
 72
14
 73
10
 74
0
 42
0.0000001
 43
0.0000001
 44
0.0000000001
 40
0.0
 40
0.0
 40
0.0
 40
0.0
 40
0.1973037968
 40
0.3202214927
 40
0.4554211492
 40
0.5974306038
 40
0.7396977948
 40
0.8758558119
 40
1.0
 40
1.0
 40
1.0
 40
1.0
 10
56.5435278529
 20
44.5272747384
 30
0.0
 10
56.6038696132
 20
44.5188902568
 30
0.0
 10
56.7063773789
 20
44.5517411435
 30
0.0
 10
56.8195836153
 20
44.6341001491
 30
0.0
 10
56.9058192963
 20
44.7238836092
 30
0.0
 10
56.9796965407
 20
44.8307615651
 30
0.0
 10
57.0370429064
 20
44.9478304768
 30
0.0
 10
57.0736851118
 20
45.0671326324
 30
0.0
 10
57.0833625001
 20
45.147592483
 30
0.0
 10
57.0833625001
 20
45.1859244799
 30
0.0
  0
SPLINE
  5
286
100
AcDbEntity
  8
0
100
AcDbSpline
 62
7
  6
BYLAYER
 70
0
 71
3
 72
11
 73
7
 74
0
 42
0.0000001
 43
0.0000001
 44
0.0000000001
 40
0.0
 40
0.0
 40
0.0
 40
0.0
 40
0.2897033281
 40
0.5490895198
 40
0.7822165953
 40
1.0
 40
1.0
 40
1.0
 40
1.0
 10
42.2694667497
 20
23.6914369154
 30
0.0
 10
42.2694667497
 20
23.8003734258
 30
0.0
 10
42.2859831274
 20
24.0075475807
 30
0.0
 10
42.3698861745
 20
24.2921940127
 30
0.0
 10
42.5111510406
 20
24.5231684951
 30
0.0
 10
42.643841628
 20
24.6347212965
 30
0.0
 10
42.7147628355
 20
24.675667399
 30
0.0
  0
SPLINE
  5
287
100
AcDbEntity
  8
0
100
AcDbSpline
 62
7
  6
BYLAYER
 70
0
 71
3
 72
11
 73
7
 74
0
 42
0.0000001
 43
0.0000001
 44
0.0000000001
 40
0.0
 40
0.0
 40
0.0
 40
0.0
 40
0.2897016594
 40
0.5490895814
 40
0.7822189142
 40
1.0
 40
1.0
 40
1.0
 40
1.0
 10
16.8135166444
 20
48.1861330837
 30
0.0
 10
16.8135166444
 20
48.2950692105
 30
0.0
 10
16.8300328474
 20
48.5022436991
 30
0.0
 10
16.9139316407
 20
48.7868926884
 30
0.0
 10
17.0551996368
 20
49.0178690456
 30
0.0
 10
17.1878935305
 20
49.1294153733
 30
0.0
 10
17.2588110338
 20
49.1703665138
 30
0.0
  0
SPLINE
  5
288
100
AcDbEntity
  8
0
100
AcDbSpline
 62
7
  6
BYLAYER
 70
0
 71
3
 72
11
 73
7
 74
0
 42
0.0000001
 43
0.0000001
 44
0.0000000001
 40
0.0
 40
0.0
 40
0.0
 40
0.0
 40
0.2176899422
 40
0.4508856506
 40
0.7106204681
 40
1.0
 40
1.0
 40
1.0
 40
1.0
 10
57.0505065956
 20
45.3739748738
 30
0.0
 10
57.0669996167
 20
45.3644694802
 30
0.0
 10
57.0978606138
 20
45.3385344634
 30
0.0
 10
57.1307479303
 20
45.2848034674
 30
0.0
 10
57.1501835893
 20
45.2185775159
 30
0.0
 10
57.1540734726
 20
45.1704054378
 30
0.0
 10
57.1540734726
 20
45.1451004045
 30
0.0
  0
SPLINE
  5
289
100
AcDbEntity
  8
0
100
AcDbSpline
 62
7
  6
BYLAYER
 70
0
 71
3
 72
11
 73
7
 74
0
 42
0.0000001
 43
0.0000001
 44
0.0000000001
 40
0.0
 40
0.0
 40
0.0
 40
0.0
 40
0.2750734216
 40
0.533057512
 40
0.7742257027
 40
1.0
 40
1.0
 40
1.0
 40
1.0
 10
50.6818227702
 20
69.4574861102
 30
0.0
 10
51.1104432723
 20
69.2100275462
 30
0.0
 10
51.9183400207
 20
68.6892072667
 30
0.0
 10
52.9982692513
 20
67.8038758657
 30
0.0
 10
53.8933069732
 20
66.8496667114
 30
0.0
 10
54.3726984497
 20
66.1544940887
 30
0.0
 10
54.5731633139
 20
65.8011785271
 30
0.0
  0
SPLINE
  5
28A
100
AcDbEntity
  8
0
100
AcDbSpline
 62
7
  6
BYLAYER
 70
0
 71
3
 72
11
 73
7
 74
0
 42
0.0000001
 43
0.0000001
 44
0.0000000001
 40
0.0
 40
0.0
 40
0.0
 40
0.0
 40
0.2649712638
 40
0.5212004269
 40
0.7667288116
 40
1.0
 40
1.0
 40
1.0
 40
1.0
 10
36.5853010406
 20
76.1862407112
 30
0.0
 10
37.1710067764
 20
76.0754740466
 30
0.0
 10
38.3158241653
 20
75.8164361902
 30
0.0
 10
39.9659664223
 20
75.3082341916
 30
0.0
 10
41.5025584345
 20
74.692253035
 30
0.0
 10
42.4638641644
 20
74.2020193877
 30
0.0
 10
42.9183344806
 20
73.9396367643
 30
0.0
  0
SPLINE
  5
28B
100
AcDbEntity
  8
0
100
AcDbSpline
 62
7
  6
BYLAYER
 70
0
 71
3
 72
10
 73
6
 74
0
 42
0.0000001
 43
0.0000001
 44
0.0000000001
 40
0.0
 40
0.0
 40
0.0
 40
0.0
 40
0.5109108144
 40
0.7571452377
 40
1.0
 40
1.0
 40
1.0
 40
1.0
 10
60.8829538849
 20
54.7907110995
 30
0.0
 10
60.7758022573
 20
54.9731242629
 30
0.0
 10
60.587299755
 20
55.228325473
 30
0.0
 10
60.2832240059
 20
55.5105567979
 30
0.0
 10
60.1179477879
 20
55.6287962373
 30
0.0
 10
60.0325445232
 20
55.6818875914
 30
0.0
  0
SPLINE
  5
28C
100
AcDbEntity
  8
0
100
AcDbSpline
 62
7
  6
BYLAYER
 70
0
 71
3
 72
11
 73
7
 74
0
 42
0.0000001
 43
0.0000001
 44
0.0000000001
 40
0.0
 40
0.0
 40
0.0
 40
0.0
 40
0.2750725406
 40
0.5330563808
 40
0.7742249007
 40
1.0
 40
1.0
 40
1.0
 40
1.0
 10
62.1038003331
 20
49.5925002284
 30
0.0
 10
62.1038003331
 20
50.0874305459
 30
0.0
 10
62.0566951384
 20
51.0475096559
 30
0.0
 10
61.8299246238
 20
52.4254356531
 30
0.0
 10
61.4510584166
 20
53.6776800726
 30
0.0
 10
61.088706725
 20
54.4404408587
 30
0.0
 10
60.8829538849
 20
54.7907110995
 30
0.0
  0
SPLINE
  5
28D
100
AcDbEntity
  8
0
100
AcDbSpline
 62
7
  6
BYLAYER
 70
0
 71
3
 72
11
 73
7
 74
0
 42
0.0000001
 43
0.0000001
 44
0.0000000001
 40
0.0
 40
0.0
 40
0.0
 40
0.0
 40
0.2649706997
 40
0.5211996567
 40
0.7667282233
 40
1.0
 40
1.0
 40
1.0
 40
1.0
 10
60.8829538849
 20
34.0200548593
 30
0.0
 10
61.0798763133
 20
34.5826774297
 30
0.0
 10
61.4279438612
 20
35.703644242
 30
0.0
 10
61.812885923
 20
37.3868211482
 30
0.0
 10
62.0477124779
 20
39.0255513649
 30
0.0
 10
62.1038003331
 20
40.1031911975
 30
0.0
 10
62.1038003331
 20
40.6279693666
 30
0.0
  0
SPLINE
  5
28E
100
AcDbEntity
  8
0
100
AcDbSpline
 62
7
  6
BYLAYER
 70
0
 71
3
 72
11
 73
7
 74
0
 42
0.0000001
 43
0.0000001
 44
0.0000000001
 40
0.0
 40
0.0
 40
0.0
 40
0.0
 40
0.2400272921
 40
0.4917565331
 40
0.747707471
 40
1.0
 40
1.0
 40
1.0
 40
1.0
 10
57.6334570754
 20
29.1719195149
 30
0.0
 10
57.9916271125
 20
29.4789663989
 30
0.0
 10
58.6770621306
 20
30.1658710553
 30
0.0
 10
59.5710045829
 20
31.3370049095
 30
0.0
 10
60.3252907443
 20
32.630485877
 30
0.0
 10
60.7191385455
 20
33.5520217963
 30
0.0
 10
60.8829538849
 20
34.0200548593
 30
0.0
  0
SPLINE
  5
28F
100
AcDbEntity
  8
0
100
AcDbSpline
 62
7
  6
BYLAYER
 70
0
 71
3
 72
10
 73
6
 74
0
 42
0.0000001
 43
0.0000001
 44
0.0000000001
 40
0.0
 40
0.0
 40
0.0
 40
0.0
 40
0.4701823858
 40
0.7282819677
 40
1.0
 40
1.0
 40
1.0
 40
1.0
 10
55.9675860327
 20
28.2101341611
 30
0.0
 10
56.258264854
 20
28.2965901687
 30
0.0
 10
56.6906064728
 20
28.4941826417
 30
0.0
 10
57.2315859372
 20
28.8458305438
 30
0.0
 10
57.5004010253
 20
29.0578551284
 30
0.0
 10
57.6334570754
 20
29.1719195149
 30
0.0
  0
SPLINE
  5
290
100
AcDbEntity
  8
0
100
AcDbSpline
 62
7
  6
BYLAYER
 70
0
 71
3
 72
10
 73
6
 74
0
 42
0.0000001
 43
0.0000001
 44
0.0000000001
 40
0.0
 40
0.0
 40
0.0
 40
0.0
 40
0.2831590534
 40
0.5438268383
 40
1.0
 40
1.0
 40
1.0
 40
1.0
 10
57.0833625001
 20
33.9181911235
 30
0.0
 10
57.0833625001
 20
33.9383684678
 30
0.0
 10
57.0807992242
 20
33.9772391624
 30
0.0
 10
57.0654110457
 20
34.0468671535
 30
0.0
 10
57.0401942377
 20
34.0938009666
 30
0.0
 10
57.0176943466
 20
34.1172614383
 30
0.0
  0
SPLINE
  5
291
100
AcDbEntity
  8
0
100
AcDbSpline
 62
7
  6
BYLAYER
 70
0
 71
3
 72
10
 73
6
 74
0
 42
0.0000001
 43
0.0000001
 44
0.0000000001
 40
0.0
 40
0.0
 40
0.0
 40
0.0
 40
0.2831590534
 40
0.5438268383
 40
1.0
 40
1.0
 40
1.0
 40
1.0
 10
57.0833625001
 20
45.1859244799
 30
0.0
 10
57.0833625001
 20
45.2061018242
 30
0.0
 10
57.0807992242
 20
45.2449725188
 30
0.0
 10
57.0654110457
 20
45.3146005099
 30
0.0
 10
57.0401942377
 20
45.361534323
 30
0.0
 10
57.0176943466
 20
45.3849947947
 30
0.0
  0
SPLINE
  5
292
100
AcDbEntity
  8
0
100
AcDbSpline
 62
7
  6
BYLAYER
 70
0
 71
3
 72
11
 73
7
 74
0
 42
0.0000001
 43
0.0000001
 44
0.0000000001
 40
0.0
 40
0.0
 40
0.0
 40
0.0
 40
0.2400275613
 40
0.4917569984
 40
0.7477078923
 40
1.0
 40
1.0
 40
1.0
 40
1.0
 10
30.7619422497
 20
75.7961403424
 30
0.0
 10
31.2069385319
 20
75.9528007019
 30
0.0
 10
32.1445339034
 20
76.2029526106
 30
0.0
 10
33.6057373218
 20
76.3915663329
 30
0.0
 10
35.1030674091
 20
76.3980640209
 30
0.0
 10
36.0980648555
 20
76.2783851513
 30
0.0
 10
36.5853010406
 20
76.1862407112
 30
0.0
  0
SPLINE
  5
293
100
AcDbEntity
  8
0
100
AcDbSpline
 62
7
  6
BYLAYER
 70
0
 71
3
 72
17
 73
13
 74
0
 42
0.0000001
 43
0.0000001
 44
0.0000000001
 40
0.0
 40
0.0
 40
0.0
 40
0.0
 40
0.1286585904
 40
0.270314267
 40
0.4174301424
 40
0.5617701512
 40
0.6954418627
 40
0.8127138798
 40
0.8646727357
 40
0.912513532
 40
0.9571381545
 40
1.0
 40
1.0
 40
1.0
 40
1.0
 10
57.1540734726
 20
45.1451004045
 30
0.0
 10
57.1540734726
 20
45.1023739617
 30
0.0
 10
57.1420942219
 20
45.0125069638
 30
0.0
 10
57.0975055093
 20
44.8805561078
 30
0.0
 10
57.0287054071
 20
44.7534670731
 30
0.0
 10
56.941356785
 20
44.6416271465
 30
0.0
 10
56.8425075266
 20
44.5540931732
 30
0.0
 10
56.7530490762
 20
44.5051381674
 30
0.0
 10
56.6830527313
 20
44.4865579584
 30
0.0
 10
56.6348882362
 20
44.4829747222
 30
0.0
 10
56.590036656
 20
44.4895840565
 30
0.0
 10
56.5628690248
 20
44.5008742062
 30
0.0
 10
56.5505365124
 20
44.5079817813
 30
0.0
  0
SPLINE
  5
294
100
AcDbEntity
  8
0
100
AcDbSpline
 62
7
  6
BYLAYER
 70
0
 71
3
 72
10
 73
6
 74
0
 42
0.0000001
 43
0.0000001
 44
0.0000000001
 40
0.0
 40
0.0
 40
0.0
 40
0.0
 40
0.4701818743
 40
0.7282816263
 40
1.0
 40
1.0
 40
1.0
 40
1.0
 10
29.0960712071
 20
74.8343549886
 30
0.0
 10
29.316285212
 20
75.0428600793
 30
0.0
 10
29.7035776777
 20
75.3184796527
 30
0.0
 10
30.2786045317
 20
75.6111551506
 30
0.0
 10
30.596631295
 20
75.7379428369
 30
0.0
 10
30.7619422497
 20
75.7961403424
 30
0.0
  0
SPLINE
  5
295
100
AcDbEntity
  8
0
100
AcDbSpline
 62
7
  6
BYLAYER
 70
0
 71
3
 72
17
 73
13
 74
0
 42
0.0000001
 43
0.0000001
 44
0.0000000001
 40
0.0
 40
0.0
 40
0.0
 40
0.0
 40
0.1286585904
 40
0.270314267
 40
0.4174301424
 40
0.5617701512
 40
0.6954418627
 40
0.8127138798
 40
0.8646727357
 40
0.912513532
 40
0.9571381545
 40
1.0
 40
1.0
 40
1.0
 40
1.0
 10
57.1540734726
 20
33.8773670481
 30
0.0
 10
57.1540734726
 20
33.8346406053
 30
0.0
 10
57.1420942219
 20
33.7447736074
 30
0.0
 10
57.0975055093
 20
33.6128227514
 30
0.0
 10
57.0287054071
 20
33.4857337167
 30
0.0
 10
56.941356785
 20
33.3738937901
 30
0.0
 10
56.8425075266
 20
33.2863598168
 30
0.0
 10
56.7530490762
 20
33.237404811
 30
0.0
 10
56.6830527313
 20
33.218824602
 30
0.0
 10
56.6348882362
 20
33.2152413659
 30
0.0
 10
56.590036656
 20
33.2218507001
 30
0.0
 10
56.5628690248
 20
33.2331408498
 30
0.0
 10
56.5505365124
 20
33.2402484249
 30
0.0
  0
ELLIPSE
  5
296
100
AcDbEntity
  8
0
100
AcDbEllipse
 62
7
  6
BYLAYER
 10
56.8712325265
 20
46.4813471357
 30
0.0
 11
2.7629240013
 21
10.3116776478
 31
0.0
 40
0.5176356017
 41
5.1900371808
 42
8.3316298344
  0
ELLIPSE
  5
297
100
AcDbEntity
  8
0
100
AcDbEllipse
 62
7
  6
BYLAYER
 10
45.3711846476
 20
66.399903779
 30
0.0
 11
10.3116399925
 21
-2.7629139119
 31
0.0
 40
0.5176304373
 41
-2.0484567461
 42
1.0931359075
  0
ENDSEC
  0
SECTION
  2
OBJECTS
  0
DICTIONARY
  5
C
100
AcDbDictionary
280
0
281
1
  3
ACAD_GROUP
350
D
  3
ACAD_MLINESTYLE
350
17
  3
ACAD_LAYOUT
350
1A
  3
ACAD_PLOTSETTINGS
350
19
  3
ACAD_PLOTSTYLENAME
350
E
  0
DICTIONARY
  5
D
102
{ACAD_REACTORS
330
C
102
}
100
AcDbDictionary
280
0
281
1
  0
ACDBDICTIONARYWDFLT
  5
E
102
{ACAD_REACTORS
330
C
102
}
100
AcDbDictionary
281
1
  3
Normal
350
F
100
AcDbDictionaryWithDefault
340
F
  0
DICTIONARY
  5
17
102
{ACAD_REACTORS
330
C
102
}
100
AcDbDictionary
280
0
281
1
  3
Standard
350
18
  0
DICTIONARY
  5
19
102
{ACAD_REACTORS
330
C
102
}
100
AcDbDictionary
281
1
  0
DICTIONARY
  5
1A
102
{ACAD_REACTORS
330
C
102
}
100
AcDbDictionary
281
1
  3
Model
350
298
  3
Layout1
350
299
  0
ACDBPLACEHOLDER
  5
F
102
{ACAD_REACTORS
330
E
102
}
  0
MLINESTYLE
  5
18
102
{ACAD_REACTORS
330
17
102
}
100
AcDbMlineStyle
  2
STANDARD
 70
0
  3

 62
256
 51
90.0
 52
90.0
 71
2
 49
0.5
 62
256
  6
BYLAYER
 49
-0.5
 62
256
  6
BYLAYER
  0
LAYOUT
  5
298
102
{ACAD_REACTORS
330
1A
102
}
100
AcDbPlotSettings
  1

  2
none_device
  4

  6

 40
0.0
 41
0.0
 42
0.0
 43
0.0
 44
210.0
 45
297.0
 46
0.0
 47
0.0
 48
0.0
 49
0.0
140
0.0
141
0.0
142
1.0
143
1.0
 70
1024
 72
1
 73
0
 74
0
  7

 75
0
147
1.0
148
0.0
149
0.0
100
AcDbLayout
  1
Model
 70
0
 71
0
 10
0.0
 20
0.0
 11
210.0
 21
297.0
 12
0.0
 22
0.0
 32
0.0
 14
0.0
 24
0.0
 34
0.0
 15
0.0
 25
0.0
 35
0.0
146
0.0
 13
0.0
 23
0.0
 33
0.0
 16
1.0
 26
0.0
 36
0.0
 17
0.0
 27
1.0
 37
0.0
 76
0
330
210
345
0
346
0
  0
LAYOUT
  5
299
102
{ACAD_REACTORS
330
1A
102
}
100
AcDbPlotSettings
  1

  2
none_device
  4

  6

 40
0.0
 41
0.0
 42
0.0
 43
0.0
 44
210.0
 45
297.0
 46
0.0
 47
0.0
 48
0.0
 49
0.0
140
0.0
141
0.0
142
1.0
143
1.0
 70
0
 72
1
 73
0
 74
0
  7

 75
0
147
1.0
148
0.0
149
0.0
100
AcDbLayout
  1
Layout1
 70
0
 71
1
 10
0.0
 20
0.0
 11
210.0
 21
297.0
 12
0.0
 22
0.0
 32
0.0
 14
0.0
 24
0.0
 34
0.0
 15
0.0
 25
0.0
 35
0.0
146
0.0
 13
0.0
 23
0.0
 33
0.0
 16
1.0
 26
0.0
 36
0.0
 17
0.0
 27
1.0
 37
0.0
 76
0
330
211
345
0
346
0
  0
ENDSEC
  0
EOF
