999
DXF file: C:\Users\sesa63760\Dev\_Creo\CAD\MCADID0004762_3D-CAD\drw0001_6.dxf
999
Pro/ENGINEER 2019471 by Parametric Technology Corporation
  0
SECTION
  2
HEADER
  9
$ACADVER
  1
AC1024
  9
$DWGCODEPAGE
  3
ANSI_1252
  9
$EXTMAX
 10
47.6032761634
 20
67.3246334311
 30
0.0
  9
$EXTMIN
 10
0.0
 20
0.0
 30
0.0
  9
$LIMMIN
 10
0.0
 20
0.0
  9
$LIMMAX
 10
47.6032761634
 20
67.3246334311
  9
$VIEWCTR
 10
23.8016380817
 20
33.6623167155
  9
$VIEWSIZE
 40
67.3246334311
  9
$CLAYER
  8
0
  9
$LTSCALE
 40
4.3885686977
  9
$CELTYPE
  6
BYLAYER
  9
$DIMSCALE
 40
1.0
  9
$DIMASZ
 40
0.5667056686
  9
$DIMEXO
 40
1.0
  9
$DIMDLI
 40
3.0321020093
  9
$DIMEXE
 40
1.0
  9
$DIMCEN
 40
0.7181294233
  9
$DIMLFAC
 40
1.0
  9
$DIMBLK
  1
_FILLED
  9
$DIMALT
 70
0
  9
$DIMALTF
 40
0.0393700787
  9
$DIMTXT
 40
0.7933879361
  9
$DIMTOL
 70
1
  9
$DIMLIM
 70
0
  9
$DIMTFAC
 40
1.0
  9
$DIMTP
 40
0.01
  9
$DIMTM
 40
0.01
  9
$DIMGAP
 40
0.625
  9
$DIMDSEP
 70
46
  9
$AUNITS
 70
0
  9
$PDMODE
 70
3
  9
$PDSIZE
 40
0.3125
  9
$HANDSEED
  5
2C8
  9
$TILEMODE
 70
1
  9
$MEASUREMENT
 70
1
  9
$INSUNITS
 70
4
  0
ENDSEC
  0
SECTION
  2
CLASSES
  0
CLASS
  1
ACDBDICTIONARYWDFLT
  2
AcDbDictionaryWithDefault
  3
AutoCAD 2000
 90
0
 91
1
280
0
281
0
  0
CLASS
  1
ACDBPLACEHOLDER
  2
AcDbPlaceHolder
  3
AutoCAD 2000
 90
0
 91
1
280
0
281
0
  0
CLASS
  1
LAYOUT
  2
AcDbLayout
  3
AutoCAD 2000
 90
0
 91
0
280
0
281
0
  0
ENDSEC
  0
SECTION
  2
TABLES
  0
TABLE
  2
VPORT
  5
8
100
AcDbSymbolTable
 70
2
  0
VPORT
  5
1F4
100
AcDbSymbolTableRecord
100
AcDbViewportTableRecord
  2
*ACTIVE
 70
0
 10
0.0
 20
0.0
 11
1.0
 21
1.0
 12
23.8016380817
 22
33.6623167155
 13
0.0
 23
0.0
 14
1.0
 24
1.0
 15
0.0
 25
0.0
 16
0.0
 26
0.0
 36
1.0
 17
0.0
 27
0.0
 37
0.0
 40
67.3246334311
 41
0.7070707071
 42
50.0
 43
0.0
 44
0.0
 50
0.0
 51
0.0
 71
0
 72
100
 73
1
 74
1
 75
0
 76
0
 77
0
 78
0
  0
ENDTAB
  0
TABLE
  2
LTYPE
  5
5
100
AcDbSymbolTable
 70
6
  0
LTYPE
  5
14
100
AcDbSymbolTableRecord
100
AcDbLinetypeTableRecord
  2
BYBLOCK
 70
0
  3

 72
65
 73
0
 40
0.0
  0
LTYPE
  5
15
100
AcDbSymbolTableRecord
100
AcDbLinetypeTableRecord
  2
BYLAYER
 70
0
  3

 72
65
 73
0
 40
0.0
  0
LTYPE
  5
16
100
AcDbSymbolTableRecord
100
AcDbLinetypeTableRecord
  2
CONTINUOUS
 70
64
  3
Solid line
 72
65
 73
0
 40
0.0
  0
LTYPE
  5
1F5
100
AcDbSymbolTableRecord
100
AcDbLinetypeTableRecord
  2
CENTER
 70
64
  3
____ _ ____ _ ____ _ ____ _ ____ _ ____ _ ____
 72
65
 73
4
 40
0.6
 49
0.375
 74
0
 49
-0.075
 74
0
 49
0.075
 74
0
 49
-0.075
 74
0
  0
LTYPE
  5
1F6
100
AcDbSymbolTableRecord
100
AcDbLinetypeTableRecord
  2
HIDDEN
 70
64
  3
- - - - - - - - - - - - - - - - - - - -
 72
65
 73
2
 40
0.2
 49
0.1
 74
0
 49
-0.1
 74
0
  0
LTYPE
  5
1F7
100
AcDbSymbolTableRecord
100
AcDbLinetypeTableRecord
  2
PHANTOM
 70
64
  3
_____ _ _ _____ _ _ _____ _ _ _____
 72
65
 73
6
 40
0.8
 49
0.45
 74
0
 49
-0.05
 74
0
 49
0.1
 74
0
 49
-0.05
 74
0
 49
0.1
 74
0
 49
-0.05
 74
0
  0
LTYPE
  5
1F8
100
AcDbSymbolTableRecord
100
AcDbLinetypeTableRecord
  2
DOT
 70
64
  3
. . . . . . . . . . . . . . . . . . . .
 72
65
 73
2
 40
0.2
 49
0.1
 74
0
 49
-0.1
 74
0
  0
LTYPE
  5
1F9
100
AcDbSymbolTableRecord
100
AcDbLinetypeTableRecord
  2
DASHED
 70
64
  3
- - - - - - - - - - - - - - - - - - - -
 72
65
 73
2
 40
0.2
 49
0.1
 74
0
 49
-0.1
 74
0
  0
ENDTAB
  0
TABLE
  2
LAYER
  5
2
100
AcDbSymbolTable
 70
36
  0
LAYER
  5
10
100
AcDbSymbolTableRecord
100
AcDbLayerTableRecord
  2
0
 70
0
 62
7
  6
CONTINUOUS
370
-3
390
F
  0
LAYER
  5
1FA
100
AcDbSymbolTableRecord
100
AcDbLayerTableRecord
  2
DEFAULT_1
 70
0
 62
7
  6
CENTER
370
-3
390
F
  0
LAYER
  5
1FB
100
AcDbSymbolTableRecord
100
AcDbLayerTableRecord
  2
DEFAULT_2
 70
0
 62
7
  6
HIDDEN
370
-3
390
F
  0
LAYER
  5
1FC
100
AcDbSymbolTableRecord
100
AcDbLayerTableRecord
  2
DEFAULT_3
 70
0
 62
7
  6
PHANTOM
370
-3
390
F
  0
LAYER
  5
1FD
100
AcDbSymbolTableRecord
100
AcDbLayerTableRecord
  2
00_COMPONENTS
 70
0
 62
7
  6
CONTINUOUS
370
-3
390
F
  0
LAYER
  5
1FE
100
AcDbSymbolTableRecord
100
AcDbLayerTableRecord
  2
01_1_DEFAULT_DATUMS
 70
0
 62
7
  6
CONTINUOUS
370
-3
390
F
  0
LAYER
  5
1FF
100
AcDbSymbolTableRecord
100
AcDbLayerTableRecord
  2
01_PLANES
 70
0
 62
7
  6
CONTINUOUS
370
-3
390
F
  0
LAYER
  5
200
100
AcDbSymbolTableRecord
100
AcDbLayerTableRecord
  2
02_COORD_SYS
 70
0
 62
7
  6
CONTINUOUS
370
-3
390
F
  0
LAYER
  5
201
100
AcDbSymbolTableRecord
100
AcDbLayerTableRecord
  2
03_AXES
 70
0
 62
7
  6
CONTINUOUS
370
-3
390
F
  0
LAYER
  5
202
100
AcDbSymbolTableRecord
100
AcDbLayerTableRecord
  2
04_POINTS
 70
0
 62
7
  6
CONTINUOUS
370
-3
390
F
  0
LAYER
  5
203
100
AcDbSymbolTableRecord
100
AcDbLayerTableRecord
  2
05_CURVES
 70
0
 62
7
  6
CONTINUOUS
370
-3
390
F
  0
LAYER
  5
204
100
AcDbSymbolTableRecord
100
AcDbLayerTableRecord
  2
06_SURFS
 70
0
 62
7
  6
CONTINUOUS
370
-3
390
F
  0
LAYER
  5
205
100
AcDbSymbolTableRecord
100
AcDbLayerTableRecord
  2
07_COSMETICS
 70
0
 62
7
  6
CONTINUOUS
370
-3
390
F
  0
LAYER
  5
206
100
AcDbSymbolTableRecord
100
AcDbLayerTableRecord
  2
10_NOTES
 70
0
 62
7
  6
CONTINUOUS
370
-3
390
F
  0
LAYER
  5
207
100
AcDbSymbolTableRecord
100
AcDbLayerTableRecord
  2
11_NOTES_PUB
 70
0
 62
7
  6
CONTINUOUS
370
-3
390
F
  0
LAYER
  5
208
100
AcDbSymbolTableRecord
100
AcDbLayerTableRecord
  2
13_REF_GTOL
 70
0
 62
7
  6
CONTINUOUS
370
-3
390
F
  0
LAYER
  5
209
100
AcDbSymbolTableRecord
100
AcDbLayerTableRecord
  2
16_MISC
 70
0
 62
7
  6
CONTINUOUS
370
-3
390
F
  0
LAYER
  5
20A
100
AcDbSymbolTableRecord
100
AcDbLayerTableRecord
  2
17_NO_PRINT
 70
0
 62
7
  6
CONTINUOUS
370
-3
390
F
  0
LAYER
  5
20B
100
AcDbSymbolTableRecord
100
AcDbLayerTableRecord
  2
18_DATUM_CAMS_JOINTS
 70
0
 62
7
  6
CONTINUOUS
370
-3
390
F
  0
LAYER
  5
20C
100
AcDbSymbolTableRecord
100
AcDbLayerTableRecord
  2
19_DATUM_FUNCTIONAL
 70
0
 62
7
  6
CONTINUOUS
370
-3
390
F
  0
LAYER
  5
20D
100
AcDbSymbolTableRecord
100
AcDbLayerTableRecord
  2
20_DATUM_KINEMATIC_SCHEME
 70
0
 62
7
  6
CONTINUOUS
370
-3
390
F
  0
ENDTAB
  0
TABLE
  2
STYLE
  5
3
100
AcDbSymbolTable
 70
1
  0
STYLE
  5
11
100
AcDbSymbolTableRecord
100
AcDbTextStyleTableRecord
  2
STANDARD
 70
0
 40
0.0
 41
1.0
 50
0.0
 71
0
 42
0.2
  3
ARIAL.TTF
  4

  0
STYLE
  5
20E
100
AcDbSymbolTableRecord
100
AcDbTextStyleTableRecord
  2
TEXTSTYLE_1
 70
0
 40
0.0
 41
0.8
 50
0.0
 71
0
 42
0.2
  3
gdt
  4

  0
ENDTAB
  0
TABLE
  2
VIEW
  5
6
100
AcDbSymbolTable
 70
0
  0
ENDTAB
  0
TABLE
  2
UCS
  5
7
100
AcDbSymbolTable
 70
0
  0
ENDTAB
  0
TABLE
  2
APPID
  5
9
100
AcDbSymbolTable
 70
1
  0
APPID
  5
20F
100
AcDbSymbolTableRecord
100
AcDbRegAppTableRecord
  2
ACAD
 70
0
  0
ENDTAB
  0
TABLE
  2
BLOCK_RECORD
  5
1
100
AcDbSymbolTable
 70
0
  0
BLOCK_RECORD
  5
210
100
AcDbSymbolTableRecord
100
AcDbBlockTableRecord
  2
*Model_Space
  0
BLOCK_RECORD
  5
211
100
AcDbSymbolTableRecord
100
AcDbBlockTableRecord
  2
*Paper_Space
  0
BLOCK_RECORD
  5
212
100
AcDbSymbolTableRecord
100
AcDbBlockTableRecord
  2
_FILLED
  0
ENDTAB
  0
TABLE
  2
DIMSTYLE
  5
A
100
AcDbSymbolTable
 70
1
100
AcDbDimStyleTable
 71
0
  0
DIMSTYLE
105
213
100
AcDbSymbolTableRecord
100
AcDbDimStyleTableRecord
  2
STANDARD
 70
0
  3

  4

 40
1.0
 41
0.5667056686
 42
1.0
 43
0.38
 44
1.0
 45
0.0
 46
0.0
 47
0.01
 48
0.01
140
0.7933879361
141
0.09
142
0.0
143
25.4
144
1.0
145
0.0
146
1.0
147
0.625
 71
1
 72
0
 73
0
 74
0
 75
0
 76
0
 77
1
 78
8
 79
2
170
0
171
1
172
0
173
0
174
0
175
0
176
0
177
0
178
0
270
2
179
2
271
2
272
2
273
2
274
2
275
0
280
0
281
0
282
0
283
1
284
8
285
0
286
0
287
3
288
0
340
11
278
46
341
212
342
212
343
212
344
212
  0
ENDTAB
  0
ENDSEC
  0
SECTION
  2
BLOCKS
  0
BLOCK
  5
20
100
AcDbEntity
  8
0
100
AcDbBlockBegin
  2
*Model_Space
 70
0
 10
0.0
 20
0.0
 30
0.0
  3
*Model_Space
  1

  0
ENDBLK
  5
21
100
AcDbEntity
  8
0
100
AcDbBlockEnd
  0
BLOCK
  5
1C
100
AcDbEntity
  8
0
100
AcDbBlockBegin
  2
*Paper_Space
 70
0
 10
0.0
 20
0.0
 30
0.0
  3
*Paper_Space
  1

  0
ENDBLK
  5
1D
100
AcDbEntity
  8
0
100
AcDbBlockEnd
  0
BLOCK
  5
214
100
AcDbEntity
  8
0
100
AcDbBlockBegin
  2
_FILLED
 70
64
 10
0.0
 20
0.0
  3
_FILLED
  1

  0
SOLID
  5
215
100
AcDbEntity
  8
0
  6
BYBLOCK
 62
0
100
AcDbTrace
 10
0.0
 20
0.0
 11
-1.0
 21
0.25
 12
-1.0
 22
-0.25
 13
-1.0
 23
-0.25
  0
ENDBLK
  5
216
100
AcDbEntity
  8
0
  6
BYBLOCK
 62
0
100
AcDbBlockEnd
  0
ENDSEC
  0
SECTION
  2
ENTITIES
  0
LINE
  5
217
100
AcDbEntity
  8
0
100
AcDbLine
 62
7
  6
BYLAYER
 10
18.813662207
 20
5.5623167155
 11
16.813662207
 21
5.5623167155
  0
LINE
  5
218
100
AcDbEntity
  8
0
100
AcDbLine
 62
7
  6
BYLAYER
 10
15.813662207
 20
5.5623167155
 11
13.813662207
 21
5.5623167155
  0
LINE
  5
219
100
AcDbEntity
  8
0
100
AcDbLine
 62
7
  6
BYLAYER
 10
19.313662207
 20
6.0623167155
 11
16.813662207
 21
6.0623167155
  0
LINE
  5
21A
100
AcDbEntity
  8
0
100
AcDbLine
 62
7
  6
BYLAYER
 10
15.813662207
 20
6.0623167155
 11
13.313662207
 21
6.0623167155
  0
LINE
  5
21B
100
AcDbEntity
  8
0
100
AcDbLine
 62
7
  6
BYLAYER
 10
16.813662207
 20
6.7623167155
 11
15.813662207
 21
6.7623167155
  0
LINE
  5
21C
100
AcDbEntity
  8
0
100
AcDbLine
 62
7
  6
BYLAYER
 10
21.013662207
 20
6.9123167155
 11
11.613662207
 21
6.9123167155
  0
LINE
  5
21D
100
AcDbEntity
  8
0
100
AcDbLine
 62
7
  6
BYLAYER
 10
11.613662207
 20
6.9123167155
 11
10.813662207
 21
7.7123167155
  0
LINE
  5
21E
100
AcDbEntity
  8
0
100
AcDbLine
 62
7
  6
BYLAYER
 10
13.313662207
 20
6.0623167155
 11
13.813662207
 21
5.5623167155
  0
LINE
  5
21F
100
AcDbEntity
  8
0
100
AcDbLine
 62
7
  6
BYLAYER
 10
19.1280119869
 20
7.7123167155
 11
18.9988065234
 21
7.7123167155
  0
LINE
  5
220
100
AcDbEntity
  8
0
100
AcDbLine
 62
7
  6
BYLAYER
 10
13.6285178906
 20
7.7123167155
 11
13.499312427
 21
7.7123167155
  0
LINE
  5
221
100
AcDbEntity
  8
0
100
AcDbLine
 62
7
  6
BYLAYER
 10
13.499312427
 20
11.1123167155
 11
13.6285178906
 21
11.1123167155
  0
LINE
  5
222
100
AcDbEntity
  8
0
100
AcDbLine
 62
7
  6
BYLAYER
 10
18.9988065234
 20
11.1123167155
 11
19.1280119869
 21
11.1123167155
  0
LINE
  5
223
100
AcDbEntity
  8
0
100
AcDbLine
 62
7
  6
BYLAYER
 10
11.613662207
 20
11.9123167155
 11
21.013662207
 21
11.9123167155
  0
LINE
  5
224
100
AcDbEntity
  8
0
100
AcDbLine
 62
7
  6
BYLAYER
 10
5.813662207
 20
60.5132076681
 11
5.813662207
 21
35.5243473275
  0
LINE
  5
225
100
AcDbEntity
  8
0
100
AcDbLine
 62
7
  6
BYLAYER
 10
21.013662207
 20
11.9123167155
 11
21.813662207
 21
11.1123167155
  0
LINE
  5
226
100
AcDbEntity
  8
0
100
AcDbLine
 62
7
  6
BYLAYER
 10
6.7874852587
 20
43.3148342385
 11
6.7874852587
 21
53.2097991925
  0
LINE
  5
227
100
AcDbEntity
  8
0
100
AcDbLine
 62
7
  6
BYLAYER
 10
6.7962099122
 20
38.3155022484
 11
6.7962098028
 21
35.5114828703
  0
LINE
  5
228
100
AcDbEntity
  8
0
100
AcDbLine
 62
7
  6
BYLAYER
 10
6.7962098005
 20
60.5132076667
 11
6.7962099124
 21
58.2091312915
  0
LINE
  5
229
100
AcDbEntity
  8
0
100
AcDbLine
 62
7
  6
BYLAYER
 10
7.563662207
 20
22.4623167155
 11
7.563662207
 21
34.7966055473
  0
LINE
  5
22A
100
AcDbEntity
  8
0
100
AcDbLine
 62
7
  6
BYLAYER
 10
23.313662207
 20
17.6623167155
 11
9.313662207
 21
17.6623167155
  0
LINE
  5
22B
100
AcDbEntity
  8
0
100
AcDbLine
 62
7
  6
BYLAYER
 10
23.813662207
 20
17.9623167155
 11
22.2682906589
 21
17.9623167155
  0
LWPOLYLINE
  5
22C
100
AcDbEntity
  8
0
100
AcDbPolyline
 62
7
  6
BYLAYER
 90
3
 70
0
 10
9.6185982418
 20
41.0944013281
 10
9.6182226329
 20
41.9612969867
 10
9.6171528462
 20
42.2657467992
  0
LINE
  5
22D
100
AcDbEntity
  8
0
100
AcDbLine
 62
7
  6
BYLAYER
 10
9.313662207
 20
17.6623167155
 11
9.313662207
 21
20.7623167155
  0
LINE
  5
22E
100
AcDbEntity
  8
0
100
AcDbLine
 62
7
  6
BYLAYER
 10
9.3854589767
 20
19.9623167155
 11
9.3854589767
 21
20.7623167155
  0
LINE
  5
22F
100
AcDbEntity
  8
0
100
AcDbLine
 62
7
  6
BYLAYER
 10
9.6171282438
 20
35.3790368546
 11
9.6171528904
 21
42.2657467995
  0
LINE
  5
230
100
AcDbEntity
  8
0
100
AcDbLine
 62
7
  6
BYLAYER
 10
9.6171528541
 20
54.258886632
 11
9.6171526883
 21
60.5870766566
  0
LINE
  5
231
100
AcDbEntity
  8
0
100
AcDbLine
 62
7
  6
BYLAYER
 10
9.813662207
 20
35.4196036412
 11
9.813662207
 21
42.183271979
  0
LINE
  5
232
100
AcDbEntity
  8
0
100
AcDbLine
 62
7
  6
BYLAYER
 10
9.813662207
 20
54.3413596114
 11
9.813662207
 21
61.1050297899
  0
LINE
  5
233
100
AcDbEntity
  8
0
100
AcDbLine
 62
7
  6
BYLAYER
 10
10.3005737328
 20
60.6052011274
 11
10.3005725839
 21
54.3413518752
  0
LINE
  5
234
100
AcDbEntity
  8
0
100
AcDbLine
 62
7
  6
BYLAYER
 10
10.3005725839
 20
42.1832815536
 11
10.3005737328
 21
35.9194323046
  0
LINE
  5
235
100
AcDbEntity
  8
0
100
AcDbLine
 62
7
  6
BYLAYER
 10
10.8141681106
 20
7.7123167155
 11
10.8141681106
 21
11.1123167155
  0
LINE
  5
236
100
AcDbEntity
  8
0
100
AcDbLine
 62
7
  6
BYLAYER
 10
9.6171527297
 20
38.2663092645
 11
9.6185982418
 21
41.0944013281
  0
LWPOLYLINE
  5
237
100
AcDbEntity
  8
0
100
AcDbPolyline
 62
7
  6
BYLAYER
 90
4
 70
0
 10
9.6171528541
 20
54.258886632
 10
9.6182226383
 20
54.5633366947
 10
9.6185982435
 20
55.4302327211
 10
9.6171527249
 20
58.2583242209
  0
LINE
  5
238
100
AcDbEntity
  8
0
100
AcDbLine
 62
7
  6
BYLAYER
 10
9.3854589767
 20
19.9623167155
 11
15.313662207
 21
19.9623167155
  0
LINE
  5
239
100
AcDbEntity
  8
0
100
AcDbLine
 62
7
  6
BYLAYER
 10
17.313662207
 20
19.9623167155
 11
23.813662207
 21
19.9623167155
  0
LINE
  5
23A
100
AcDbEntity
  8
0
100
AcDbLine
 62
7
  6
BYLAYER
 10
11.312662307
 20
20.7623167155
 11
11.312662307
 21
19.9623167155
  0
LINE
  5
23B
100
AcDbEntity
  8
0
100
AcDbLine
 62
7
  6
BYLAYER
 10
11.313662207
 20
21.4623167155
 11
11.313662207
 21
20.7623167155
  0
LINE
  5
23C
100
AcDbEntity
  8
0
100
AcDbLine
 62
7
  6
BYLAYER
 10
13.313662207
 20
6.0623167155
 11
13.313662207
 21
6.9123167155
  0
LINE
  5
23D
100
AcDbEntity
  8
0
100
AcDbLine
 62
7
  6
BYLAYER
 10
13.313662207
 20
11.9123167155
 11
13.313662207
 21
17.6623167155
  0
LINE
  5
23E
100
AcDbEntity
  8
0
100
AcDbLine
 62
7
  6
BYLAYER
 10
9.313662207
 20
20.7623167155
 11
11.312662307
 21
20.7623167155
  0
LINE
  5
23F
100
AcDbEntity
  8
0
100
AcDbLine
 62
7
  6
BYLAYER
 10
15.313662207
 20
20.7623167155
 11
17.313662207
 21
20.7623167155
  0
LINE
  5
240
100
AcDbEntity
  8
0
100
AcDbLine
 62
7
  6
BYLAYER
 10
21.314662107
 20
20.7623167155
 11
23.313662207
 21
20.7623167155
  0
LINE
  5
241
100
AcDbEntity
  8
0
100
AcDbLine
 62
7
  6
BYLAYER
 10
24.0636614288
 20
21.4623167155
 11
8.5641071994
 21
21.4623167155
  0
LINE
  5
242
100
AcDbEntity
  8
0
100
AcDbLine
 62
7
  6
BYLAYER
 10
25.063662207
 20
22.4623167155
 11
7.5641637392
 21
22.4623167155
  0
LINE
  5
243
100
AcDbEntity
  8
0
100
AcDbLine
 62
7
  6
BYLAYER
 10
13.499312427
 20
11.1123167155
 11
13.499312427
 21
7.7123167155
  0
LINE
  5
244
100
AcDbEntity
  8
0
100
AcDbLine
 62
7
  6
BYLAYER
 10
13.6285178906
 20
7.7123167155
 11
13.6285178906
 21
11.1123167155
  0
LINE
  5
245
100
AcDbEntity
  8
0
100
AcDbLine
 62
7
  6
BYLAYER
 10
15.313662207
 20
20.7623167155
 11
15.313662207
 21
19.9623167155
  0
LINE
  5
246
100
AcDbEntity
  8
0
100
AcDbLine
 62
7
  6
BYLAYER
 10
16.3238987283
 20
34.5625232932
 11
16.3136621257
 21
34.7623832934
  0
LINE
  5
247
100
AcDbEntity
  8
0
100
AcDbLine
 62
7
  6
BYLAYER
 10
15.813662207
 20
5.5623167155
 11
15.813662207
 21
6.7623167155
  0
LINE
  5
248
100
AcDbEntity
  8
0
100
AcDbLine
 62
7
  6
BYLAYER
 10
16.3136620746
 20
61.7623167121
 11
16.3136623394
 21
34.762316719
  0
LINE
  5
249
100
AcDbEntity
  8
0
100
AcDbLine
 62
7
  6
BYLAYER
 10
16.813662207
 20
6.7623167155
 11
16.813662207
 21
5.5623167155
  0
LINE
  5
24A
100
AcDbEntity
  8
0
100
AcDbLine
 62
7
  6
BYLAYER
 10
17.313662207
 20
19.9623167155
 11
17.313662207
 21
20.7623167155
  0
LINE
  5
24B
100
AcDbEntity
  8
0
100
AcDbLine
 62
7
  6
BYLAYER
 10
16.3136621257
 20
34.7623832934
 11
16.3034253606
 21
34.5625214211
  0
LINE
  5
24C
100
AcDbEntity
  8
0
100
AcDbLine
 62
7
  6
BYLAYER
 10
18.9988065234
 20
11.1123167155
 11
18.9988065234
 21
7.7123167155
  0
LINE
  5
24D
100
AcDbEntity
  8
0
100
AcDbLine
 62
7
  6
BYLAYER
 10
19.1280119869
 20
7.7123167155
 11
19.1280119869
 21
11.1123167155
  0
LINE
  5
24E
100
AcDbEntity
  8
0
100
AcDbLine
 62
7
  6
BYLAYER
 10
19.313662207
 20
6.0623167155
 11
19.313662207
 21
6.9123167155
  0
LINE
  5
24F
100
AcDbEntity
  8
0
100
AcDbLine
 62
7
  6
BYLAYER
 10
19.313662207
 20
11.9123167155
 11
19.313662207
 21
17.6623167155
  0
LWPOLYLINE
  5
250
100
AcDbEntity
  8
0
100
AcDbPolyline
 62
7
  6
BYLAYER
 90
4
 70
0
 10
7.3688846802
 20
34.9965439579
 10
7.5066773868
 20
34.9364223205
 10
7.5487283072
 20
34.8724463891
 10
7.5636630032
 20
34.7966121376
  0
LINE
  5
251
100
AcDbEntity
  8
0
100
AcDbLine
 62
7
  6
BYLAYER
 10
21.313662207
 20
21.4623167155
 11
21.313662207
 21
20.7623167155
  0
LINE
  5
252
100
AcDbEntity
  8
0
100
AcDbLine
 62
7
  6
BYLAYER
 10
21.314662107
 20
19.9623167155
 11
21.314662107
 21
20.7623167155
  0
LINE
  5
253
100
AcDbEntity
  8
0
100
AcDbLine
 62
7
  6
BYLAYER
 10
21.8131563033
 20
11.1123167155
 11
21.8131563033
 21
7.7123167155
  0
LINE
  5
254
100
AcDbEntity
  8
0
100
AcDbLine
 62
7
  6
BYLAYER
 10
22.2682906589
 20
17.9623167155
 11
22.2682906589
 21
19.9623167155
  0
LINE
  5
255
100
AcDbEntity
  8
0
100
AcDbLine
 62
7
  6
BYLAYER
 10
22.7014847505
 20
19.9623167155
 11
22.7014847505
 21
17.9623167155
  0
LINE
  5
256
100
AcDbEntity
  8
0
100
AcDbLine
 62
7
  6
BYLAYER
 10
23.2418654372
 20
20.7623167155
 11
23.2418654372
 21
19.9623167155
  0
LINE
  5
257
100
AcDbEntity
  8
0
100
AcDbLine
 62
7
  6
BYLAYER
 10
23.313662207
 20
20.7623167155
 11
23.313662207
 21
19.9623167155
  0
LINE
  5
258
100
AcDbEntity
  8
0
100
AcDbLine
 62
7
  6
BYLAYER
 10
23.313662207
 20
17.9623167155
 11
23.313662207
 21
17.6623167155
  0
LINE
  5
259
100
AcDbEntity
  8
0
100
AcDbLine
 62
7
  6
BYLAYER
 10
23.813662207
 20
19.9623167155
 11
23.813662207
 21
17.9623167155
  0
LINE
  5
25A
100
AcDbEntity
  8
0
100
AcDbLine
 62
7
  6
BYLAYER
 10
25.063662207
 20
22.4623167155
 11
25.063662207
 21
34.7966062479
  0
LWPOLYLINE
  5
25B
100
AcDbEntity
  8
0
100
AcDbPolyline
 62
7
  6
BYLAYER
 90
4
 70
0
 10
25.0636614108
 20
34.7966121376
 10
25.0786244035
 20
34.8725154077
 10
25.1206039319
 20
34.9363782239
 10
25.2582070199
 20
34.9965377445
  0
LINE
  5
25C
100
AcDbEntity
  8
0
100
AcDbLine
 62
7
  6
BYLAYER
 10
25.063662207
 20
34.7966062479
 11
16.3238265282
 21
34.5625213462
  0
LINE
  5
25D
100
AcDbEntity
  8
0
100
AcDbLine
 62
7
  6
BYLAYER
 10
31.813662207
 20
35.1681984999
 11
16.313662207
 21
34.7623167155
  0
LINE
  5
25E
100
AcDbEntity
  8
0
100
AcDbLine
 62
7
  6
BYLAYER
 10
16.313662207
 20
35.7619740405
 11
31.813662207
 21
36.1678558248
  0
LINE
  5
25F
100
AcDbEntity
  8
0
100
AcDbLine
 62
7
  6
BYLAYER
 10
10.3005731584
 20
35.9194323045
 11
9.813662207
 21
35.9194323045
  0
LINE
  5
260
100
AcDbEntity
  8
0
100
AcDbLine
 62
7
  6
BYLAYER
 10
31.813662207
 20
36.0476223505
 11
32.413662207
 21
36.0476223505
  0
LINE
  5
261
100
AcDbEntity
  8
0
100
AcDbLine
 62
7
  6
BYLAYER
 10
6.7962098575
 20
35.5114824953
 11
5.8136622068
 21
35.524347396
  0
LINE
  5
262
100
AcDbEntity
  8
0
100
AcDbLine
 62
7
  6
BYLAYER
 10
16.313662207
 20
34.7623167155
 11
10.3005737328
 21
34.9197749787
  0
LINE
  5
263
100
AcDbEntity
  8
0
100
AcDbLine
 62
7
  6
BYLAYER
 10
9.2507610218
 20
34.947265292
 11
6.3005737328
 21
35.024518665
  0
LINE
  5
264
100
AcDbEntity
  8
0
100
AcDbLine
 62
7
  6
BYLAYER
 10
6.7962098028
 20
35.5114828703
 11
9.2551064562
 21
35.4470943675
  0
LINE
  5
265
100
AcDbEntity
  8
0
100
AcDbLine
 62
7
  6
BYLAYER
 10
10.3005737328
 20
35.9194323046
 11
16.313662207
 21
35.7619740405
  0
LINE
  5
266
100
AcDbEntity
  8
0
100
AcDbLine
 62
7
  6
BYLAYER
 10
16.3033529202
 20
34.5625233502
 11
7.563662207
 21
34.7966055473
  0
LINE
  5
267
100
AcDbEntity
  8
0
100
AcDbLine
 62
7
  6
BYLAYER
 10
38.7636500045
 20
37.9623167155
 11
32.413662207
 21
37.9623167155
  0
LINE
  5
268
100
AcDbEntity
  8
0
100
AcDbLine
 62
7
  6
BYLAYER
 10
9.6171526883
 20
38.2663560213
 11
9.8136622061
 21
38.2663560213
  0
LINE
  5
269
100
AcDbEntity
  8
0
100
AcDbLine
 62
7
  6
BYLAYER
 10
5.813662207
 20
38.3155957363
 11
6.7962098575
 21
38.3155957363
  0
LINE
  5
26A
100
AcDbEntity
  8
0
100
AcDbLine
 62
7
  6
BYLAYER
 10
9.6171526883
 20
38.2663560213
 11
6.7962099122
 21
38.3155022484
  0
LINE
  5
26B
100
AcDbEntity
  8
0
100
AcDbLine
 62
7
  6
BYLAYER
 10
11.613662207
 20
11.9123167155
 11
10.813662207
 21
11.1123167155
  0
LINE
  5
26C
100
AcDbEntity
  8
0
100
AcDbLine
 62
7
  6
BYLAYER
 10
32.413662207
 20
38.4971120933
 11
31.813662207
 21
38.4971120933
  0
LINE
  5
26D
100
AcDbEntity
  8
0
100
AcDbLine
 62
7
  6
BYLAYER
 10
39.8136522847
 20
39.0123167155
 11
41.013662207
 21
39.0123167155
  0
LINE
  5
26E
100
AcDbEntity
  8
0
100
AcDbLine
 62
7
  6
BYLAYER
 10
31.813662207
 20
35.1681984999
 11
31.813662207
 21
61.3564349312
  0
LINE
  5
26F
100
AcDbEntity
  8
0
100
AcDbLine
 62
7
  6
BYLAYER
 10
32.413662207
 20
60.4770110806
 11
32.413662207
 21
54.3172492237
  0
LINE
  5
270
100
AcDbEntity
  8
0
100
AcDbLine
 62
7
  6
BYLAYER
 10
32.413662207
 20
42.2073842074
 11
32.413662207
 21
36.0476223505
  0
LINE
  5
271
100
AcDbEntity
  8
0
100
AcDbLine
 62
7
  6
BYLAYER
 10
39.8136522847
 20
39.0123167155
 11
38.7636505814
 21
37.9623161386
  0
LINE
  5
272
100
AcDbEntity
  8
0
100
AcDbLine
 62
7
  6
BYLAYER
 10
41.013662207
 20
41.0528065325
 11
42.613662207
 21
41.0528065325
  0
LINE
  5
273
100
AcDbEntity
  8
0
100
AcDbLine
 62
7
  6
BYLAYER
 10
10.3005731584
 20
42.183293671
 11
9.813662207
 21
42.183293671
  0
LINE
  5
274
100
AcDbEntity
  8
0
100
AcDbLine
 62
7
  6
BYLAYER
 10
31.813662207
 20
42.2073842074
 11
32.413662207
 21
42.2073842074
  0
LINE
  5
275
100
AcDbEntity
  8
0
100
AcDbLine
 62
7
  6
BYLAYER
 10
42.613662207
 20
42.4670200949
 11
41.013662207
 21
42.4670200949
  0
LINE
  5
276
100
AcDbEntity
  8
0
100
AcDbLine
 62
7
  6
BYLAYER
 10
9.6171526883
 20
42.265746802
 11
6.7962098005
 21
42.3149865432
  0
LINE
  5
277
100
AcDbEntity
  8
0
100
AcDbLine
 62
7
  6
BYLAYER
 10
6.7874852587
 20
43.3148342384
 11
5.813662207
 21
43.3148342384
  0
LINE
  5
278
100
AcDbEntity
  8
0
100
AcDbLine
 62
7
  6
BYLAYER
 10
42.613662207
 20
43.6130896292
 11
41.013662207
 21
43.6130896292
  0
LINE
  5
279
100
AcDbEntity
  8
0
100
AcDbLine
 62
7
  6
BYLAYER
 10
6.7874852587
 20
43.3148342385
 11
9.6188976536
 21
43.2654128786
  0
LINE
  5
27A
100
AcDbEntity
  8
0
100
AcDbLine
 62
7
  6
BYLAYER
 10
38.7636500045
 20
58.5623167155
 11
38.7636500045
 21
37.9623167155
  0
LINE
  5
27B
100
AcDbEntity
  8
0
100
AcDbLine
 62
7
  6
BYLAYER
 10
39.8136522847
 20
39.0123167155
 11
39.8136522847
 21
57.5123167155
  0
LINE
  5
27C
100
AcDbEntity
  8
0
100
AcDbLine
 62
7
  6
BYLAYER
 10
41.013662207
 20
57.5123167155
 11
41.013662207
 21
55.4718268985
  0
LINE
  5
27D
100
AcDbEntity
  8
0
100
AcDbLine
 62
7
  6
BYLAYER
 10
41.013662207
 20
54.0576133362
 11
41.013662207
 21
42.4670200949
  0
LINE
  5
27E
100
AcDbEntity
  8
0
100
AcDbLine
 62
7
  6
BYLAYER
 10
41.013662207
 20
41.0528065325
 11
41.013662207
 21
39.0123167155
  0
LINE
  5
27F
100
AcDbEntity
  8
0
100
AcDbLine
 62
7
  6
BYLAYER
 10
19.313662207
 20
6.0623167155
 11
18.813662207
 21
5.5623167155
  0
LINE
  5
280
100
AcDbEntity
  8
0
100
AcDbLine
 62
7
  6
BYLAYER
 10
21.013662207
 20
6.9123167155
 11
21.813662207
 21
7.7123167155
  0
LINE
  5
281
100
AcDbEntity
  8
0
100
AcDbLine
 62
7
  6
BYLAYER
 10
42.613662207
 20
55.4718268985
 11
42.613662207
 21
52.9115438018
  0
LINE
  5
282
100
AcDbEntity
  8
0
100
AcDbLine
 62
7
  6
BYLAYER
 10
42.613662207
 20
43.6130896292
 11
42.613662207
 21
41.0528065325
  0
LINE
  5
283
100
AcDbEntity
  8
0
100
AcDbLine
 62
7
  6
BYLAYER
 10
9.6188977351
 20
53.259220554
 11
6.7874852587
 21
53.2097991925
  0
LINE
  5
284
100
AcDbEntity
  8
0
100
AcDbLine
 62
7
  6
BYLAYER
 10
42.613662207
 20
52.9115438018
 11
41.013662207
 21
52.9115438018
  0
LINE
  5
285
100
AcDbEntity
  8
0
100
AcDbLine
 62
7
  6
BYLAYER
 10
5.813662207
 20
53.2097991927
 11
6.7874852587
 21
53.2097991927
  0
LINE
  5
286
100
AcDbEntity
  8
0
100
AcDbLine
 62
7
  6
BYLAYER
 10
41.013662207
 20
54.0576133362
 11
42.613662207
 21
54.0576133362
  0
LINE
  5
287
100
AcDbEntity
  8
0
100
AcDbLine
 62
7
  6
BYLAYER
 10
6.7962098005
 20
54.2096468879
 11
9.6171526883
 21
54.2588866291
  0
LINE
  5
288
100
AcDbEntity
  8
0
100
AcDbLine
 62
7
  6
BYLAYER
 10
32.413662207
 20
54.3172492237
 11
31.813662207
 21
54.3172492237
  0
LINE
  5
289
100
AcDbEntity
  8
0
100
AcDbLine
 62
7
  6
BYLAYER
 10
10.3005731583
 20
54.3413538835
 11
9.813662207
 21
54.3413538835
  0
LINE
  5
28A
100
AcDbEntity
  8
0
100
AcDbLine
 62
7
  6
BYLAYER
 10
42.613662207
 20
55.4718268985
 11
41.013662207
 21
55.4718268985
  0
LINE
  5
28B
100
AcDbEntity
  8
0
100
AcDbLine
 62
7
  6
BYLAYER
 10
6.7962099124
 20
58.2091312915
 11
9.6171526883
 21
58.2582774098
  0
LINE
  5
28C
100
AcDbEntity
  8
0
100
AcDbLine
 62
7
  6
BYLAYER
 10
39.8136522847
 20
57.5123167155
 11
41.013662207
 21
57.5123167155
  0
LINE
  5
28D
100
AcDbEntity
  8
0
100
AcDbLine
 62
7
  6
BYLAYER
 10
31.813662207
 20
58.0275213378
 11
32.413662207
 21
58.0275213378
  0
LINE
  5
28E
100
AcDbEntity
  8
0
100
AcDbLine
 62
7
  6
BYLAYER
 10
6.7962098565
 20
58.2090376687
 11
5.813662207
 21
58.2090376687
  0
LINE
  5
28F
100
AcDbEntity
  8
0
100
AcDbLine
 62
7
  6
BYLAYER
 10
9.813662207
 20
58.2582774097
 11
9.6171526883
 21
58.2582774097
  0
LINE
  5
290
100
AcDbEntity
  8
0
100
AcDbLine
 62
7
  6
BYLAYER
 10
38.7636500045
 20
58.5623167155
 11
32.413662207
 21
58.5623167155
  0
LINE
  5
291
100
AcDbEntity
  8
0
100
AcDbLine
 62
7
  6
BYLAYER
 10
32.413662207
 20
60.4770110806
 11
31.813662207
 21
60.4770110785
  0
LINE
  5
292
100
AcDbEntity
  8
0
100
AcDbLine
 62
7
  6
BYLAYER
 10
5.813662207
 20
60.5132076681
 11
6.7962098565
 21
60.5132076681
  0
LINE
  5
293
100
AcDbEntity
  8
0
100
AcDbLine
 62
7
  6
BYLAYER
 10
9.6171526883
 20
60.5870766568
 11
9.813662207
 21
60.5870766568
  0
LINE
  5
294
100
AcDbEntity
  8
0
100
AcDbLine
 62
7
  6
BYLAYER
 10
9.813662207
 20
60.6052011242
 11
10.3005731583
 21
60.6052011242
  0
LINE
  5
295
100
AcDbEntity
  8
0
100
AcDbLine
 62
7
  6
BYLAYER
 10
31.813662207
 20
60.3567776062
 11
16.313662207
 21
60.7626593906
  0
LINE
  5
296
100
AcDbEntity
  8
0
100
AcDbLine
 62
7
  6
BYLAYER
 10
9.6171526883
 20
60.5870766566
 11
6.7962098005
 21
60.5132076667
  0
LINE
  5
297
100
AcDbEntity
  8
0
100
AcDbLine
 62
7
  6
BYLAYER
 10
16.313662207
 20
60.7626593906
 11
10.3005737328
 21
60.6052011274
  0
LINE
  5
298
100
AcDbEntity
  8
0
100
AcDbLine
 62
7
  6
BYLAYER
 10
6.7874852587
 20
61.5128649931
 11
16.313662207
 21
61.7623167155
  0
LINE
  5
299
100
AcDbEntity
  8
0
100
AcDbLine
 62
7
  6
BYLAYER
 10
16.313662207
 20
61.7623167155
 11
31.813662207
 21
61.3564349312
  0
LINE
  5
29A
100
AcDbEntity
  8
0
100
AcDbLine
 62
7
  6
BYLAYER
 10
39.8136522847
 20
57.5123167155
 11
38.7636505814
 21
58.5623172925
  0
ARC
  5
29B
100
AcDbEntity
  8
0
100
AcDbCircle
 62
7
  6
BYLAYER
 10
9.216403383
 20
33.6359083703
 40
1.3118112268
100
AcDbArc
 50
79.3372661449
 51
88.4978884514
  0
ARC
  5
29C
100
AcDbEntity
  8
0
100
AcDbCircle
 62
7
  6
BYLAYER
 10
9.2264378536
 20
34.2977068088
 40
1.1497450365
100
AcDbArc
 50
70.1349382096
 51
88.571196097
  0
ARC
  5
29D
100
AcDbEntity
  8
0
100
AcDbCircle
 62
7
  6
BYLAYER
 10
8.563662207
 20
22.4623167155
 40
1.0
100
AcDbArc
 50
180.0
 51
270.0000445854
  0
ARC
  5
29E
100
AcDbEntity
  8
0
100
AcDbCircle
 62
7
  6
BYLAYER
 10
6.3136815691
 20
35.5243494844
 40
0.5000051812
100
AcDbArc
 50
180.0002471601
 51
268.4977885051
  0
ARC
  5
29F
100
AcDbEntity
  8
0
100
AcDbCircle
 62
7
  6
BYLAYER
 10
10.3136619655
 20
35.4194714926
 40
0.4998394261
100
AcDbArc
 50
179.984856877
 51
268.4996303292
  0
ARC
  5
2A0
100
AcDbEntity
  8
0
100
AcDbCircle
 62
7
  6
BYLAYER
 10
6.813662207
 20
43.3148342384
 40
1.0
100
AcDbArc
 50
180.0
 51
269.0000030596
  0
ARC
  5
2A1
100
AcDbEntity
  8
0
100
AcDbCircle
 62
7
  6
BYLAYER
 10
6.813662207
 20
60.5132076681
 40
1.0
100
AcDbArc
 50
91.5000000003
 51
180.0
  0
ARC
  5
2A2
100
AcDbEntity
  8
0
100
AcDbCircle
 62
7
  6
BYLAYER
 10
6.813662207
 20
53.2097991927
 40
1.0
100
AcDbArc
 50
90.9999969404
 51
180.0
  0
ARC
  5
2A3
100
AcDbEntity
  8
0
100
AcDbCircle
 62
7
  6
BYLAYER
 10
9.6136622871
 20
42.0657718248
 40
0.1999998883
100
AcDbArc
 50
0.0015579535
 51
89.0000501294
  0
ARC
  5
2A4
100
AcDbEntity
  8
0
100
AcDbCircle
 62
7
  6
BYLAYER
 10
10.3136631213
 20
61.1051629893
 40
0.4998392529
100
AcDbArc
 50
91.5005702911
 51
180.0152635042
  0
ARC
  5
2A5
100
AcDbEntity
  8
0
100
AcDbCircle
 62
7
  6
BYLAYER
 10
9.613662274
 20
54.4588616083
 40
0.1999998879
100
AcDbArc
 50
270.9999536106
 51
359.998441453
  0
ARC
  5
2A6
100
AcDbEntity
  8
0
100
AcDbCircle
 62
7
  6
BYLAYER
 10
24.063662207
 20
22.4623167155
 40
1.0
100
AcDbArc
 50
269.9999554146
 51
360.0
  0
ARC
  5
2A7
100
AcDbEntity
  8
0
100
AcDbCircle
 62
7
  6
BYLAYER
 10
16.3136739974
 20
34.9630688632
 40
0.4006863684
100
AcDbArc
 50
268.5239553623
 51
271.4519434423
  0
SPLINE
  5
2A8
100
AcDbEntity
  8
0
100
AcDbSpline
 62
7
  6
BYLAYER
 70
0
 71
3
 72
23
 73
19
 74
0
 42
0.0000001
 43
0.0000001
 44
0.0000000001
 40
0.0
 40
0.0
 40
0.0
 40
0.0
 40
0.0698215608
 40
0.1375824136
 40
0.2031205819
 40
0.2663451705
 40
0.3272939682
 40
0.3861978871
 40
0.4435297875
 40
0.5000000054
 40
0.5564702209
 40
0.613802121
 40
0.6727060386
 40
0.7336548345
 40
0.7968794226
 40
0.8624175883
 40
0.9301784389
 40
1.0
 40
1.0
 40
1.0
 40
1.0
 10
13.499312427
 20
7.7123167155
 30
0.0
 10
13.4476232951
 20
7.6618466141
 30
0.0
 10
13.343572893
 20
7.5646026053
 30
0.0
 10
13.1824644922
 20
7.4294641573
 30
0.0
 10
13.0183639095
 20
7.3090974335
 30
0.0
 10
12.851209309
 20
7.2057280605
 30
0.0
 10
12.6810543444
 20
7.1217155462
 30
0.0
 10
12.5081520996
 20
7.0594285479
 30
0.0
 10
12.3330653534
 20
7.0210066475
 30
0.0
 10
12.1567402545
 20
7.0080046474
 30
0.0
 10
11.9804151564
 20
7.0210066524
 30
0.0
 10
11.805328415
 20
7.0594285552
 30
0.0
 10
11.632426174
 20
7.1217155539
 30
0.0
 10
11.462271214
 20
7.205728069
 30
0.0
 10
11.2951166182
 20
7.3090974398
 30
0.0
 10
11.1310160407
 20
7.4294641613
 30
0.0
 10
10.9699076436
 20
7.5646026065
 30
0.0
 10
10.8658572428
 20
7.6618466139
 30
0.0
 10
10.8141681106
 20
7.7123167155
 30
0.0
  0
SPLINE
  5
2A9
100
AcDbEntity
  8
0
100
AcDbSpline
 62
7
  6
BYLAYER
 70
0
 71
3
 72
19
 73
15
 74
0
 42
0.0000001
 43
0.0000001
 44
0.0000000001
 40
0.0
 40
0.0
 40
0.0
 40
0.0
 40
0.1249968604
 40
0.2499739531
 40
0.3124818274
 40
0.3749886817
 40
0.4374946147
 40
0.5000000059
 40
0.5625053946
 40
0.6250113269
 40
0.6875181798
 40
0.750026052
 40
0.8750031413
 40
1.0
 40
1.0
 40
1.0
 40
1.0
 10
18.9988065234
 20
7.7123167155
 30
0.0
 10
18.7892241388
 20
7.6099969066
 30
0.0
 10
18.3627242574
 20
7.4199162161
 30
0.0
 10
17.8096324572
 20
7.2318188799
 30
0.0
 10
17.3563957972
 20
7.1204680125
 30
0.0
 10
17.0117285217
 20
7.0587642073
 30
0.0
 10
16.6636166747
 20
7.0208490433
 30
0.0
 10
16.3136621785
 20
7.008050569
 30
0.0
 10
15.9637076837
 20
7.0208490481
 30
0.0
 10
15.6155958459
 20
7.0587642146
 30
0.0
 10
15.2709285785
 20
7.1204680202
 30
0.0
 10
14.8176919319
 20
7.2318188881
 30
0.0
 10
14.2646001448
 20
7.4199162209
 30
0.0
 10
13.8381002723
 20
7.6099969081
 30
0.0
 10
13.6285178906
 20
7.7123167155
 30
0.0
  0
SPLINE
  5
2AA
100
AcDbEntity
  8
0
100
AcDbSpline
 62
7
  6
BYLAYER
 70
0
 71
3
 72
23
 73
19
 74
0
 42
0.0000001
 43
0.0000001
 44
0.0000000001
 40
0.0
 40
0.0
 40
0.0
 40
0.0
 40
0.0698215608
 40
0.1375824136
 40
0.2031205819
 40
0.2663451705
 40
0.3272939682
 40
0.3861978871
 40
0.4435297875
 40
0.5000000054
 40
0.5564702209
 40
0.613802121
 40
0.6727060386
 40
0.7336548345
 40
0.7968794226
 40
0.8624175883
 40
0.9301784389
 40
1.0
 40
1.0
 40
1.0
 40
1.0
 10
21.8131563033
 20
7.7123167155
 30
0.0
 10
21.7614671714
 20
7.6618466141
 30
0.0
 10
21.6574167693
 20
7.5646026053
 30
0.0
 10
21.4963083685
 20
7.4294641573
 30
0.0
 10
21.3322077859
 20
7.3090974335
 30
0.0
 10
21.1650531854
 20
7.2057280605
 30
0.0
 10
20.9948982207
 20
7.1217155462
 30
0.0
 10
20.8219959759
 20
7.0594285478
 30
0.0
 10
20.6469092297
 20
7.0210066475
 30
0.0
 10
20.4705841308
 20
7.0080046474
 30
0.0
 10
20.2942590327
 20
7.0210066524
 30
0.0
 10
20.1191722913
 20
7.0594285552
 30
0.0
 10
19.9462700504
 20
7.1217155539
 30
0.0
 10
19.7761150903
 20
7.205728069
 30
0.0
 10
19.6089604945
 20
7.3090974398
 30
0.0
 10
19.444859917
 20
7.4294641613
 30
0.0
 10
19.2837515199
 20
7.5646026065
 30
0.0
 10
19.1797011191
 20
7.6618466139
 30
0.0
 10
19.1280119869
 20
7.7123167155
 30
0.0
  0
SPLINE
  5
2AB
100
AcDbEntity
  8
0
100
AcDbSpline
 62
7
  6
BYLAYER
 70
0
 71
3
 72
23
 73
19
 74
0
 42
0.0000001
 43
0.0000001
 44
0.0000000001
 40
0.0
 40
0.0
 40
0.0
 40
0.0
 40
0.0698215608
 40
0.1375824136
 40
0.2031205819
 40
0.2663451705
 40
0.3272939682
 40
0.3861978871
 40
0.4435297875
 40
0.5000000054
 40
0.5564702209
 40
0.613802121
 40
0.6727060386
 40
0.7336548345
 40
0.7968794226
 40
0.8624175883
 40
0.9301784389
 40
1.0
 40
1.0
 40
1.0
 40
1.0
 10
19.1280119869
 20
11.1123167155
 30
0.0
 10
19.1797011189
 20
11.1627868169
 30
0.0
 10
19.283751521
 20
11.2600308258
 30
0.0
 10
19.4448599218
 20
11.3951692738
 30
0.0
 10
19.6089605044
 20
11.5155359976
 30
0.0
 10
19.7761151049
 20
11.6189053706
 30
0.0
 10
19.9462700695
 20
11.7029178849
 30
0.0
 10
20.1191723144
 20
11.7652048832
 30
0.0
 10
20.2942590605
 20
11.8036267836
 30
0.0
 10
20.4705841595
 20
11.8166287836
 30
0.0
 10
20.6469092576
 20
11.8036267787
 30
0.0
 10
20.821995999
 20
11.7652048759
 30
0.0
 10
20.9948982399
 20
11.7029178772
 30
0.0
 10
21.1650532
 20
11.6189053621
 30
0.0
 10
21.3322077958
 20
11.5155359913
 30
0.0
 10
21.4963083733
 20
11.3951692698
 30
0.0
 10
21.6574167704
 20
11.2600308246
 30
0.0
 10
21.7614671712
 20
11.1627868172
 30
0.0
 10
21.8131563033
 20
11.1123167155
 30
0.0
  0
SPLINE
  5
2AC
100
AcDbEntity
  8
0
100
AcDbSpline
 62
7
  6
BYLAYER
 70
0
 71
3
 72
19
 73
15
 74
0
 42
0.0000001
 43
0.0000001
 44
0.0000000001
 40
0.0
 40
0.0
 40
0.0
 40
0.0
 40
0.1249968604
 40
0.2499739531
 40
0.3124818274
 40
0.3749886817
 40
0.4374946147
 40
0.5000000059
 40
0.5625053946
 40
0.6250113269
 40
0.6875181798
 40
0.750026052
 40
0.8750031413
 40
1.0
 40
1.0
 40
1.0
 40
1.0
 10
13.6285178906
 20
11.1123167155
 30
0.0
 10
13.8381002752
 20
11.2146365244
 30
0.0
 10
14.2646001566
 20
11.404717215
 30
0.0
 10
14.8176919567
 20
11.5928145512
 30
0.0
 10
15.2709286167
 20
11.7041654186
 30
0.0
 10
15.6155958922
 20
11.7658692238
 30
0.0
 10
15.9637077392
 20
11.8037843878
 30
0.0
 10
16.3136622354
 20
11.8165828621
 30
0.0
 10
16.6636167302
 20
11.803784383
 30
0.0
 10
17.011728568
 20
11.7658692165
 30
0.0
 10
17.3563958355
 20
11.7041654109
 30
0.0
 10
17.8096324821
 20
11.592814543
 30
0.0
 10
18.3627242691
 20
11.4047172102
 30
0.0
 10
18.7892241417
 20
11.214636523
 30
0.0
 10
18.9988065234
 20
11.1123167155
 30
0.0
  0
SPLINE
  5
2AD
100
AcDbEntity
  8
0
100
AcDbSpline
 62
7
  6
BYLAYER
 70
0
 71
3
 72
23
 73
19
 74
0
 42
0.0000001
 43
0.0000001
 44
0.0000000001
 40
0.0
 40
0.0
 40
0.0
 40
0.0
 40
0.0698215608
 40
0.1375824136
 40
0.2031205819
 40
0.2663451705
 40
0.3272939682
 40
0.3861978871
 40
0.4435297875
 40
0.5000000054
 40
0.5564702209
 40
0.613802121
 40
0.6727060386
 40
0.7336548345
 40
0.7968794226
 40
0.8624175883
 40
0.9301784389
 40
1.0
 40
1.0
 40
1.0
 40
1.0
 10
10.8141681106
 20
11.1123167155
 30
0.0
 10
10.8658572425
 20
11.1627868169
 30
0.0
 10
10.9699076447
 20
11.2600308258
 30
0.0
 10
11.1310160455
 20
11.3951692738
 30
0.0
 10
11.2951166281
 20
11.5155359976
 30
0.0
 10
11.4622712286
 20
11.6189053706
 30
0.0
 10
11.6324261932
 20
11.7029178849
 30
0.0
 10
11.805328438
 20
11.7652048832
 30
0.0
 10
11.9804151842
 20
11.8036267836
 30
0.0
 10
12.1567402831
 20
11.8166287836
 30
0.0
 10
12.3330653812
 20
11.8036267787
 30
0.0
 10
12.5081521226
 20
11.7652048759
 30
0.0
 10
12.6810543636
 20
11.7029178772
 30
0.0
 10
12.8512093236
 20
11.6189053621
 30
0.0
 10
13.0183639194
 20
11.5155359913
 30
0.0
 10
13.1824644969
 20
11.3951692698
 30
0.0
 10
13.3435728941
 20
11.2600308246
 30
0.0
 10
13.4476232949
 20
11.1627868172
 30
0.0
 10
13.499312427
 20
11.1123167155
 30
0.0
  0
SPLINE
  5
2AE
100
AcDbEntity
  8
0
100
AcDbSpline
 62
7
  6
BYLAYER
 70
0
 71
3
 72
23
 73
19
 74
0
 42
0.0000001
 43
0.0000001
 44
0.0000000001
 40
0.0
 40
0.0
 40
0.0
 40
0.0
 40
0.0014813536
 40
0.0052011001
 40
0.0112719128
 40
0.0196964297
 40
0.0304628246
 40
0.0435552252
 40
0.0766239089
 40
0.1185656717
 40
0.1689659373
 40
0.2273922786
 40
0.2932595552
 40
0.3658977175
 40
0.4446320551
 40
0.6173909413
 40
0.805148926
 40
1.0
 40
1.0
 40
1.0
 40
1.0
 10
6.7918475541
 20
35.0116542072
 30
0.0
 10
6.791600692
 20
35.0116606351
 30
0.0
 10
6.791289202
 20
35.0127880082
 30
0.0
 10
6.7909803802
 20
35.0143773168
 30
0.0
 10
6.7906539673
 20
35.017542872
 30
0.0
 10
6.7903606026
 20
35.021680889
 30
0.0
 10
6.7900914173
 20
35.027080439
 30
0.0
 10
6.7897517872
 20
35.0365530594
 30
0.0
 10
6.7894506188
 20
35.0512450749
 30
0.0
 10
6.7892450175
 20
35.0721473374
 30
0.0
 10
6.7891843494
 20
35.0972821094
 30
0.0
 10
6.7892710301
 20
35.1264036591
 30
0.0
 10
6.7895051345
 20
35.1592321094
 30
0.0
 10
6.789884481
 20
35.1954446268
 30
0.0
 10
6.7906046594
 20
35.2494735194
 30
0.0
 10
6.7918548403
 20
35.3226875283
 30
0.0
 10
6.7937991075
 20
35.4152487024
 30
0.0
 10
6.7953597759
 20
35.4790117688
 30
0.0
 10
6.7962098026
 20
35.5114828703
 30
0.0
  0
SPLINE
  5
2AF
100
AcDbEntity
  8
0
100
AcDbSpline
 62
7
  6
BYLAYER
 70
0
 71
3
 72
17
 73
13
 74
0
 42
0.0000001
 43
0.0000001
 44
0.0000000001
 40
0.0
 40
0.0
 40
0.0
 40
0.0
 40
0.1249547237
 40
0.1876706608
 40
0.2502667942
 40
0.3752309067
 40
0.5002576884
 40
0.6252300539
 40
0.7501631169
 40
0.8126630184
 40
0.8751379991
 40
1.0
 40
1.0
 40
1.0
 40
1.0
 10
10.3005725839
 20
42.1832815536
 30
0.0
 10
10.3017545188
 20
42.2383778966
 30
0.0
 10
10.2931020627
 20
42.3215203146
 30
0.0
 10
10.2672486226
 20
42.4288572439
 30
0.0
 10
10.2331983826
 20
42.533972345
 30
0.0
 10
10.1758250886
 20
42.659920012
 30
0.0
 10
10.0867773767
 20
42.7997989354
 30
0.0
 10
9.9821299634
 20
42.9282164753
 30
0.0
 10
9.8858851831
 20
43.0269564274
 30
0.0
 10
9.8062019876
 20
43.1031066644
 30
0.0
 10
9.7250162667
 20
43.1776105474
 30
0.0
 10
9.662010538
 20
43.2311524404
 30
0.0
 10
9.6188976536
 20
43.2654128786
 30
0.0
  0
SPLINE
  5
2B0
100
AcDbEntity
  8
0
100
AcDbSpline
 62
7
  6
BYLAYER
 70
0
 71
3
 72
36
 73
32
 74
0
 42
0.0000001
 43
0.0000001
 44
0.0000000001
 40
0.0
 40
0.0
 40
0.0
 40
0.0
 40
0.0000929805
 40
0.000327257
 40
0.0007107675
 40
0.0012445336
 40
0.0019286678
 40
0.002763029
 40
0.0048814123
 40
0.0075973481
 40
0.0109082053
 40
0.0148112529
 40
0.0193037133
 40
0.0243827844
 40
0.0300456497
 40
0.0431114522
 40
0.0584784647
 40
0.076123978
 40
0.096018008
 40
0.1181015601
 40
0.1423083822
 40
0.1685722161
 40
0.2270058626
 40
0.2928723716
 40
0.3655983898
 40
0.4444377913
 40
0.5286012584
 40
0.6172994671
 40
0.7097172545
 40
0.8049361418
 40
1.0
 40
1.0
 40
1.0
 40
1.0
 10
6.7962095123
 20
42.3149801168
 30
0.0
 10
6.7960855508
 20
42.3149797408
 30
0.0
 10
6.7959169416
 20
42.3144153904
 30
0.0
 10
6.7957447471
 20
42.3136178116
 30
0.0
 10
6.7955456123
 20
42.3120208517
 30
0.0
 10
6.7953513291
 20
42.3099268738
 30
0.0
 10
6.7951535105
 20
42.3071853616
 30
0.0
 10
6.7948701602
 20
42.302350767
 30
0.0
 10
6.7945378642
 20
42.2947963932
 30
0.0
 10
6.7941692659
 20
42.2839450829
 30
0.0
 10
6.793809823
 20
42.270710761
 30
0.0
 10
6.7934601082
 20
42.255107873
 30
0.0
 10
6.7931213336
 20
42.2371465981
 30
0.0
 10
6.7927939335
 20
42.2168386728
 30
0.0
 10
6.7923519799
 20
42.1851011351
 30
0.0
 10
6.7918444328
 20
42.139647379
 30
0.0
 10
6.7913090106
 20
42.0782178356
 30
0.0
 10
6.7908255791
 20
42.0076841988
 30
0.0
 10
6.7903963441
 20
41.9281955548
 30
0.0
 10
6.7900220256
 20
41.8399589843
 30
0.0
 10
6.7897034629
 20
41.7432298968
 30
0.0
 10
6.7893414117
 20
41.5980386249
 30
0.0
 10
6.7890515806
 20
41.3973061845
 30
0.0
 10
6.7889449365
 20
41.1346299819
 30
0.0
 10
6.7890748127
 20
40.8447487457
 30
0.0
 10
6.7894370297
 20
40.5304741099
 30
0.0
 10
6.7900282698
 20
40.1949055924
 30
0.0
 10
6.7908444815
 20
39.8412347328
 30
0.0
 10
6.7918806566
 20
39.4728252526
 30
0.0
 10
6.7935525026
 20
38.9626098906
 30
0.0
 10
6.7950757712
 20
38.575606549
 30
0.0
 10
6.7962097315
 20
38.3155489993
 30
0.0
  0
SPLINE
  5
2B1
100
AcDbEntity
  8
0
100
AcDbSpline
 62
7
  6
BYLAYER
 70
0
 71
3
 72
17
 73
13
 74
0
 42
0.0000001
 43
0.0000001
 44
0.0000000001
 40
0.0
 40
0.0
 40
0.0
 40
0.0
 40
0.1249616987
 40
0.1876737729
 40
0.2502719679
 40
0.3752501415
 40
0.5002702371
 40
0.6252409745
 40
0.7501672766
 40
0.8126657661
 40
0.8751401663
 40
1.0
 40
1.0
 40
1.0
 40
1.0
 10
10.3005725839
 20
54.3413518752
 30
0.0
 10
10.3016071613
 20
54.2862495101
 30
0.0
 10
10.2930597881
 20
54.2031222909
 30
0.0
 10
10.2672843556
 20
54.0957554775
 30
0.0
 10
10.2332034207
 20
53.9906439873
 30
0.0
 10
10.1757737742
 20
53.8647200094
 30
0.0
 10
10.0867703304
 20
53.7248151243
 30
0.0
 10
9.9821672773
 20
53.5963664129
 30
0.0
 10
9.8858957669
 20
53.4976561619
 30
0.0
 10
9.8061794815
 20
53.4215466013
 30
0.0
 10
9.7249976031
 20
53.3470419458
 30
0.0
 10
9.6620094574
 20
53.2934808883
 30
0.0
 10
9.6188977351
 20
53.259220554
 30
0.0
  0
SPLINE
  5
2B2
100
AcDbEntity
  8
0
100
AcDbSpline
 62
7
  6
BYLAYER
 70
0
 71
3
 72
13
 73
9
 74
0
 42
0.0000001
 43
0.0000001
 44
0.0000000001
 40
0.0
 40
0.0
 40
0.0
 40
0.0
 40
0.2228678261
 40
0.3462404549
 40
0.4757193058
 40
0.6092693925
 40
0.743724227
 40
1.0
 40
1.0
 40
1.0
 40
1.0
 10
23.9490355261
 20
34.9622556722
 30
0.0
 10
23.9277682351
 20
34.96174245
 30
0.0
 10
23.8944081386
 20
34.9533522444
 30
0.0
 10
23.856049046
 20
34.9286059811
 30
0.0
 10
23.8295395428
 20
34.9025514348
 30
0.0
 10
23.8084613859
 20
34.8707002082
 30
0.0
 10
23.7886706391
 20
34.8245217208
 30
0.0
 10
23.7830649767
 20
34.7867785768
 30
0.0
 10
23.7832387191
 20
34.7623168104
 30
0.0
  0
SPLINE
  5
2B3
100
AcDbEntity
  8
0
100
AcDbSpline
 62
7
  6
BYLAYER
 70
0
 71
3
 72
36
 73
32
 74
0
 42
0.0000001
 43
0.0000001
 44
0.0000000001
 40
0.0
 40
0.0
 40
0.0
 40
0.0
 40
0.1950640095
 40
0.2902827466
 40
0.3827003806
 40
0.4713985193
 40
0.5555619898
 40
0.634401434
 40
0.7071275
 40
0.7729940358
 40
0.8314276924
 40
0.8576915289
 40
0.8818983541
 40
0.9039819112
 40
0.9238759497
 40
0.9415214759
 40
0.9568885043
 40
0.9699543236
 40
0.975617197
 40
0.9806962757
 40
0.9851887429
 40
0.9890917962
 40
0.9924026578
 40
0.9951185965
 40
0.9972369808
 40
0.9980713418
 40
0.9987554753
 40
0.9992892399
 40
0.9996727485
 40
0.9999070223
 40
1.0
 40
1.0
 40
1.0
 40
1.0
 10
6.79620977
 20
58.2090844889
 30
0.0
 10
6.7950758088
 20
57.94902673
 30
0.0
 10
6.793552539
 20
57.5620233759
 30
0.0
 10
6.7918806938
 20
57.0518082024
 30
0.0
 10
6.7908445206
 20
56.6833992097
 30
0.0
 10
6.7900283101
 20
56.3297286332
 30
0.0
 10
6.78943707
 20
55.994160138
 30
0.0
 10
6.7890748521
 20
55.679885368
 30
0.0
 10
6.7889449745
 20
55.390003967
 30
0.0
 10
6.789051617
 20
55.1273276439
 30
0.0
 10
6.7893414472
 20
54.9265951451
 30
0.0
 10
6.7897034981
 20
54.7814038481
 30
0.0
 10
6.7900220608
 20
54.6846747436
 30
0.0
 10
6.7903963798
 20
54.5964381485
 30
0.0
 10
6.7908256156
 20
54.5169494669
 30
0.0
 10
6.7913090485
 20
54.4464157783
 30
0.0
 10
6.7918444721
 20
54.3849861723
 30
0.0
 10
6.7923520205
 20
54.3395323605
 30
0.0
 10
6.7927939749
 20
54.3077947786
 30
0.0
 10
6.7931213755
 20
54.2874868228
 30
0.0
 10
6.7934601505
 20
54.2695255206
 30
0.0
 10
6.7938098654
 20
54.2539226095
 30
0.0
 10
6.7941693083
 20
54.2406882698
 30
0.0
 10
6.7945379062
 20
54.2298369482
 30
0.0
 10
6.794870202
 20
54.222282569
 30
0.0
 10
6.7951535513
 20
54.2174479747
 30
0.0
 10
6.7953513702
 20
54.2147064647
 30
0.0
 10
6.7955456505
 20
54.2126124946
 30
0.0
 10
6.7957447895
 20
54.2110155373
 30
0.0
 10
6.7959169739
 20
54.2102179767
 30
0.0
 10
6.7960855922
 20
54.209653626
 30
0.0
 10
6.7962095499
 20
54.2096532585
 30
0.0
  0
SPLINE
  5
2B4
100
AcDbEntity
  8
0
100
AcDbSpline
 62
7
  6
BYLAYER
 70
0
 71
3
 72
14
 73
10
 74
0
 42
0.0000001
 43
0.0000001
 44
0.0000000001
 40
0.0
 40
0.0
 40
0.0
 40
0.0
 40
0.0759048374
 40
0.1625181216
 40
0.2623895282
 40
0.3782764169
 40
0.5121746544
 40
0.6628167736
 40
1.0
 40
1.0
 40
1.0
 40
1.0
 10
9.8136567579
 20
42.1832207851
 30
0.0
 10
9.8136562078
 20
42.211060094
 30
0.0
 10
9.8089055673
 20
42.2706571677
 30
0.0
 10
9.7926859739
 20
42.3655528075
 30
0.0
 10
9.7694776
 20
42.4740092393
 30
0.0
 10
9.7417645385
 20
42.5992186538
 30
0.0
 10
9.7121062139
 20
42.7430631697
 30
0.0
 10
9.6692829229
 20
42.9670420368
 30
0.0
 10
9.6396518763
 20
43.1435030139
 30
0.0
 10
9.6189701925
 20
43.2654287068
 30
0.0
  0
SPLINE
  5
2B5
100
AcDbEntity
  8
0
100
AcDbSpline
 62
7
  6
BYLAYER
 70
0
 71
3
 72
8
 73
4
 74
0
 42
0.0000001
 43
0.0000001
 44
0.0000000001
 40
0.0
 40
0.0
 40
0.0
 40
0.0
 40
1.0
 40
1.0
 40
1.0
 40
1.0
 10
10.3006059021
 20
34.9197775345
 30
0.0
 10
10.248830493
 20
34.9211470412
 30
0.0
 10
10.1963345333
 20
34.9155576596
 30
0.0
 10
10.1461699655
 20
34.9026702753
 30
0.0
  0
SPLINE
  5
2B6
100
AcDbEntity
  8
0
100
AcDbSpline
 62
7
  6
BYLAYER
 70
0
 71
3
 72
29
 73
25
 74
0
 42
0.0000001
 43
0.0000001
 44
0.0000000001
 40
0.0
 40
0.0
 40
0.0
 40
0.0
 40
0.0003306408
 40
0.0012504542
 40
0.0027700156
 40
0.004888559
 40
0.0076039693
 40
0.0109137598
 40
0.0193058745
 40
0.0300432613
 40
0.04310385
 40
0.058465426
 40
0.076105708
 40
0.0959950372
 40
0.1180743637
 40
0.1685373666
 40
0.2269633771
 40
0.2928209741
 40
0.3655361651
 40
0.4443647822
 40
0.5285201014
 40
0.6172153894
 40
0.8048712384
 40
1.0
 40
1.0
 40
1.0
 40
1.0
 10
9.6171527549
 20
42.2657689973
 30
0.0
 10
9.6172629313
 20
42.2657699794
 30
0.0
 10
9.6172887084
 20
42.2663824852
 30
0.0
 10
9.6174563187
 20
42.2671104586
 30
0.0
 10
9.6175367138
 20
42.2687313587
 30
0.0
 10
9.6176674595
 20
42.270798827
 30
0.0
 10
9.6177769046
 20
42.2735281909
 30
0.0
 10
9.6179444736
 20
42.2783212027
 30
0.0
 10
9.618132929
 20
42.2858020063
 30
0.0
 10
9.6183412094
 20
42.2965244459
 30
0.0
 10
9.6185386717
 20
42.3095731549
 30
0.0
 10
9.6187261207
 20
42.3249213148
 30
0.0
 10
9.6189018381
 20
42.3425457055
 30
0.0
 10
9.6190652636
 20
42.3624087517
 30
0.0
 10
9.6192757054
 20
42.3932094509
 30
0.0
 10
9.6194973346
 20
42.4368520535
 30
0.0
 10
9.6197002132
 20
42.4950832811
 30
0.0
 10
9.6198467109
 20
42.5607298856
 30
0.0
 10
9.619934315
 20
42.6331754452
 30
0.0
 10
9.6199628357
 20
42.7117184786
 30
0.0
 10
9.6199319907
 20
42.7955866266
 30
0.0
 10
9.6198088872
 20
42.9157196828
 30
0.0
 10
9.6195039188
 20
43.0728326898
 30
0.0
 10
9.6191243288
 20
43.2003891066
 30
0.0
 10
9.6188976293
 20
43.2654123052
 30
0.0
  0
SPLINE
  5
2B7
100
AcDbEntity
  8
0
100
AcDbSpline
 62
7
  6
BYLAYER
 70
0
 71
3
 72
9
 73
5
 74
0
 42
0.0000001
 43
0.0000001
 44
0.0000000001
 40
0.0
 40
0.0
 40
0.0
 40
0.0
 40
0.2460695265
 40
1.0
 40
1.0
 40
1.0
 40
1.0
 10
9.8136622061
 20
35.345572381
 30
0.0
 10
9.8136624562
 20
35.3414353443
 30
0.0
 10
9.8133394483
 20
35.3246239855
 30
0.0
 10
9.811868149
 20
35.3078382509
 30
0.0
 10
9.810163449
 20
35.295277971
 30
0.0
  0
SPLINE
  5
2B8
100
AcDbEntity
  8
0
100
AcDbSpline
 62
7
  6
BYLAYER
 70
0
 71
3
 72
24
 73
20
 74
0
 42
0.0000001
 43
0.0000001
 44
0.0000000001
 40
0.0
 40
0.0
 40
0.0
 40
0.0
 40
0.0583730444
 40
0.1165044321
 40
0.1736533394
 40
0.2286908216
 40
0.2548918587
 40
0.279931051
 40
0.3035807794
 40
0.3269276053
 40
0.3518728578
 40
0.3795968372
 40
0.4096256349
 40
0.441256349
 40
0.5074121118
 40
0.575717433
 40
0.7154158342
 40
0.8571988322
 40
1.0
 40
1.0
 40
1.0
 40
1.0
 10
9.810163449
 20
35.295277971
 30
0.0
 10
9.8092483289
 20
35.2885353399
 30
0.0
 10
9.8070661678
 20
35.2751240095
 30
0.0
 10
9.8026461673
 20
35.2553518061
 30
0.0
 10
9.7968206575
 20
35.2363573657
 30
0.0
 10
9.7903878542
 20
35.2214703834
 30
0.0
 10
9.7836581744
 20
35.211035103
 30
0.0
 10
9.7778681924
 20
35.2044295644
 30
0.0
 10
9.7707312986
 20
35.1997136621
 30
0.0
 10
9.7622748826
 20
35.198026216
 30
0.0
 10
9.7534047841
 20
35.1999087475
 30
0.0
 10
9.7449727651
 20
35.2047572768
 30
0.0
 10
9.7368838171
 20
35.2113588396
 30
0.0
 10
9.7263877554
 20
35.2219623133
 30
0.0
 10
9.7142823193
 20
35.2371177056
 30
0.0
 10
9.6958036087
 20
35.2631939192
 30
0.0
 10
9.673723698
 20
35.2974859319
 30
0.0
 10
9.6467206149
 20
35.3389148778
 30
0.0
 10
9.6274321923
 20
35.3659439465
 30
0.0
 10
9.6171526883
 20
35.3790368546
 30
0.0
  0
SPLINE
  5
2B9
100
AcDbEntity
  8
0
100
AcDbSpline
 62
7
  6
BYLAYER
 70
0
 71
3
 72
11
 73
7
 74
0
 42
0.0000001
 43
0.0000001
 44
0.0000000001
 40
0.0
 40
0.0
 40
0.0
 40
0.0
 40
0.2525956688
 40
0.5113061036
 40
0.7636219737
 40
1.0
 40
1.0
 40
1.0
 40
1.0
 10
10.1461544362
 20
34.9026626498
 30
0.0
 10
10.0991021032
 20
34.9183914802
 30
0.0
 10
10.0078506921
 20
34.9641697155
 30
0.0
 10
9.8982649101
 20
35.0701292376
 30
0.0
 10
9.8290750253
 20
35.2024923433
 30
0.0
 10
9.8136634162
 20
35.299125995
 30
0.0
 10
9.8136623791
 20
35.3455524024
 30
0.0
  0
SPLINE
  5
2BA
100
AcDbEntity
  8
0
100
AcDbSpline
 62
7
  6
BYLAYER
 70
0
 71
3
 72
16
 73
12
 74
0
 42
0.0000001
 43
0.0000001
 44
0.0000000001
 40
0.0
 40
0.0
 40
0.0
 40
0.0
 40
0.1489510569
 40
0.2890299517
 40
0.5496323174
 40
0.6718370844
 40
0.788911809
 40
0.8454414801
 40
0.8997732405
 40
0.9509087747
 40
1.0
 40
1.0
 40
1.0
 40
1.0
 10
9.4591212402
 20
34.9250643888
 30
0.0
 10
9.4931048492
 20
34.9191550139
 30
0.0
 10
9.5586092707
 20
34.9052739238
 30
0.0
 10
9.6836574116
 20
34.8817609441
 30
0.0
 10
9.8041690185
 20
34.8662020127
 30
0.0
 10
9.9200890035
 20
34.8666448466
 30
0.0
 10
9.988391719
 20
34.8727453917
 30
0.0
 10
10.0406607299
 20
34.8801333352
 30
0.0
 10
10.0776196664
 20
34.8866650395
 30
0.0
 10
10.1124831864
 20
34.8947917283
 30
0.0
 10
10.1350177292
 20
34.9003778517
 30
0.0
 10
10.146154436
 20
34.9026612122
 30
0.0
  0
SPLINE
  5
2BB
100
AcDbEntity
  8
0
100
AcDbSpline
 62
7
  6
BYLAYER
 70
0
 71
3
 72
29
 73
25
 74
0
 42
0.0000001
 43
0.0000001
 44
0.0000000001
 40
0.0
 40
0.0
 40
0.0
 40
0.0
 40
0.1951287457
 40
0.3827845693
 40
0.4714798532
 40
0.5556351741
 40
0.6344637962
 40
0.7071789924
 40
0.7730365931
 40
0.8314626065
 40
0.881925612
 40
0.9040049401
 40
0.923894271
 40
0.9415345552
 40
0.9568961338
 40
0.9699567252
 40
0.980694115
 40
0.9890862326
 40
0.9923960246
 40
0.9951114362
 40
0.997229981
 40
0.9987495437
 40
0.9996693582
 40
1.0
 40
1.0
 40
1.0
 40
1.0
 10
9.6188975986
 20
53.2592211223
 30
0.0
 10
9.6191242981
 20
53.3242443162
 30
0.0
 10
9.6195038881
 20
53.4518007204
 30
0.0
 10
9.6198088565
 20
53.6089137138
 30
0.0
 10
9.6199319599
 20
53.7290467619
 30
0.0
 10
9.619962805
 20
53.8129149116
 30
0.0
 10
9.6199342843
 20
53.8914579497
 30
0.0
 10
9.6198466803
 20
53.9639035146
 30
0.0
 10
9.6197001826
 20
54.0295501237
 30
0.0
 10
9.619497304
 20
54.0877813549
 30
0.0
 10
9.6192756748
 20
54.1314239604
 30
0.0
 10
9.6190652331
 20
54.1622246618
 30
0.0
 10
9.6189018075
 20
54.18208771
 30
0.0
 10
9.6187260902
 20
54.1997121031
 30
0.0
 10
9.6185386412
 20
54.2150602656
 30
0.0
 10
9.6183411788
 20
54.2281089774
 30
0.0
 10
9.6181328984
 20
54.2388314201
 30
0.0
 10
9.6179444429
 20
54.2463122261
 30
0.0
 10
9.617776874
 20
54.2511052399
 30
0.0
 10
9.6176674289
 20
54.2538346051
 30
0.0
 10
9.617536683
 20
54.2559020751
 30
0.0
 10
9.6174562883
 20
54.2575229757
 30
0.0
 10
9.6172886773
 20
54.2582509517
 30
0.0
 10
9.617262901
 20
54.2588634569
 30
0.0
 10
9.6171527242
 20
54.2588644399
 30
0.0
  0
SPLINE
  5
2BC
100
AcDbEntity
  8
0
100
AcDbSpline
 62
7
  6
BYLAYER
 70
0
 71
3
 72
27
 73
23
 74
0
 42
0.0000001
 43
0.0000001
 44
0.0000000001
 40
0.0
 40
0.0
 40
0.0
 40
0.0
 40
0.194944431
 40
0.3825415483
 40
0.4711946947
 40
0.5553097366
 40
0.6340977782
 40
0.7067942697
 40
0.7726668851
 40
0.8311103512
 40
0.8815526643
 40
0.923500644
 40
0.9411727149
 40
0.9565836022
 40
0.9696888415
 40
0.9804553043
 40
0.9888676395
 40
0.9949142577
 40
0.997049029
 40
0.9985934513
 40
0.9995573436
 40
1.0
 40
1.0
 40
1.0
 40
1.0
 10
10.3005736879
 20
35.9194323049
 30
0.0
 10
10.2997223843
 20
35.8544568602
 30
0.0
 10
10.2982170625
 20
35.7269526304
 30
0.0
 10
10.2967728199
 20
35.569895257
 30
0.0
 10
10.2959397866
 20
35.4497771747
 30
0.0
 10
10.2954963418
 20
35.3659268154
 30
0.0
 10
10.2952255676
 20
35.2873945923
 30
0.0
 10
10.2951288964
 20
35.214942715
 30
0.0
 10
10.2952082793
 20
35.1492722899
 30
0.0
 10
10.2954598089
 20
35.0910202978
 30
0.0
 10
10.2958802384
 20
35.0407443895
 30
0.0
 10
10.2963882885
 20
35.004060259
 30
0.0
 10
10.2969003725
 20
34.9790554375
 30
0.0
 10
10.2973008487
 20
34.9636641931
 30
0.0
 10
10.2977375532
 20
34.9505783777
 30
0.0
 10
10.2982093084
 20
34.93982393
 30
0.0
 10
10.2987070077
 20
34.9314381578
 30
0.0
 10
10.2991832324
 20
34.9259087978
 30
0.0
 10
10.299594155
 20
34.9227155019
 30
0.0
 10
10.2998992844
 20
34.9211564937
 30
0.0
 10
10.3001278629
 20
34.9202773068
 30
0.0
 10
10.3004262158
 20
34.9197781496
 30
0.0
 10
10.3005737328
 20
34.9197749787
 30
0.0
  0
SPLINE
  5
2BD
100
AcDbEntity
  8
0
100
AcDbSpline
 62
7
  6
BYLAYER
 70
0
 71
3
 72
23
 73
19
 74
0
 42
0.0000001
 43
0.0000001
 44
0.0000000001
 40
0.0
 40
0.0
 40
0.0
 40
0.0
 40
0.1947685243
 40
0.3821942021
 40
0.5548067301
 40
0.6335268844
 40
0.7061642502
 40
0.7719884325
 40
0.8303964039
 40
0.8808190615
 40
0.9227667416
 40
0.9558738196
 40
0.9690040691
 40
0.9798078832
 40
0.9882760242
 40
0.9944096099
 40
0.9982405423
 40
1.0
 40
1.0
 40
1.0
 40
1.0
 10
6.7874843112
 20
43.3148348187
 30
0.0
 10
6.786350894
 20
43.249856919
 30
0.0
 10
6.7844497782
 20
43.122344905
 30
0.0
 10
6.7826600699
 20
42.9372321727
 30
0.0
 10
6.7821036122
 20
42.7908329425
 30
0.0
 10
6.7823002626
 20
42.6827348101
 30
0.0
 10
6.7827392823
 20
42.6102696065
 30
0.0
 10
6.7834711217
 20
42.5445843851
 30
0.0
 10
6.7844835838
 20
42.4863166466
 30
0.0
 10
6.7857616574
 20
42.4360211344
 30
0.0
 10
6.7872907638
 20
42.3941839577
 30
0.0
 10
6.7888390038
 20
42.3647897828
 30
0.0
 10
6.7902625675
 20
42.3458212936
 30
0.0
 10
6.7913166862
 20
42.3350346595
 30
0.0
 10
6.7923497228
 20
42.3266866019
 30
0.0
 10
6.7935396622
 20
42.3204850139
 30
0.0
 10
6.7944324587
 20
42.3169859167
 30
0.0
 10
6.7956218601
 20
42.3149968064
 30
0.0
 10
6.7962088432
 20
42.3149865599
 30
0.0
  0
SPLINE
  5
2BE
100
AcDbEntity
  8
0
100
AcDbSpline
 62
7
  6
BYLAYER
 70
0
 71
3
 72
23
 73
19
 74
0
 42
0.0000001
 43
0.0000001
 44
0.0000000001
 40
0.0
 40
0.0
 40
0.0
 40
0.0
 40
0.1947685242
 40
0.382194202
 40
0.5548067299
 40
0.6335268842
 40
0.7061642499
 40
0.7719884323
 40
0.8303964037
 40
0.8808190611
 40
0.9227667409
 40
0.9558738191
 40
0.9690040689
 40
0.9798078835
 40
0.9882760251
 40
0.9944096109
 40
0.998240543
 40
1.0
 40
1.0
 40
1.0
 40
1.0
 10
6.7874843112
 20
53.2097986124
 30
0.0
 10
6.786350894
 20
53.2747765121
 30
0.0
 10
6.7844497782
 20
53.4022885262
 30
0.0
 10
6.7826600699
 20
53.5874012584
 30
0.0
 10
6.7821036122
 20
53.7338004886
 30
0.0
 10
6.7823002626
 20
53.841898621
 30
0.0
 10
6.7827392823
 20
53.9143638246
 30
0.0
 10
6.7834711217
 20
53.980049046
 30
0.0
 10
6.7844835838
 20
54.0383167845
 30
0.0
 10
6.7857616574
 20
54.0886122966
 30
0.0
 10
6.7872907638
 20
54.1304494732
 30
0.0
 10
6.7888390039
 20
54.1598436482
 30
0.0
 10
6.7902625675
 20
54.1788121376
 30
0.0
 10
6.7913166862
 20
54.1895987723
 30
0.0
 10
6.7923497226
 20
54.1979468302
 30
0.0
 10
6.7935396624
 20
54.2041484186
 30
0.0
 10
6.7944324581
 20
54.2076475152
 30
0.0
 10
6.7956218603
 20
54.2096366255
 30
0.0
 10
6.7962088432
 20
54.2096468712
 30
0.0
  0
SPLINE
  5
2BF
100
AcDbEntity
  8
0
100
AcDbSpline
 62
7
  6
BYLAYER
 70
0
 71
3
 72
27
 73
23
 74
0
 42
0.0000001
 43
0.0000001
 44
0.0000000001
 40
0.0
 40
0.0
 40
0.0
 40
0.0
 40
0.0004426822
 40
0.0014065851
 40
0.002951012
 40
0.0050857845
 40
0.0111323991
 40
0.0195447269
 40
0.030311182
 40
0.0434164162
 40
0.0588273014
 40
0.0764993725
 40
0.1184473551
 40
0.1688896696
 40
0.2273331347
 40
0.2932057481
 40
0.3659022381
 40
0.4446902786
 40
0.528805319
 40
0.6174584633
 40
0.8050555741
 40
1.0
 40
1.0
 40
1.0
 40
1.0
 10
10.3005736879
 20
61.6048584512
 30
0.0
 10
10.3004261623
 20
61.6048552764
 30
0.0
 10
10.3001277821
 20
61.6043561339
 30
0.0
 10
10.2998991901
 20
61.6034769201
 30
0.0
 10
10.2995940512
 20
61.601917917
 30
0.0
 10
10.2991831278
 20
61.5987246147
 30
0.0
 10
10.2987069178
 20
61.5931952606
 30
0.0
 10
10.2982092458
 20
61.584809491
 30
0.0
 10
10.2977375195
 20
61.5740550493
 30
0.0
 10
10.2973008338
 20
61.5609692377
 30
0.0
 10
10.2969003659
 20
61.5455779953
 30
0.0
 10
10.2963882838
 20
61.5205731729
 30
0.0
 10
10.2958802236
 20
61.4838890405
 30
0.0
 10
10.2954597918
 20
61.43361313
 30
0.0
 10
10.2952082696
 20
61.3753611373
 30
0.0
 10
10.2951288971
 20
61.3096907125
 30
0.0
 10
10.2952255774
 20
61.2372388353
 30
0.0
 10
10.2954963571
 20
61.1587066121
 30
0.0
 10
10.2959398015
 20
61.0748562528
 30
0.0
 10
10.2967728265
 20
60.9547381715
 30
0.0
 10
10.2982171135
 20
60.7976808
 30
0.0
 10
10.2997224825
 20
60.6701765723
 30
0.0
 10
10.3005737328
 20
60.6052011274
 30
0.0
  0
SPLINE
  5
2C0
100
AcDbEntity
  8
0
100
AcDbSpline
 62
7
  6
BYLAYER
 70
0
 71
3
 72
26
 73
22
 74
0
 42
0.0000001
 43
0.0000001
 44
0.0000000001
 40
0.0
 40
0.0
 40
0.0
 40
0.0
 40
0.0005230975
 40
0.0015244011
 40
0.0052375545
 40
0.0113016283
 40
0.0197232491
 40
0.0304945043
 40
0.0436019351
 40
0.0590133111
 40
0.0766845375
 40
0.11862741
 40
0.1690604553
 40
0.2274911741
 40
0.2933485125
 40
0.3660279634
 40
0.4447977958
 40
0.5288939682
 40
0.617528072
 40
0.8050884351
 40
1.0
 40
1.0
 40
1.0
 40
1.0
 10
6.7874843112
 20
61.5128649683
 30
0.0
 10
6.787309959
 20
61.5128604084
 30
0.0
 10
6.7869121362
 20
61.5124136918
 30
0.0
 10
6.7863751063
 20
61.5108107834
 30
0.0
 10
6.7857250271
 20
61.5072060147
 30
0.0
 10
6.7851049769
 20
61.501203892
 30
0.0
 10
6.784503767
 20
61.4927877897
 30
0.0
 10
6.7839717173
 20
61.4820367679
 30
0.0
 10
6.7835017856
 20
61.4689426583
 30
0.0
 10
6.7831023371
 20
61.4535476338
 30
0.0
 10
6.7826374102
 20
61.4285363973
 30
0.0
 10
6.7822803008
 20
61.3918456362
 30
0.0
 10
6.782158369
 20
61.3415633253
 30
0.0
 10
6.7823312322
 20
61.283307642
 30
0.0
 10
6.7827984364
 20
61.2176359996
 30
0.0
 10
6.783559778
 20
61.1451852385
 30
0.0
 10
6.7846063844
 20
61.0666562626
 30
0.0
 10
6.7859295387
 20
60.9828111441
 30
0.0
 10
6.7880885219
 20
60.8627019096
 30
0.0
 10
6.7913865935
 20
60.7056593833
 30
0.0
 10
6.7945081825
 20
60.5781730457
 30
0.0
 10
6.7962088432
 20
60.5132076431
 30
0.0
  0
SPLINE
  5
2C1
100
AcDbEntity
  8
0
100
AcDbSpline
 62
7
  6
BYLAYER
 70
0
 71
3
 72
16
 73
12
 74
0
 42
0.0000001
 43
0.0000001
 44
0.0000000001
 40
0.0
 40
0.0
 40
0.0
 40
0.0
 40
0.2759397965
 40
0.4087277844
 40
0.5359323452
 40
0.657255267
 40
0.7735686429
 40
0.8301519584
 40
0.8858817281
 40
0.9416641469
 40
1.0
 40
1.0
 40
1.0
 40
1.0
 10
9.618897582
 20
53.2592163571
 30
0.0
 10
9.6351365543
 20
53.3591106277
 30
0.0
 10
9.6610290205
 20
53.5067747948
 30
0.0
 10
9.6963358583
 20
53.7001407815
 30
0.0
 10
9.7233134856
 20
53.8373746141
 30
0.0
 10
9.75117786
 20
53.9682563102
 30
0.0
 10
9.7747224596
 20
54.0735689991
 30
0.0
 10
9.7915241625
 20
54.1557252079
 30
0.0
 10
9.8026297172
 20
54.2163743006
 30
0.0
 10
9.8114098322
 20
54.2780821605
 30
0.0
 10
9.8136617516
 20
54.319963789
 30
0.0
 10
9.8136617621
 20
54.3413594483
 30
0.0
  0
SPLINE
  5
2C2
100
AcDbEntity
  8
0
100
AcDbSpline
 62
7
  6
BYLAYER
 70
0
 71
3
 72
18
 73
14
 74
0
 42
0.0000001
 43
0.0000001
 44
0.0000000001
 40
0.0
 40
0.0
 40
0.0
 40
0.0
 40
0.1087755974
 40
0.2401871167
 40
0.3908283372
 40
0.549727083
 40
0.7033386545
 40
0.7731334397
 40
0.8355753621
 40
0.8891180455
 40
0.933457213
 40
0.9694416974
 40
1.0
 40
1.0
 40
1.0
 40
1.0
 10
9.8136567579
 20
61.105091646
 30
0.0
 10
9.8136561794
 20
61.1245352912
 30
0.0
 10
9.8085191657
 20
61.1674090253
 30
0.0
 10
9.792703927
 20
61.2354691638
 30
0.0
 10
9.7707009758
 20
61.3111996044
 30
0.0
 10
9.744293159
 20
61.3896726031
 30
0.0
 10
9.7200320226
 20
61.453605816
 30
0.0
 10
9.6990782352
 20
61.5002279495
 30
0.0
 10
9.6837141449
 20
61.5296977682
 30
0.0
 10
9.6682228916
 20
61.553878693
 30
0.0
 10
9.6525689024
 20
61.5721183459
 30
0.0
 10
9.6364507287
 20
61.5841157657
 30
0.0
 10
9.62443105
 20
61.5871141032
 30
0.0
 10
9.6189701822
 20
61.5869890857
 30
0.0
  0
SPLINE
  5
2C3
100
AcDbEntity
  8
0
100
AcDbSpline
 62
7
  6
BYLAYER
 70
0
 71
3
 72
29
 73
25
 74
0
 42
0.0000001
 43
0.0000001
 44
0.0000000001
 40
0.0
 40
0.0
 40
0.0
 40
0.0
 40
0.1951028678
 40
0.3827282506
 40
0.4714167718
 40
0.5555718338
 40
0.6344054515
 40
0.7071296437
 40
0.7729989733
 40
0.8314381721
 40
0.8819145308
 40
0.904000183
 40
0.9238953758
 40
0.9415408999
 40
0.9569070168
 40
0.9699713706
 40
0.9807116352
 40
0.9891055482
 40
0.9924157135
 40
0.9951310377
 40
0.9972488589
 40
0.9987666808
 40
0.9996826102
 40
1.0
 40
1.0
 40
1.0
 40
1.0
 10
9.617152745
 20
60.5870766461
 30
0.0
 10
9.617492901
 20
60.65210602
 30
0.0
 10
9.6181167909
 20
60.7796726917
 30
0.0
 10
9.6187769169
 20
60.9368005173
 30
0.0
 10
9.6192083559
 20
61.0569486301
 30
0.0
 10
9.6194728824
 20
61.1408354232
 30
0.0
 10
9.6196823848
 20
61.219401241
 30
0.0
 10
9.6198347946
 20
61.2918723123
 30
0.0
 10
9.619928187
 20
61.3575457594
 30
0.0
 10
9.6199624351
 20
61.415803782
 30
0.0
 10
9.6199417288
 20
61.4594681498
 30
0.0
 10
9.6198911101
 20
61.4902852858
 30
0.0
 10
9.6198399767
 20
61.5101594145
 30
0.0
 10
9.6197741814
 20
61.5277939263
 30
0.0
 10
9.6196937874
 20
61.5431511037
 30
0.0
 10
9.6196004778
 20
61.5562078604
 30
0.0
 10
9.6194919191
 20
61.5669368005
 30
0.0
 10
9.6193902315
 20
61.5744233503
 30
0.0
 10
9.6192891927
 20
61.5792189939
 30
0.0
 10
9.6192311425
 20
61.5819526004
 30
0.0
 10
9.6191320316
 20
61.5840159739
 30
0.0
 10
9.6191240983
 20
61.5856503879
 30
0.0
 10
9.6189427348
 20
61.5863544106
 30
0.0
 10
9.6190033803
 20
61.5869847313
 30
0.0
 10
9.6188976194
 20
61.5869872189
 30
0.0
  0
SPLINE
  5
2C4
100
AcDbEntity
  8
0
100
AcDbSpline
 62
7
  6
BYLAYER
 70
0
 71
3
 72
12
 73
8
 74
0
 42
0.0000001
 43
0.0000001
 44
0.0000000001
 40
0.0
 40
0.0
 40
0.0
 40
0.0
 40
0.0507717369
 40
0.1270546774
 40
0.3561253088
 40
0.6640926785
 40
1.0
 40
1.0
 40
1.0
 40
1.0
 10
9.4591275066
 20
34.92506893
 30
0.0
 10
9.4614171691
 20
34.9328755537
 30
0.0
 10
9.4675296728
 20
34.9522976458
 30
0.0
 10
9.4853768306
 20
35.0064987994
 30
0.0
 10
9.5173860199
 20
35.0994206126
 30
0.0
 10
9.5639137717
 20
35.2313326124
 30
0.0
 10
9.5988159824
 20
35.3284228476
 30
0.0
 10
9.6171521714
 20
35.3790278341
 30
0.0
  0
SPLINE
  5
2C5
100
AcDbEntity
  8
0
100
AcDbSpline
 62
7
  6
BYLAYER
 70
0
 71
3
 72
23
 73
19
 74
0
 42
0.0000001
 43
0.0000001
 44
0.0000000001
 40
0.0
 40
0.0
 40
0.0
 40
0.0
 40
0.0012765763
 40
0.0044610413
 40
0.0097512661
 40
0.0172406721
 40
0.0270085068
 40
0.0391300292
 40
0.0707279617
 40
0.1124225151
 40
0.163815736
 40
0.2243124374
 40
0.2933166282
 40
0.3700699393
 40
0.4531655051
 40
0.6321062509
 40
0.8179535808
 40
1.0
 40
1.0
 40
1.0
 40
1.0
 10
9.2507480277
 20
34.9472699262
 30
0.0
 10
9.2505352893
 20
34.9472753931
 30
0.0
 10
9.2502239483
 20
34.9482102072
 30
0.0
 10
9.249948285
 20
34.9496036564
 30
0.0
 10
9.249624046
 20
34.9523630115
 30
0.0
 10
9.2493397622
 20
34.9560594419
 30
0.0
 10
9.2490674953
 20
34.9609701285
 30
0.0
 10
9.2487151639
 20
34.9698698351
 30
0.0
 10
9.2483914344
 20
34.9841124381
 30
0.0
 10
9.2481657253
 20
35.0048937899
 30
0.0
 10
9.2480863532
 20
35.0304979382
 30
0.0
 10
9.2481624392
 20
35.060653094
 30
0.0
 10
9.2484020174
 20
35.0950356033
 30
0.0
 10
9.2488089814
 20
35.1331838739
 30
0.0
 10
9.2495761173
 20
35.1896558625
 30
0.0
 10
9.2508668712
 20
35.2643083655
 30
0.0
 10
9.2528068046
 20
35.355446657
 30
0.0
 10
9.2543137307
 20
35.4167571228
 30
0.0
 10
9.2551078692
 20
35.4470943499
 30
0.0
  0
ENDSEC
  0
SECTION
  2
OBJECTS
  0
DICTIONARY
  5
C
100
AcDbDictionary
280
0
281
1
  3
ACAD_GROUP
350
D
  3
ACAD_MLINESTYLE
350
17
  3
ACAD_LAYOUT
350
1A
  3
ACAD_PLOTSETTINGS
350
19
  3
ACAD_PLOTSTYLENAME
350
E
  0
DICTIONARY
  5
D
102
{ACAD_REACTORS
330
C
102
}
100
AcDbDictionary
280
0
281
1
  0
ACDBDICTIONARYWDFLT
  5
E
102
{ACAD_REACTORS
330
C
102
}
100
AcDbDictionary
281
1
  3
Normal
350
F
100
AcDbDictionaryWithDefault
340
F
  0
DICTIONARY
  5
17
102
{ACAD_REACTORS
330
C
102
}
100
AcDbDictionary
280
0
281
1
  3
Standard
350
18
  0
DICTIONARY
  5
19
102
{ACAD_REACTORS
330
C
102
}
100
AcDbDictionary
281
1
  0
DICTIONARY
  5
1A
102
{ACAD_REACTORS
330
C
102
}
100
AcDbDictionary
281
1
  3
Model
350
2C6
  3
Layout1
350
2C7
  0
ACDBPLACEHOLDER
  5
F
102
{ACAD_REACTORS
330
E
102
}
  0
MLINESTYLE
  5
18
102
{ACAD_REACTORS
330
17
102
}
100
AcDbMlineStyle
  2
STANDARD
 70
0
  3

 62
256
 51
90.0
 52
90.0
 71
2
 49
0.5
 62
256
  6
BYLAYER
 49
-0.5
 62
256
  6
BYLAYER
  0
LAYOUT
  5
2C6
102
{ACAD_REACTORS
330
1A
102
}
100
AcDbPlotSettings
  1

  2
none_device
  4

  6

 40
0.0
 41
0.0
 42
0.0
 43
0.0
 44
210.0
 45
297.0
 46
0.0
 47
0.0
 48
0.0
 49
0.0
140
0.0
141
0.0
142
1.0
143
1.0
 70
1024
 72
1
 73
0
 74
0
  7

 75
0
147
1.0
148
0.0
149
0.0
100
AcDbLayout
  1
Model
 70
0
 71
0
 10
0.0
 20
0.0
 11
210.0
 21
297.0
 12
0.0
 22
0.0
 32
0.0
 14
0.0
 24
0.0
 34
0.0
 15
0.0
 25
0.0
 35
0.0
146
0.0
 13
0.0
 23
0.0
 33
0.0
 16
1.0
 26
0.0
 36
0.0
 17
0.0
 27
1.0
 37
0.0
 76
0
330
210
345
0
346
0
  0
LAYOUT
  5
2C7
102
{ACAD_REACTORS
330
1A
102
}
100
AcDbPlotSettings
  1

  2
none_device
  4

  6

 40
0.0
 41
0.0
 42
0.0
 43
0.0
 44
210.0
 45
297.0
 46
0.0
 47
0.0
 48
0.0
 49
0.0
140
0.0
141
0.0
142
1.0
143
1.0
 70
0
 72
1
 73
0
 74
0
  7

 75
0
147
1.0
148
0.0
149
0.0
100
AcDbLayout
  1
Layout1
 70
0
 71
1
 10
0.0
 20
0.0
 11
210.0
 21
297.0
 12
0.0
 22
0.0
 32
0.0
 14
0.0
 24
0.0
 34
0.0
 15
0.0
 25
0.0
 35
0.0
146
0.0
 13
0.0
 23
0.0
 33
0.0
 16
1.0
 26
0.0
 36
0.0
 17
0.0
 27
1.0
 37
0.0
 76
0
330
211
345
0
346
0
  0
ENDSEC
  0
EOF
