999
DXF file: C:\Users\sesa63760\Dev\_Creo\CAD\MCADID0004479_3D-CAD\drw0001_1.dxf
999
Pro/ENGINEER 2019471 by Parametric Technology Corporation
  0
SECTION
  2
HEADER
  9
$ACADVER
  1
AC1024
  9
$DWGCODEPAGE
  3
ANSI_1252
  9
$EXTMAX
 10
96.375542137
 20
136.3025524509
 30
0.0
  9
$EXTMIN
 10
0.0
 20
0.0
 30
0.0
  9
$LIMMIN
 10
0.0
 20
0.0
  9
$LIMMAX
 10
96.375542137
 20
136.3025524509
  9
$VIEWCTR
 10
48.1877710685
 20
68.1512762254
  9
$VIEWSIZE
 40
136.3025524509
  9
$CLAYER
  8
0
  9
$LTSCALE
 40
8.8849071227
  9
$CELTYPE
  6
BYLAYER
  9
$DIMSCALE
 40
1.0
  9
$DIMASZ
 40
1.1473278826
  9
$DIMEXO
 40
1.0
  9
$DIMDLI
 40
6.138663103
  9
$DIMEXE
 40
1.0
  9
$DIMCEN
 40
1.4538938928
  9
$DIMLFAC
 40
1.0
  9
$DIMBLK
  1
_FILLED
  9
$DIMALT
 70
0
  9
$DIMALTF
 40
0.0393700787
  9
$DIMTXT
 40
1.6062590356
  9
$DIMTOL
 70
1
  9
$DIMLIM
 70
0
  9
$DIMTFAC
 40
1.0
  9
$DIMTP
 40
0.01
  9
$DIMTM
 40
0.01
  9
$DIMGAP
 40
0.625
  9
$DIMDSEP
 70
46
  9
$AUNITS
 70
0
  9
$PDMODE
 70
3
  9
$PDSIZE
 40
0.3125
  9
$HANDSEED
  5
280
  9
$TILEMODE
 70
1
  9
$MEASUREMENT
 70
1
  9
$INSUNITS
 70
4
  0
ENDSEC
  0
SECTION
  2
CLASSES
  0
CLASS
  1
ACDBDICTIONARYWDFLT
  2
AcDbDictionaryWithDefault
  3
AutoCAD 2000
 90
0
 91
1
280
0
281
0
  0
CLASS
  1
ACDBPLACEHOLDER
  2
AcDbPlaceHolder
  3
AutoCAD 2000
 90
0
 91
1
280
0
281
0
  0
CLASS
  1
LAYOUT
  2
AcDbLayout
  3
AutoCAD 2000
 90
0
 91
0
280
0
281
0
  0
ENDSEC
  0
SECTION
  2
TABLES
  0
TABLE
  2
VPORT
  5
8
100
AcDbSymbolTable
 70
2
  0
VPORT
  5
1F4
100
AcDbSymbolTableRecord
100
AcDbViewportTableRecord
  2
*ACTIVE
 70
0
 10
0.0
 20
0.0
 11
1.0
 21
1.0
 12
48.1877710685
 22
68.1512762254
 13
0.0
 23
0.0
 14
1.0
 24
1.0
 15
0.0
 25
0.0
 16
0.0
 26
0.0
 36
1.0
 17
0.0
 27
0.0
 37
0.0
 40
136.3025524509
 41
0.7070707071
 42
50.0
 43
0.0
 44
0.0
 50
0.0
 51
0.0
 71
0
 72
100
 73
1
 74
1
 75
0
 76
0
 77
0
 78
0
  0
ENDTAB
  0
TABLE
  2
LTYPE
  5
5
100
AcDbSymbolTable
 70
6
  0
LTYPE
  5
14
100
AcDbSymbolTableRecord
100
AcDbLinetypeTableRecord
  2
BYBLOCK
 70
0
  3

 72
65
 73
0
 40
0.0
  0
LTYPE
  5
15
100
AcDbSymbolTableRecord
100
AcDbLinetypeTableRecord
  2
BYLAYER
 70
0
  3

 72
65
 73
0
 40
0.0
  0
LTYPE
  5
16
100
AcDbSymbolTableRecord
100
AcDbLinetypeTableRecord
  2
CONTINUOUS
 70
64
  3
Solid line
 72
65
 73
0
 40
0.0
  0
LTYPE
  5
1F5
100
AcDbSymbolTableRecord
100
AcDbLinetypeTableRecord
  2
CENTER
 70
64
  3
____ _ ____ _ ____ _ ____ _ ____ _ ____ _ ____
 72
65
 73
4
 40
0.6
 49
0.375
 74
0
 49
-0.075
 74
0
 49
0.075
 74
0
 49
-0.075
 74
0
  0
LTYPE
  5
1F6
100
AcDbSymbolTableRecord
100
AcDbLinetypeTableRecord
  2
HIDDEN
 70
64
  3
- - - - - - - - - - - - - - - - - - - -
 72
65
 73
2
 40
0.2
 49
0.1
 74
0
 49
-0.1
 74
0
  0
LTYPE
  5
1F7
100
AcDbSymbolTableRecord
100
AcDbLinetypeTableRecord
  2
PHANTOM
 70
64
  3
_____ _ _ _____ _ _ _____ _ _ _____
 72
65
 73
6
 40
0.8
 49
0.45
 74
0
 49
-0.05
 74
0
 49
0.1
 74
0
 49
-0.05
 74
0
 49
0.1
 74
0
 49
-0.05
 74
0
  0
LTYPE
  5
1F8
100
AcDbSymbolTableRecord
100
AcDbLinetypeTableRecord
  2
DOT
 70
64
  3
. . . . . . . . . . . . . . . . . . . .
 72
65
 73
2
 40
0.2
 49
0.1
 74
0
 49
-0.1
 74
0
  0
LTYPE
  5
1F9
100
AcDbSymbolTableRecord
100
AcDbLinetypeTableRecord
  2
DASHED
 70
64
  3
- - - - - - - - - - - - - - - - - - - -
 72
65
 73
2
 40
0.2
 49
0.1
 74
0
 49
-0.1
 74
0
  0
ENDTAB
  0
TABLE
  2
LAYER
  5
2
100
AcDbSymbolTable
 70
36
  0
LAYER
  5
10
100
AcDbSymbolTableRecord
100
AcDbLayerTableRecord
  2
0
 70
0
 62
7
  6
CONTINUOUS
370
-3
390
F
  0
LAYER
  5
1FA
100
AcDbSymbolTableRecord
100
AcDbLayerTableRecord
  2
DEFAULT_1
 70
0
 62
7
  6
CENTER
370
-3
390
F
  0
LAYER
  5
1FB
100
AcDbSymbolTableRecord
100
AcDbLayerTableRecord
  2
DEFAULT_2
 70
0
 62
7
  6
HIDDEN
370
-3
390
F
  0
LAYER
  5
1FC
100
AcDbSymbolTableRecord
100
AcDbLayerTableRecord
  2
DEFAULT_3
 70
0
 62
7
  6
PHANTOM
370
-3
390
F
  0
LAYER
  5
1FD
100
AcDbSymbolTableRecord
100
AcDbLayerTableRecord
  2
00_COMPONENTS
 70
0
 62
7
  6
CONTINUOUS
370
-3
390
F
  0
LAYER
  5
1FE
100
AcDbSymbolTableRecord
100
AcDbLayerTableRecord
  2
01_1_DEFAULT_DATUMS
 70
0
 62
7
  6
CONTINUOUS
370
-3
390
F
  0
LAYER
  5
1FF
100
AcDbSymbolTableRecord
100
AcDbLayerTableRecord
  2
01_PLANES
 70
0
 62
7
  6
CONTINUOUS
370
-3
390
F
  0
LAYER
  5
200
100
AcDbSymbolTableRecord
100
AcDbLayerTableRecord
  2
02_COORD_SYS
 70
0
 62
7
  6
CONTINUOUS
370
-3
390
F
  0
LAYER
  5
201
100
AcDbSymbolTableRecord
100
AcDbLayerTableRecord
  2
03_AXES
 70
0
 62
7
  6
CONTINUOUS
370
-3
390
F
  0
LAYER
  5
202
100
AcDbSymbolTableRecord
100
AcDbLayerTableRecord
  2
04_POINTS
 70
0
 62
7
  6
CONTINUOUS
370
-3
390
F
  0
LAYER
  5
203
100
AcDbSymbolTableRecord
100
AcDbLayerTableRecord
  2
05_CURVES
 70
0
 62
7
  6
CONTINUOUS
370
-3
390
F
  0
LAYER
  5
204
100
AcDbSymbolTableRecord
100
AcDbLayerTableRecord
  2
06_SURFS
 70
0
 62
7
  6
CONTINUOUS
370
-3
390
F
  0
LAYER
  5
205
100
AcDbSymbolTableRecord
100
AcDbLayerTableRecord
  2
07_COSMETICS
 70
0
 62
7
  6
CONTINUOUS
370
-3
390
F
  0
LAYER
  5
206
100
AcDbSymbolTableRecord
100
AcDbLayerTableRecord
  2
10_NOTES
 70
0
 62
7
  6
CONTINUOUS
370
-3
390
F
  0
LAYER
  5
207
100
AcDbSymbolTableRecord
100
AcDbLayerTableRecord
  2
11_NOTES_PUB
 70
0
 62
7
  6
CONTINUOUS
370
-3
390
F
  0
LAYER
  5
208
100
AcDbSymbolTableRecord
100
AcDbLayerTableRecord
  2
13_REF_GTOL
 70
0
 62
7
  6
CONTINUOUS
370
-3
390
F
  0
LAYER
  5
209
100
AcDbSymbolTableRecord
100
AcDbLayerTableRecord
  2
16_MISC
 70
0
 62
7
  6
CONTINUOUS
370
-3
390
F
  0
LAYER
  5
20A
100
AcDbSymbolTableRecord
100
AcDbLayerTableRecord
  2
17_NO_PRINT
 70
0
 62
7
  6
CONTINUOUS
370
-3
390
F
  0
LAYER
  5
20B
100
AcDbSymbolTableRecord
100
AcDbLayerTableRecord
  2
18_DATUM_CAMS_JOINTS
 70
0
 62
7
  6
CONTINUOUS
370
-3
390
F
  0
LAYER
  5
20C
100
AcDbSymbolTableRecord
100
AcDbLayerTableRecord
  2
19_DATUM_FUNCTIONAL
 70
0
 62
7
  6
CONTINUOUS
370
-3
390
F
  0
LAYER
  5
20D
100
AcDbSymbolTableRecord
100
AcDbLayerTableRecord
  2
20_DATUM_KINEMATIC_SCHEME
 70
0
 62
7
  6
CONTINUOUS
370
-3
390
F
  0
ENDTAB
  0
TABLE
  2
STYLE
  5
3
100
AcDbSymbolTable
 70
1
  0
STYLE
  5
11
100
AcDbSymbolTableRecord
100
AcDbTextStyleTableRecord
  2
STANDARD
 70
0
 40
0.0
 41
1.0
 50
0.0
 71
0
 42
0.2
  3
ARIAL.TTF
  4

  0
STYLE
  5
20E
100
AcDbSymbolTableRecord
100
AcDbTextStyleTableRecord
  2
TEXTSTYLE_1
 70
0
 40
0.0
 41
0.8
 50
0.0
 71
0
 42
0.2
  3
gdt
  4

  0
ENDTAB
  0
TABLE
  2
VIEW
  5
6
100
AcDbSymbolTable
 70
0
  0
ENDTAB
  0
TABLE
  2
UCS
  5
7
100
AcDbSymbolTable
 70
0
  0
ENDTAB
  0
TABLE
  2
APPID
  5
9
100
AcDbSymbolTable
 70
1
  0
APPID
  5
20F
100
AcDbSymbolTableRecord
100
AcDbRegAppTableRecord
  2
ACAD
 70
0
  0
ENDTAB
  0
TABLE
  2
BLOCK_RECORD
  5
1
100
AcDbSymbolTable
 70
0
  0
BLOCK_RECORD
  5
210
100
AcDbSymbolTableRecord
100
AcDbBlockTableRecord
  2
*Model_Space
  0
BLOCK_RECORD
  5
211
100
AcDbSymbolTableRecord
100
AcDbBlockTableRecord
  2
*Paper_Space
  0
BLOCK_RECORD
  5
212
100
AcDbSymbolTableRecord
100
AcDbBlockTableRecord
  2
_FILLED
  0
ENDTAB
  0
TABLE
  2
DIMSTYLE
  5
A
100
AcDbSymbolTable
 70
1
100
AcDbDimStyleTable
 71
0
  0
DIMSTYLE
105
213
100
AcDbSymbolTableRecord
100
AcDbDimStyleTableRecord
  2
STANDARD
 70
0
  3

  4

 40
1.0
 41
1.1473278826
 42
1.0
 43
0.38
 44
1.0
 45
0.0
 46
0.0
 47
0.01
 48
0.01
140
1.6062590356
141
0.09
142
0.0
143
25.4
144
1.0
145
0.0
146
1.0
147
0.625
 71
1
 72
0
 73
0
 74
0
 75
0
 76
0
 77
1
 78
8
 79
2
170
0
171
1
172
0
173
0
174
0
175
0
176
0
177
0
178
0
270
2
179
2
271
2
272
2
273
2
274
2
275
0
280
0
281
0
282
0
283
1
284
8
285
0
286
0
287
3
288
0
340
11
278
46
341
212
342
212
343
212
344
212
  0
ENDTAB
  0
ENDSEC
  0
SECTION
  2
BLOCKS
  0
BLOCK
  5
20
100
AcDbEntity
  8
0
100
AcDbBlockBegin
  2
*Model_Space
 70
0
 10
0.0
 20
0.0
 30
0.0
  3
*Model_Space
  1

  0
ENDBLK
  5
21
100
AcDbEntity
  8
0
100
AcDbBlockEnd
  0
BLOCK
  5
1C
100
AcDbEntity
  8
0
100
AcDbBlockBegin
  2
*Paper_Space
 70
0
 10
0.0
 20
0.0
 30
0.0
  3
*Paper_Space
  1

  0
ENDBLK
  5
1D
100
AcDbEntity
  8
0
100
AcDbBlockEnd
  0
BLOCK
  5
214
100
AcDbEntity
  8
0
100
AcDbBlockBegin
  2
_FILLED
 70
64
 10
0.0
 20
0.0
  3
_FILLED
  1

  0
SOLID
  5
215
100
AcDbEntity
  8
0
  6
BYBLOCK
 62
0
100
AcDbTrace
 10
0.0
 20
0.0
 11
-1.0
 21
0.25
 12
-1.0
 22
-0.25
 13
-1.0
 23
-0.25
  0
ENDBLK
  5
216
100
AcDbEntity
  8
0
  6
BYBLOCK
 62
0
100
AcDbBlockEnd
  0
ENDSEC
  0
SECTION
  2
ENTITIES
  0
LINE
  5
217
100
AcDbEntity
  8
0
100
AcDbLine
 62
7
  6
BYLAYER
 10
45.363212788
 20
11.3568820794
 11
44.869685808
 21
11.6418281609
  0
LINE
  5
218
100
AcDbEntity
  8
0
100
AcDbLine
 62
7
  6
BYLAYER
 10
43.3594601208
 20
120.3352339816
 11
44.8537293561
 21
123.5549442985
  0
LINE
  5
219
100
AcDbEntity
  8
0
100
AcDbLine
 62
7
  6
BYLAYER
 10
45.363212788
 20
44.0169787646
 11
44.6934975951
 21
44.4036500666
  0
LINE
  5
21A
100
AcDbEntity
  8
0
100
AcDbLine
 62
7
  6
BYLAYER
 10
54.5129983945
 20
122.0606964251
 11
53.0187291593
 21
118.8409861082
  0
LINE
  5
21B
100
AcDbEntity
  8
0
100
AcDbLine
 62
7
  6
BYLAYER
 10
37.1362292577
 20
25.2181060698
 11
37.1362292577
 21
27.3410123543
  0
LINE
  5
21C
100
AcDbEntity
  8
0
100
AcDbLine
 62
7
  6
BYLAYER
 10
37.1362292577
 20
29.8721698474
 11
37.1362292577
 21
31.9950761319
  0
LINE
  5
21D
100
AcDbEntity
  8
0
100
AcDbLine
 62
7
  6
BYLAYER
 10
38.8422771199
 20
38.5917688829
 11
38.8422771199
 21
31.0935224631
  0
LINE
  5
21E
100
AcDbEntity
  8
0
100
AcDbLine
 62
7
  6
BYLAYER
 10
38.8422771199
 20
21.7972510214
 11
38.8422771199
 21
15.4983262959
  0
LINE
  5
21F
100
AcDbEntity
  8
0
100
AcDbLine
 62
7
  6
BYLAYER
 10
39.9362292577
 20
111.7265371646
 11
39.9362292577
 21
120.8142090673
  0
LINE
  5
220
100
AcDbEntity
  8
0
100
AcDbLine
 62
7
  6
BYLAYER
 10
42.9362292577
 20
46.8530522667
 11
42.9362292577
 21
107.91133842
  0
LINE
  5
221
100
AcDbEntity
  8
0
100
AcDbLine
 62
7
  6
BYLAYER
 10
44.8537293561
 20
123.5549442985
 11
44.8537293561
 21
119.4725367532
  0
LINE
  5
222
100
AcDbEntity
  8
0
100
AcDbLine
 62
7
  6
BYLAYER
 10
46.2316019418
 20
34.3256367207
 11
46.2316019418
 21
26.8273903009
  0
LINE
  5
223
100
AcDbEntity
  8
0
100
AcDbLine
 62
7
  6
BYLAYER
 10
46.2316019418
 20
18.6327643114
 11
46.2316019418
 21
11.2321941337
  0
LINE
  5
224
100
AcDbEntity
  8
0
100
AcDbLine
 62
7
  6
BYLAYER
 10
50.4304984929
 20
124.4176755203
 11
50.4304984929
 21
119.5186610175
  0
LINE
  5
225
100
AcDbEntity
  8
0
100
AcDbLine
 62
7
  6
BYLAYER
 10
54.9362292577
 20
46.8530522667
 11
54.9362292577
 21
107.9120384683
  0
LINE
  5
226
100
AcDbEntity
  8
0
100
AcDbLine
 62
7
  6
BYLAYER
 10
56.3255540796
 20
35.8871802321
 11
56.3255540796
 21
28.3889338123
  0
LINE
  5
227
100
AcDbEntity
  8
0
100
AcDbLine
 62
7
  6
BYLAYER
 10
56.3255540796
 20
19.9203491379
 11
56.3255540796
 21
12.7937376451
  0
LINE
  5
228
100
AcDbEntity
  8
0
100
AcDbLine
 62
7
  6
BYLAYER
 10
57.9362292577
 20
111.7265371646
 11
57.9362292577
 21
120.8142090673
  0
LINE
  5
229
100
AcDbEntity
  8
0
100
AcDbLine
 62
7
  6
BYLAYER
 10
59.0301813954
 20
41.7148559058
 11
59.0301813954
 21
34.2166094859
  0
LINE
  5
22A
100
AcDbEntity
  8
0
100
AcDbLine
 62
7
  6
BYLAYER
 10
59.0301813954
 20
21.8123383205
 11
59.0301813954
 21
18.6214133188
  0
LINE
  5
22B
100
AcDbEntity
  8
0
100
AcDbLine
 62
7
  6
BYLAYER
 10
60.7362292577
 20
25.2181060698
 11
60.7362292577
 21
27.3410123543
  0
LINE
  5
22C
100
AcDbEntity
  8
0
100
AcDbLine
 62
7
  6
BYLAYER
 10
60.7362292577
 20
29.8721698474
 11
60.7362292577
 21
31.9950761319
  0
LINE
  5
22D
100
AcDbEntity
  8
0
100
AcDbLine
 62
7
  6
BYLAYER
 10
53.1788876085
 20
44.4036077396
 11
52.5091839879
 21
44.0169431189
  0
LINE
  5
22E
100
AcDbEntity
  8
0
100
AcDbLine
 62
7
  6
BYLAYER
 10
43.3594601208
 20
120.3352339816
 11
47.4419600224
 21
117.9782548864
  0
LINE
  5
22F
100
AcDbEntity
  8
0
100
AcDbLine
 62
7
  6
BYLAYER
 10
50.4304984929
 20
119.5186610175
 11
51.9032039633
 21
118.6684133529
  0
LINE
  5
230
100
AcDbEntity
  8
0
100
AcDbLine
 62
7
  6
BYLAYER
 10
53.1788876085
 20
11.7435110544
 11
52.5091839879
 21
11.3568464337
  0
LINE
  5
231
100
AcDbEntity
  8
0
100
AcDbLine
 62
7
  6
BYLAYER
 10
53.0187291593
 20
118.8409861082
 11
47.4419600224
 21
117.9782548864
  0
LINE
  5
232
100
AcDbEntity
  8
0
100
AcDbLine
 62
7
  6
BYLAYER
 10
50.4304984929
 20
119.5186610175
 11
45.9692545521
 21
118.828502551
  0
LINE
  5
233
100
AcDbEntity
  8
0
100
AcDbLine
 62
7
  6
BYLAYER
 10
54.5129983945
 20
122.0606964251
 11
50.4304984929
 21
124.4176755203
  0
LINE
  5
234
100
AcDbEntity
  8
0
100
AcDbLine
 62
7
  6
BYLAYER
 10
44.8537293561
 20
123.5549442985
 11
50.4304984929
 21
124.4176755203
  0
ARC
  5
235
100
AcDbEntity
  8
0
100
AcDbCircle
 62
7
  6
BYLAYER
 10
48.0811736003
 20
31.9443805909
 40
14.5075099219
100
AcDbArc
 50
59.9973074211
 51
61.8051482117
  0
ARC
  5
236
100
AcDbEntity
  8
0
100
AcDbCircle
 62
7
  6
BYLAYER
 10
47.0078212233
 20
36.7549629612
 40
8.9496926601
100
AcDbArc
 50
117.3099760877
 51
119.971090038
  0
ARC
  5
237
100
AcDbEntity
  8
0
100
AcDbCircle
 62
7
  6
BYLAYER
 10
50.9249797922
 20
36.8654379411
 40
8.8238462759
100
AcDbArc
 50
60.0103760106
 51
62.7090827598
  0
ARC
  5
238
100
AcDbEntity
  8
0
100
AcDbCircle
 62
7
  6
BYLAYER
 10
46.7663464115
 20
117.9888315383
 40
7.7258276992
100
AcDbArc
 50
119.9901462225
 51
122.9375298792
  0
ARC
  5
239
100
AcDbEntity
  8
0
100
AcDbCircle
 62
7
  6
BYLAYER
 10
51.1432545501
 20
118.0473697533
 40
7.6565171521
100
AcDbArc
 50
57.1237974992
 51
60.0309160755
  0
ARC
  5
23A
100
AcDbEntity
  8
0
100
AcDbCircle
 62
7
  6
BYLAYER
 10
51.4839710245
 20
118.5709480406
 40
7.0318429555
100
AcDbArc
 50
54.4978207521
 51
57.139583745
  0
ARC
  5
23B
100
AcDbEntity
  8
0
100
AcDbCircle
 62
7
  6
BYLAYER
 10
47.9811340638
 20
17.5301349944
 40
6.6564340328
100
AcDbArc
 50
243.1841488239
 51
246.9325874375
  0
ARC
  5
23C
100
AcDbEntity
  8
0
100
AcDbCircle
 62
7
  6
BYLAYER
 10
44.954745725
 20
46.0791170988
 40
2.0184752338
100
AcDbArc
 50
171.2982357885
 51
179.9822382635
  0
SPLINE
  5
23D
100
AcDbEntity
  8
0
100
AcDbSpline
 62
7
  6
BYLAYER
 70
0
 71
3
 72
27
 73
23
 74
0
 42
0.0000001
 43
0.0000001
 44
0.0000000001
 40
0.0
 40
0.0
 40
0.0
 40
0.0
 40
0.0623774089
 40
0.128707607
 40
0.198293135
 40
0.2702616534
 40
0.3436311604
 40
0.4173549951
 40
0.4903716081
 40
0.5616506622
 40
0.6302409314
 40
0.6953219011
 40
0.7562632259
 40
0.8126946183
 40
0.8392170274
 40
0.864637426
 40
0.889021321
 40
0.9124681611
 40
0.935110073
 40
0.9571127676
 40
0.9786705921
 40
1.0
 40
1.0
 40
1.0
 40
1.0
 10
57.2801240144
 20
20.4008651664
 30
0.0
 10
56.856165371
 20
20.1560939906
 30
0.0
 10
55.9476401275
 20
19.7081339492
 30
0.0
 10
54.4820539647
 20
19.1771192808
 30
0.0
 10
52.8982925513
 20
18.7750461658
 30
0.0
 10
51.230193089
 20
18.5105495375
 30
0.0
 10
49.5131624858
 20
18.3891635395
 30
0.0
 10
47.7838265496
 20
18.4134975457
 30
0.0
 10
46.0790748436
 20
18.5830224996
 30
0.0
 10
44.4352254187
 20
18.8941415323
 30
0.0
 10
42.8872239896
 20
19.3402642303
 30
0.0
 10
41.4677171123
 20
19.9121445786
 30
0.0
 10
40.2068037215
 20
20.5979132655
 30
0.0
 10
39.2913856258
 20
21.2668096148
 30
0.0
 10
38.6690683246
 20
21.8478535793
 30
0.0
 10
38.2672695919
 20
22.2932278248
 30
0.0
 10
37.9231289292
 20
22.7548490656
 30
0.0
 10
37.6385297333
 20
23.2302760373
 30
0.0
 10
37.4152573997
 20
23.7170340835
 30
0.0
 10
37.2546501336
 20
24.2124775683
 30
0.0
 10
37.1578501184
 20
24.7137404429
 30
0.0
 10
37.1362330432
 20
25.0507106008
 30
0.0
 10
37.1362385604
 20
25.218106064
 30
0.0
  0
SPLINE
  5
23E
100
AcDbEntity
  8
0
100
AcDbSpline
 62
7
  6
BYLAYER
 70
0
 71
3
 72
9
 73
5
 74
0
 42
0.0000001
 43
0.0000001
 44
0.0000000001
 40
0.0
 40
0.0
 40
0.0
 40
0.0
 40
0.5038262389
 40
1.0
 40
1.0
 40
1.0
 40
1.0
 10
37.3210351138
 20
28.541959726
 30
0.0
 10
37.2604070351
 20
28.3465007653
 30
0.0
 10
37.1676665251
 20
27.9493294208
 30
0.0
 10
37.136244983
 20
27.5425499965
 30
0.0
 10
37.1362382646
 20
27.3410123469
 30
0.0
  0
SPLINE
  5
23F
100
AcDbEntity
  8
0
100
AcDbSpline
 62
7
  6
BYLAYER
 70
0
 71
3
 72
15
 73
11
 74
0
 42
0.0000001
 43
0.0000001
 44
0.0000000001
 40
0.0
 40
0.0
 40
0.0
 40
0.0
 40
0.1080119576
 40
0.2180607746
 40
0.3319973919
 40
0.4513553698
 40
0.5772763908
 40
0.7104918792
 40
0.8514098868
 40
1.0
 40
1.0
 40
1.0
 40
1.0
 10
60.7362199549
 20
25.2181060755
 30
0.0
 10
60.7362125923
 20
24.9947186195
 30
0.0
 10
60.697438316
 20
24.54282314
 30
0.0
 10
60.5242662064
 20
23.8753647899
 30
0.0
 10
60.2384564665
 20
23.2222802521
 30
0.0
 10
59.843601102
 20
22.5901850655
 30
0.0
 10
59.344145877
 20
21.9848244405
 30
0.0
 10
58.7452186582
 20
21.4115260178
 30
0.0
 10
58.0527692892
 20
20.8755564039
 30
0.0
 10
57.5462627803
 20
20.5545195374
 30
0.0
 10
57.2801240144
 20
20.4008651664
 30
0.0
  0
SPLINE
  5
240
100
AcDbEntity
  8
0
100
AcDbSpline
 62
7
  6
BYLAYER
 70
0
 71
3
 72
9
 73
5
 74
0
 42
0.0000001
 43
0.0000001
 44
0.0000000001
 40
0.0
 40
0.0
 40
0.0
 40
0.0
 40
0.4952300146
 40
1.0
 40
1.0
 40
1.0
 40
1.0
 10
60.7362202508
 20
27.3410123617
 30
0.0
 10
60.7362277809
 20
27.5668984849
 30
0.0
 10
60.6965496197
 20
28.0238530038
 30
0.0
 10
60.5801975254
 20
28.4672790992
 30
0.0
 10
60.5044279209
 20
28.6846918107
 30
0.0
  0
SPLINE
  5
241
100
AcDbEntity
  8
0
100
AcDbSpline
 62
7
  6
BYLAYER
 70
0
 71
3
 72
15
 73
11
 74
0
 42
0.0000001
 43
0.0000001
 44
0.0000000001
 40
0.0
 40
0.0
 40
0.0
 40
0.0
 40
0.1485900553
 40
0.2895075627
 40
0.4227228343
 40
0.5486437817
 40
0.668001727
 40
0.7819385004
 40
0.8919876349
 40
1.0
 40
1.0
 40
1.0
 40
1.0
 10
57.2801240144
 20
22.523771451
 30
0.0
 10
57.5462626835
 20
22.677425766
 30
0.0
 10
58.0527683927
 20
22.9984617643
 30
0.0
 10
58.7452164797
 20
23.534430474
 30
0.0
 10
59.3441426164
 20
24.1077276263
 30
0.0
 10
59.8435984937
 20
24.7130868563
 30
0.0
 10
60.2384544407
 20
25.3451818775
 30
0.0
 10
60.5242647654
 20
25.9982671483
 30
0.0
 10
60.6974382617
 20
26.6657270484
 30
0.0
 10
60.7362128039
 20
27.1176240569
 30
0.0
 10
60.7362202508
 20
27.3410123617
 30
0.0
  0
SPLINE
  5
242
100
AcDbEntity
  8
0
100
AcDbSpline
 62
7
  6
BYLAYER
 70
0
 71
3
 72
27
 73
23
 74
0
 42
0.0000001
 43
0.0000001
 44
0.0000000001
 40
0.0
 40
0.0
 40
0.0
 40
0.0
 40
0.0213294531
 40
0.0428873217
 40
0.0648900668
 40
0.0875320337
 40
0.1109789467
 40
0.1353629256
 40
0.1607834222
 40
0.1873059266
 40
0.2437374631
 40
0.3046787784
 40
0.3697595701
 40
0.438349581
 40
0.5096283876
 40
0.5826447763
 40
0.6563683886
 40
0.729737751
 40
0.8017063009
 40
0.8712919947
 40
0.93762243
 40
1.0
 40
1.0
 40
1.0
 40
1.0
 10
37.1362382646
 20
27.3410123469
 30
0.0
 10
37.1362326843
 20
27.1736165291
 30
0.0
 10
37.1578505443
 20
26.8366457236
 30
0.0
 10
37.254650214
 20
26.3353816706
 30
0.0
 10
37.4152587686
 20
25.8399373369
 30
0.0
 10
37.6385317057
 20
25.3531780382
 30
0.0
 10
37.9231326015
 20
24.8777501219
 30
0.0
 10
38.2672748145
 20
24.4161275442
 30
0.0
 10
38.6690758598
 20
23.9707524357
 30
0.0
 10
39.2913957512
 20
23.389707373
 30
0.0
 10
40.2068164406
 20
22.7208114547
 30
0.0
 10
41.4677303983
 20
22.0350445871
 30
0.0
 10
42.8872345829
 20
21.4631669716
 30
0.0
 10
44.4352310756
 20
21.0170466255
 30
0.0
 10
46.0790749076
 20
20.7059289589
 30
0.0
 10
47.7838211525
 20
20.5364043052
 30
0.0
 10
49.5131524247
 20
20.5120696772
 30
0.0
 10
51.2301804722
 20
20.633454418
 30
0.0
 10
52.8982805221
 20
20.8979499831
 30
0.0
 10
54.4820455631
 20
21.3000227556
 30
0.0
 10
55.9476360941
 20
21.8310384437
 30
0.0
 10
56.8561642751
 20
22.2789996424
 30
0.0
 10
57.2801240144
 20
22.523771451
 30
0.0
  0
SPLINE
  5
243
100
AcDbEntity
  8
0
100
AcDbSpline
 62
7
  6
BYLAYER
 70
0
 71
3
 72
11
 73
7
 74
0
 42
0.0000001
 43
0.0000001
 44
0.0000000001
 40
0.0
 40
0.0
 40
0.0
 40
0.0
 40
0.25169685
 40
0.5026626495
 40
0.7523296886
 40
1.0
 40
1.0
 40
1.0
 40
1.0
 10
56.3255540796
 20
12.7937376451
 30
0.0
 10
55.9156845113
 20
12.6303145101
 30
0.0
 10
55.0907744502
 20
12.3194962879
 30
0.0
 10
53.8350989435
 20
11.9140505396
 30
0.0
 10
52.564870035
 20
11.5830494315
 30
0.0
 10
51.707663388
 20
11.4193559422
 30
0.0
 10
51.2785780107
 20
11.3529760468
 30
0.0
  0
SPLINE
  5
244
100
AcDbEntity
  8
0
100
AcDbSpline
 62
7
  6
BYLAYER
 70
0
 71
3
 72
11
 73
7
 74
0
 42
0.0000001
 43
0.0000001
 44
0.0000000001
 40
0.0
 40
0.0
 40
0.0
 40
0.0
 40
0.2936016986
 40
0.5559374547
 40
0.7899377057
 40
1.0
 40
1.0
 40
1.0
 40
1.0
 10
57.6778677375
 20
15.0475856393
 30
0.0
 10
57.5693252135
 20
14.8137084532
 30
0.0
 10
57.3539141591
 20
14.3753003789
 30
0.0
 10
57.0131779327
 20
13.7705641885
 30
0.0
 10
56.6750725276
 20
13.2499449946
 30
0.0
 10
56.4411319403
 20
12.9375166605
 30
0.0
 10
56.3255540796
 20
12.7937376451
 30
0.0
  0
SPLINE
  5
245
100
AcDbEntity
  8
0
100
AcDbSpline
 62
7
  6
BYLAYER
 70
0
 71
3
 72
11
 73
7
 74
0
 42
0.0000001
 43
0.0000001
 44
0.0000000001
 40
0.0
 40
0.0
 40
0.0
 40
0.0
 40
0.2727720738
 40
0.5326331127
 40
0.7761317916
 40
1.0
 40
1.0
 40
1.0
 40
1.0
 10
59.0301813954
 20
18.6214133188
 30
0.0
 10
58.9223731576
 20
18.2909368815
 30
0.0
 10
58.7068794002
 20
17.6472277847
 30
0.0
 10
58.3729031774
 20
16.7161211978
 30
0.0
 10
58.0354364637
 20
15.8528231455
 30
0.0
 10
57.7979689419
 20
15.3063683792
 30
0.0
 10
57.6778677375
 20
15.0475856393
 30
0.0
  0
SPLINE
  5
246
100
AcDbEntity
  8
0
100
AcDbSpline
 62
7
  6
BYLAYER
 70
0
 71
3
 72
11
 73
7
 74
0
 42
0.0000001
 43
0.0000001
 44
0.0000000001
 40
0.0
 40
0.0
 40
0.0
 40
0.0
 40
0.2359161668
 40
0.4801638498
 40
0.7344520766
 40
1.0
 40
1.0
 40
1.0
 40
1.0
 10
46.2316019418
 20
11.2321941337
 30
0.0
 10
45.9267317685
 20
11.306583334
 30
0.0
 10
45.3104329697
 20
11.476117394
 30
0.0
 10
44.3873327086
 20
11.7985081783
 30
0.0
 10
43.4544155068
 20
12.2042807668
 30
0.0
 10
42.8428479142
 20
12.5286580803
 30
0.0
 10
42.5369395309
 20
12.7052703722
 30
0.0
  0
SPLINE
  5
247
100
AcDbEntity
  8
0
100
AcDbSpline
 62
7
  6
BYLAYER
 70
0
 71
3
 72
11
 73
7
 74
0
 42
0.0000001
 43
0.0000001
 44
0.0000000001
 40
0.0
 40
0.0
 40
0.0
 40
0.0
 40
0.2546620059
 40
0.5061768175
 40
0.7545331597
 40
1.0
 40
1.0
 40
1.0
 40
1.0
 10
51.2785780107
 20
11.3529760468
 30
0.0
 10
50.854064301
 20
11.2873033925
 30
0.0
 10
50.0054218954
 20
11.1861420537
 30
0.0
 10
48.7333380684
 20
11.123215925
 30
0.0
 10
47.4755056161
 20
11.1395900287
 30
0.0
 10
46.6440132532
 20
11.1953583599
 30
0.0
 10
46.2316019418
 20
11.2321941337
 30
0.0
  0
SPLINE
  5
248
100
AcDbEntity
  8
0
100
AcDbSpline
 62
7
  6
BYLAYER
 70
0
 71
3
 72
11
 73
7
 74
0
 42
0.0000001
 43
0.0000001
 44
0.0000000001
 40
0.0
 40
0.0
 40
0.0
 40
0.0
 40
0.2381644744
 40
0.4852570595
 40
0.7397461291
 40
1.0
 40
1.0
 40
1.0
 40
1.0
 10
42.5369395309
 20
12.7052703722
 30
0.0
 10
42.2179288531
 20
12.8894471063
 30
0.0
 10
41.581824701
 20
13.2891469148
 30
0.0
 10
40.654217611
 20
13.9599865092
 30
0.0
 10
39.7373313683
 20
14.7007791978
 30
0.0
 10
39.1398868962
 20
15.2273015438
 30
0.0
 10
38.8422771199
 20
15.4983262959
 30
0.0
  0
SPLINE
  5
249
100
AcDbEntity
  8
0
100
AcDbSpline
 62
7
  6
BYLAYER
 70
0
 71
3
 72
27
 73
23
 74
0
 42
0.0000001
 43
0.0000001
 44
0.0000000001
 40
0.0
 40
0.0
 40
0.0
 40
0.0
 40
0.0623774089
 40
0.128707607
 40
0.198293135
 40
0.2702616534
 40
0.3436311604
 40
0.4173549951
 40
0.4903716081
 40
0.5616506622
 40
0.6302409314
 40
0.6953219011
 40
0.7562632259
 40
0.8126946183
 40
0.8392170274
 40
0.864637426
 40
0.889021321
 40
0.9124681611
 40
0.935110073
 40
0.9571127676
 40
0.9786705921
 40
1.0
 40
1.0
 40
1.0
 40
1.0
 10
57.2801240144
 20
25.0549289441
 30
0.0
 10
56.856165371
 20
24.8101577683
 30
0.0
 10
55.9476401275
 20
24.3621977268
 30
0.0
 10
54.4820539647
 20
23.8311830584
 30
0.0
 10
52.8982925513
 20
23.4291099434
 30
0.0
 10
51.230193089
 20
23.1646133151
 30
0.0
 10
49.5131624858
 20
23.0432273172
 30
0.0
 10
47.7838265496
 20
23.0675613233
 30
0.0
 10
46.0790748436
 20
23.2370862773
 30
0.0
 10
44.4352254187
 20
23.5482053099
 30
0.0
 10
42.8872239896
 20
23.9943280079
 30
0.0
 10
41.4677171123
 20
24.5662083562
 30
0.0
 10
40.2068037215
 20
25.2519770431
 30
0.0
 10
39.2913856258
 20
25.9208733925
 30
0.0
 10
38.6690683246
 20
26.501917357
 30
0.0
 10
38.2672695919
 20
26.9472916024
 30
0.0
 10
37.9231289292
 20
27.4089128433
 30
0.0
 10
37.6385297333
 20
27.8843398149
 30
0.0
 10
37.4152573997
 20
28.3710978611
 30
0.0
 10
37.2546501336
 20
28.8665413459
 30
0.0
 10
37.1578501184
 20
29.3678042206
 30
0.0
 10
37.1362330432
 20
29.7047743785
 30
0.0
 10
37.1362385604
 20
29.8721698416
 30
0.0
  0
SPLINE
  5
24A
100
AcDbEntity
  8
0
100
AcDbSpline
 62
7
  6
BYLAYER
 70
0
 71
3
 72
13
 73
9
 74
0
 42
0.0000001
 43
0.0000001
 44
0.0000000001
 40
0.0
 40
0.0
 40
0.0
 40
0.0
 40
0.2732217359
 40
0.5274270142
 40
0.6489296295
 40
0.767593983
 40
0.8842976241
 40
1.0
 40
1.0
 40
1.0
 40
1.0
 10
38.7487398528
 20
35.4328110474
 30
0.0
 10
38.4962691205
 20
35.1834248464
 30
0.0
 10
38.0428021182
 20
34.665456859
 30
0.0
 10
37.6048015039
 20
33.938930584
 30
0.0
 10
37.3609804493
 20
33.3437690617
 30
0.0
 10
37.2315449862
 20
32.8977028848
 30
0.0
 10
37.1536139983
 20
32.4474973235
 30
0.0
 10
37.1362432742
 20
32.1453557708
 30
0.0
 10
37.1362382646
 20
31.9950761246
 30
0.0
  0
SPLINE
  5
24B
100
AcDbEntity
  8
0
100
AcDbSpline
 62
7
  6
BYLAYER
 70
0
 71
3
 72
15
 73
11
 74
0
 42
0.0000001
 43
0.0000001
 44
0.0000000001
 40
0.0
 40
0.0
 40
0.0
 40
0.0
 40
0.1080119576
 40
0.2180607746
 40
0.3319973919
 40
0.4513553698
 40
0.5772763908
 40
0.7104918792
 40
0.8514098868
 40
1.0
 40
1.0
 40
1.0
 40
1.0
 10
60.7362199549
 20
29.8721698532
 30
0.0
 10
60.7362125923
 20
29.6487823971
 30
0.0
 10
60.697438316
 20
29.1968869176
 30
0.0
 10
60.5242662064
 20
28.5294285675
 30
0.0
 10
60.2384564665
 20
27.8763440297
 30
0.0
 10
59.843601102
 20
27.2442488432
 30
0.0
 10
59.344145877
 20
26.6388882181
 30
0.0
 10
58.7452186582
 20
26.0655897954
 30
0.0
 10
58.0527692892
 20
25.5296201815
 30
0.0
 10
57.5462627803
 20
25.208583315
 30
0.0
 10
57.2801240144
 20
25.0549289441
 30
0.0
  0
SPLINE
  5
24C
100
AcDbEntity
  8
0
100
AcDbSpline
 62
7
  6
BYLAYER
 70
0
 71
3
 72
13
 73
9
 74
0
 42
0.0000001
 43
0.0000001
 44
0.0000000001
 40
0.0
 40
0.0
 40
0.0
 40
0.0
 40
0.1156482587
 40
0.2323046576
 40
0.3509332261
 40
0.4724192433
 40
0.7266521633
 40
1.0
 40
1.0
 40
1.0
 40
1.0
 10
60.7362202508
 20
31.9950761393
 30
0.0
 10
60.736225278
 20
32.1458806648
 30
0.0
 10
60.7187188824
 20
32.4490894296
 30
0.0
 10
60.6402376183
 20
32.9008599084
 30
0.0
 10
60.5099058854
 20
33.3484533661
 30
0.0
 10
60.2643458936
 20
33.9456278453
 30
0.0
 10
59.8232803354
 20
34.6744701714
 30
0.0
 10
59.3668038089
 20
35.1937086236
 30
0.0
 10
59.1126896184
 20
35.4436647691
 30
0.0
  0
SPLINE
  5
24D
100
AcDbEntity
  8
0
100
AcDbSpline
 62
7
  6
BYLAYER
 70
0
 71
3
 72
15
 73
11
 74
0
 42
0.0000001
 43
0.0000001
 44
0.0000000001
 40
0.0
 40
0.0
 40
0.0
 40
0.0
 40
0.1485900553
 40
0.2895075627
 40
0.4227228343
 40
0.5486437817
 40
0.668001727
 40
0.7819385004
 40
0.8919876349
 40
1.0
 40
1.0
 40
1.0
 40
1.0
 10
57.2801240144
 20
27.1778352286
 30
0.0
 10
57.5462626835
 20
27.3314895437
 30
0.0
 10
58.0527683927
 20
27.6525255419
 30
0.0
 10
58.7452164797
 20
28.1884942516
 30
0.0
 10
59.3441426164
 20
28.761791404
 30
0.0
 10
59.8435984937
 20
29.3671506339
 30
0.0
 10
60.2384544407
 20
29.9992456551
 30
0.0
 10
60.5242647654
 20
30.6523309259
 30
0.0
 10
60.6974382617
 20
31.319790826
 30
0.0
 10
60.7362128039
 20
31.7716878346
 30
0.0
 10
60.7362202508
 20
31.9950761393
 30
0.0
  0
SPLINE
  5
24E
100
AcDbEntity
  8
0
100
AcDbSpline
 62
7
  6
BYLAYER
 70
0
 71
3
 72
27
 73
23
 74
0
 42
0.0000001
 43
0.0000001
 44
0.0000000001
 40
0.0
 40
0.0
 40
0.0
 40
0.0
 40
0.0213294531
 40
0.0428873217
 40
0.0648900668
 40
0.0875320337
 40
0.1109789467
 40
0.1353629256
 40
0.1607834222
 40
0.1873059266
 40
0.2437374631
 40
0.3046787784
 40
0.3697595701
 40
0.438349581
 40
0.5096283876
 40
0.5826447763
 40
0.6563683886
 40
0.729737751
 40
0.8017063009
 40
0.8712919947
 40
0.93762243
 40
1.0
 40
1.0
 40
1.0
 40
1.0
 10
37.1362382646
 20
31.9950761246
 30
0.0
 10
37.1362326843
 20
31.8276803068
 30
0.0
 10
37.1578505443
 20
31.4907095012
 30
0.0
 10
37.254650214
 20
30.9894454483
 30
0.0
 10
37.4152587686
 20
30.4940011145
 30
0.0
 10
37.6385317057
 20
30.0072418159
 30
0.0
 10
37.9231326015
 20
29.5318138995
 30
0.0
 10
38.2672748145
 20
29.0701913219
 30
0.0
 10
38.6690758598
 20
28.6248162133
 30
0.0
 10
39.2913957512
 20
28.0437711507
 30
0.0
 10
40.2068164406
 20
27.3748752323
 30
0.0
 10
41.4677303983
 20
26.6891083648
 30
0.0
 10
42.8872345829
 20
26.1172307493
 30
0.0
 10
44.4352310756
 20
25.6711104032
 30
0.0
 10
46.0790749076
 20
25.3599927366
 30
0.0
 10
47.7838211525
 20
25.1904680828
 30
0.0
 10
49.5131524247
 20
25.1661334548
 30
0.0
 10
51.2301804722
 20
25.2875181957
 30
0.0
 10
52.8982805221
 20
25.5520137608
 30
0.0
 10
54.4820455631
 20
25.9540865332
 30
0.0
 10
55.9476360941
 20
26.4851022213
 30
0.0
 10
56.8561642751
 20
26.9330634201
 30
0.0
 10
57.2801240144
 20
27.1778352286
 30
0.0
  0
SPLINE
  5
24F
100
AcDbEntity
  8
0
100
AcDbSpline
 62
7
  6
BYLAYER
 70
0
 71
3
 72
11
 73
7
 74
0
 42
0.0000001
 43
0.0000001
 44
0.0000000001
 40
0.0
 40
0.0
 40
0.0
 40
0.0
 40
0.2602539388
 40
0.5147430699
 40
0.7618356451
 40
1.0
 40
1.0
 40
1.0
 40
1.0
 10
59.0301813954
 20
41.7148559058
 30
0.0
 10
58.7325715421
 20
41.9858807281
 30
0.0
 10
58.1351267415
 20
42.5124029999
 30
0.0
 10
57.2182404907
 20
43.2531959602
 30
0.0
 10
56.290633505
 20
43.9240355247
 30
0.0
 10
55.6545295014
 20
44.3237351883
 30
0.0
 10
55.3355189844
 20
44.5079118295
 30
0.0
  0
SPLINE
  5
250
100
AcDbEntity
  8
0
100
AcDbSpline
 62
7
  6
BYLAYER
 70
0
 71
3
 72
11
 73
7
 74
0
 42
0.0000001
 43
0.0000001
 44
0.0000000001
 40
0.0
 40
0.0
 40
0.0
 40
0.0
 40
0.25169685
 40
0.5026626495
 40
0.7523296886
 40
1.0
 40
1.0
 40
1.0
 40
1.0
 10
56.3255540796
 20
28.3889338123
 30
0.0
 10
55.9156845113
 20
28.2255106773
 30
0.0
 10
55.0907744502
 20
27.9146924551
 30
0.0
 10
53.8350989435
 20
27.5092467068
 30
0.0
 10
52.564870035
 20
27.1782455987
 30
0.0
 10
51.707663388
 20
27.0145521094
 30
0.0
 10
51.2785780107
 20
26.948172214
 30
0.0
  0
SPLINE
  5
251
100
AcDbEntity
  8
0
100
AcDbSpline
 62
7
  6
BYLAYER
 70
0
 71
3
 72
11
 73
7
 74
0
 42
0.0000001
 43
0.0000001
 44
0.0000000001
 40
0.0
 40
0.0
 40
0.0
 40
0.0
 40
0.2936016986
 40
0.5559374547
 40
0.7899377057
 40
1.0
 40
1.0
 40
1.0
 40
1.0
 10
57.6778677375
 20
30.6427818065
 30
0.0
 10
57.5693252135
 20
30.4089046203
 30
0.0
 10
57.3539141591
 20
29.9704965461
 30
0.0
 10
57.0131779327
 20
29.3657603557
 30
0.0
 10
56.6750725276
 20
28.8451411617
 30
0.0
 10
56.4411319403
 20
28.5327128277
 30
0.0
 10
56.3255540796
 20
28.3889338123
 30
0.0
  0
SPLINE
  5
252
100
AcDbEntity
  8
0
100
AcDbSpline
 62
7
  6
BYLAYER
 70
0
 71
3
 72
11
 73
7
 74
0
 42
0.0000001
 43
0.0000001
 44
0.0000000001
 40
0.0
 40
0.0
 40
0.0
 40
0.0
 40
0.2727720738
 40
0.5326331127
 40
0.7761317916
 40
1.0
 40
1.0
 40
1.0
 40
1.0
 10
59.0301813954
 20
34.2166094859
 30
0.0
 10
58.9223731576
 20
33.8861330486
 30
0.0
 10
58.7068794002
 20
33.2424239518
 30
0.0
 10
58.3729031774
 20
32.311317365
 30
0.0
 10
58.0354364637
 20
31.4480193126
 30
0.0
 10
57.7979689419
 20
30.9015645464
 30
0.0
 10
57.6778677375
 20
30.6427818065
 30
0.0
  0
SPLINE
  5
253
100
AcDbEntity
  8
0
100
AcDbSpline
 62
7
  6
BYLAYER
 70
0
 71
3
 72
11
 73
7
 74
0
 42
0.0000001
 43
0.0000001
 44
0.0000000001
 40
0.0
 40
0.0
 40
0.0
 40
0.0
 40
0.2238683258
 40
0.4673670085
 40
0.7272279746
 40
1.0
 40
1.0
 40
1.0
 40
1.0
 10
40.1945907778
 20
42.1655965624
 30
0.0
 10
40.0744895105
 20
41.9068136867
 30
0.0
 10
39.8370219464
 20
41.3603587697
 30
0.0
 10
39.4995551913
 20
40.4970606683
 30
0.0
 10
39.1655789378
 20
39.5659542493
 30
0.0
 10
38.9500853386
 20
38.9222452619
 30
0.0
 10
38.8422771199
 20
38.5917688829
 30
0.0
  0
SPLINE
  5
254
100
AcDbEntity
  8
0
100
AcDbSpline
 62
7
  6
BYLAYER
 70
0
 71
3
 72
11
 73
7
 74
0
 42
0.0000001
 43
0.0000001
 44
0.0000000001
 40
0.0
 40
0.0
 40
0.0
 40
0.0
 40
0.2100624446
 40
0.4440627095
 40
0.7063984317
 40
1.0
 40
1.0
 40
1.0
 40
1.0
 10
41.5469044358
 20
44.4194445566
 30
0.0
 10
41.4313264929
 20
44.2756654389
 30
0.0
 10
41.1973859969
 20
43.9632368589
 30
0.0
 10
40.8592803855
 20
43.4426176742
 30
0.0
 10
40.5185442273
 20
42.8378815928
 30
0.0
 10
40.3031332532
 20
42.3994736438
 30
0.0
 10
40.1945907778
 20
42.1655965624
 30
0.0
  0
SPLINE
  5
255
100
AcDbEntity
  8
0
100
AcDbSpline
 62
7
  6
BYLAYER
 70
0
 71
3
 72
9
 73
5
 74
0
 42
0.0000001
 43
0.0000001
 44
0.0000000001
 40
0.0
 40
0.0
 40
0.0
 40
0.0
 40
0.2497804074
 40
1.0
 40
1.0
 40
1.0
 40
1.0
 10
42.931130151
 20
44.9342607315
 30
0.0
 10
42.8148203555
 20
44.8943378697
 30
0.0
 10
42.350269437
 20
44.7313143881
 30
0.0
 10
41.8899835814
 20
44.5562370239
 30
0.0
 10
41.5469044358
 20
44.4194445566
 30
0.0
  0
SPLINE
  5
256
100
AcDbEntity
  8
0
100
AcDbSpline
 62
7
  6
BYLAYER
 70
0
 71
3
 72
17
 73
13
 74
0
 42
0.0000001
 43
0.0000001
 44
0.0000000001
 40
0.0
 40
0.0
 40
0.0
 40
0.0
 40
0.055848113
 40
0.1142253571
 40
0.1748492451
 40
0.2374416701
 40
0.3670714095
 40
0.5000767473
 40
0.6330822075
 40
0.762712578
 40
0.8858645989
 40
1.0
 40
1.0
 40
1.0
 40
1.0
 10
53.1788876085
 20
38.3638577098
 30
0.0
 10
53.0367701698
 20
38.2818066581
 30
0.0
 10
52.7386955858
 20
38.1265683501
 30
0.0
 10
52.2657057872
 20
37.9248546165
 30
0.0
 10
51.7608268242
 20
37.7508254674
 30
0.0
 10
51.0434893437
 20
37.5557073887
 30
0.0
 10
50.0993029773
 20
37.3925864823
 30
0.0
 10
48.9362060342
 20
37.3273031887
 30
0.0
 10
47.7730139206
 20
37.39259726
 30
0.0
 10
46.6532833429
 20
37.5861049043
 30
0.0
 10
45.6190442989
 20
37.9004610667
 30
0.0
 10
44.9839411169
 20
38.1962132329
 30
0.0
 10
44.6935010195
 20
38.3639020145
 30
0.0
  0
SPLINE
  5
257
100
AcDbEntity
  8
0
100
AcDbSpline
 62
7
  6
BYLAYER
 70
0
 71
3
 72
11
 73
7
 74
0
 42
0.0000001
 43
0.0000001
 44
0.0000000001
 40
0.0
 40
0.0
 40
0.0
 40
0.0
 40
0.2359161668
 40
0.4801638498
 40
0.7344520766
 40
1.0
 40
1.0
 40
1.0
 40
1.0
 10
46.2316019418
 20
26.8273903009
 30
0.0
 10
45.9267317685
 20
26.9017795012
 30
0.0
 10
45.3104329697
 20
27.0713135612
 30
0.0
 10
44.3873327086
 20
27.3937043454
 30
0.0
 10
43.4544155068
 20
27.799476934
 30
0.0
 10
42.8428479142
 20
28.1238542475
 30
0.0
 10
42.5369395309
 20
28.3004665394
 30
0.0
  0
SPLINE
  5
258
100
AcDbEntity
  8
0
100
AcDbSpline
 62
7
  6
BYLAYER
 70
0
 71
3
 72
11
 73
7
 74
0
 42
0.0000001
 43
0.0000001
 44
0.0000000001
 40
0.0
 40
0.0
 40
0.0
 40
0.0
 40
0.2546620059
 40
0.5061768175
 40
0.7545331597
 40
1.0
 40
1.0
 40
1.0
 40
1.0
 10
51.2785780107
 20
26.948172214
 30
0.0
 10
50.854064301
 20
26.8824995597
 30
0.0
 10
50.0054218954
 20
26.7813382209
 30
0.0
 10
48.7333380684
 20
26.7184120922
 30
0.0
 10
47.4755056161
 20
26.7347861959
 30
0.0
 10
46.6440132532
 20
26.7905545271
 30
0.0
 10
46.2316019418
 20
26.8273903009
 30
0.0
  0
SPLINE
  5
259
100
AcDbEntity
  8
0
100
AcDbSpline
 62
7
  6
BYLAYER
 70
0
 71
3
 72
11
 73
7
 74
0
 42
0.0000001
 43
0.0000001
 44
0.0000000001
 40
0.0
 40
0.0
 40
0.0
 40
0.0
 40
0.2381644744
 40
0.4852570595
 40
0.7397461291
 40
1.0
 40
1.0
 40
1.0
 40
1.0
 10
42.5369395309
 20
28.3004665394
 30
0.0
 10
42.2179288531
 20
28.4846432735
 30
0.0
 10
41.581824701
 20
28.8843430819
 30
0.0
 10
40.654217611
 20
29.5551826764
 30
0.0
 10
39.7373313683
 20
30.295975365
 30
0.0
 10
39.1398868962
 20
30.822497711
 30
0.0
 10
38.8422771199
 20
31.0935224631
 30
0.0
  0
SPLINE
  5
25A
100
AcDbEntity
  8
0
100
AcDbSpline
 62
7
  6
BYLAYER
 70
0
 71
3
 72
11
 73
7
 74
0
 42
0.0000001
 43
0.0000001
 44
0.0000000001
 40
0.0
 40
0.0
 40
0.0
 40
0.0
 40
0.25169685
 40
0.5026626495
 40
0.7523296886
 40
1.0
 40
1.0
 40
1.0
 40
1.0
 10
46.2316019418
 20
34.3256367207
 30
0.0
 10
46.6414715101
 20
34.4890598557
 30
0.0
 10
47.4663815712
 20
34.7998780779
 30
0.0
 10
48.7220570779
 20
35.2053238262
 30
0.0
 10
49.9922859863
 20
35.5363249342
 30
0.0
 10
50.8494926334
 20
35.7000184236
 30
0.0
 10
51.2785780107
 20
35.766398319
 30
0.0
  0
SPLINE
  5
25B
100
AcDbEntity
  8
0
100
AcDbSpline
 62
7
  6
BYLAYER
 70
0
 71
3
 72
11
 73
7
 74
0
 42
0.0000001
 43
0.0000001
 44
0.0000000001
 40
0.0
 40
0.0
 40
0.0
 40
0.0
 40
0.2381644744
 40
0.4852570595
 40
0.7397461291
 40
1.0
 40
1.0
 40
1.0
 40
1.0
 10
42.5369395309
 20
37.1186926444
 30
0.0
 10
42.8559502087
 20
36.9345159103
 30
0.0
 10
43.4920543608
 20
36.5348161018
 30
0.0
 10
44.4196614507
 20
35.8639765074
 30
0.0
 10
45.3365476935
 20
35.1231838188
 30
0.0
 10
45.9339921656
 20
34.5966614728
 30
0.0
 10
46.2316019418
 20
34.3256367207
 30
0.0
  0
SPLINE
  5
25C
100
AcDbEntity
  8
0
100
AcDbSpline
 62
7
  6
BYLAYER
 70
0
 71
3
 72
11
 73
7
 74
0
 42
0.0000001
 43
0.0000001
 44
0.0000000001
 40
0.0
 40
0.0
 40
0.0
 40
0.0
 40
0.2359161668
 40
0.4801638498
 40
0.7344520766
 40
1.0
 40
1.0
 40
1.0
 40
1.0
 10
38.8422771199
 20
38.5917688829
 30
0.0
 10
39.1471472933
 20
38.5173796826
 30
0.0
 10
39.7634460921
 20
38.3478456226
 30
0.0
 10
40.6865463532
 20
38.0254548383
 30
0.0
 10
41.619463555
 20
37.6196822498
 30
0.0
 10
42.2310311476
 20
37.2953049363
 30
0.0
 10
42.5369395309
 20
37.1186926444
 30
0.0
  0
SPLINE
  5
25D
100
AcDbEntity
  8
0
100
AcDbSpline
 62
7
  6
BYLAYER
 70
0
 71
3
 72
23
 73
19
 74
0
 42
0.0000001
 43
0.0000001
 44
0.0000000001
 40
0.0
 40
0.0
 40
0.0
 40
0.0
 40
0.0743020306
 40
0.1447489759
 40
0.2113602908
 40
0.2743192649
 40
0.333998247
 40
0.3909667165
 40
0.4459908029
 40
0.4999972749
 40
0.5540041681
 40
0.6090280727
 40
0.6659960221
 40
0.7256766993
 40
0.7886339115
 40
0.8552428854
 40
0.9257124944
 40
1.0
 40
1.0
 40
1.0
 40
1.0
 10
44.6935010195
 20
38.3639020145
 30
0.0
 10
44.5581662838
 20
38.4420390112
 30
0.0
 10
44.3006341792
 20
38.6052726022
 30
0.0
 10
43.9485623599
 20
38.8778093992
 30
0.0
 10
43.644034947
 20
39.169291741
 30
0.0
 10
43.3900953678
 20
39.4771152758
 30
0.0
 10
43.1893142457
 20
39.7985106649
 30
0.0
 10
43.0439977004
 20
40.1305660887
 30
0.0
 10
42.9559674131
 20
40.470030381
 30
0.0
 10
42.9264535206
 20
40.8133284619
 30
0.0
 10
42.9559782196
 20
41.1566248394
 30
0.0
 10
43.044010427
 20
41.4960877852
 30
0.0
 10
43.1893347885
 20
41.8281427574
 30
0.0
 10
43.3901296255
 20
42.1495278085
 30
0.0
 10
43.6440615969
 20
42.4573497483
 30
0.0
 10
43.9486147183
 20
42.7488637029
 30
0.0
 10
44.3007221938
 20
43.0213745187
 30
0.0
 10
44.5582617971
 20
43.1846264795
 30
0.0
 10
44.6935709068
 20
43.2627467641
 30
0.0
  0
SPLINE
  5
25E
100
AcDbEntity
  8
0
100
AcDbSpline
 62
7
  6
BYLAYER
 70
0
 71
3
 72
11
 73
7
 74
0
 42
0.0000001
 43
0.0000001
 44
0.0000000001
 40
0.0
 40
0.0
 40
0.0
 40
0.0
 40
0.2657245992
 40
0.5225190472
 40
0.7679342133
 40
1.0
 40
1.0
 40
1.0
 40
1.0
 10
51.2785780107
 20
35.766398319
 30
0.0
 10
51.6548671772
 20
35.8246105929
 30
0.0
 10
52.3907257018
 20
35.9679380484
 30
0.0
 10
53.4508699489
 20
36.2678241607
 30
0.0
 10
54.4348060747
 20
36.6446607678
 30
0.0
 10
55.0475885168
 20
36.9524569034
 30
0.0
 10
55.3355722702
 20
37.1187234085
 30
0.0
  0
SPLINE
  5
25F
100
AcDbEntity
  8
0
100
AcDbSpline
 62
7
  6
BYLAYER
 70
0
 71
3
 72
15
 73
11
 74
0
 42
0.0000001
 43
0.0000001
 44
0.0000000001
 40
0.0
 40
0.0
 40
0.0
 40
0.0
 40
0.1108404742
 40
0.2280569066
 40
0.3507083478
 40
0.4776249447
 40
0.6074729148
 40
0.7388125607
 40
0.8701521652
 40
1.0
 40
1.0
 40
1.0
 40
1.0
 10
42.5369395309
 20
37.1186926444
 30
0.0
 10
42.8249254991
 20
36.9524276296
 30
0.0
 10
43.4377146458
 20
36.6446335274
 30
0.0
 10
44.4216420925
 20
36.2678035929
 30
0.0
 10
45.4818468002
 20
35.9679160642
 30
0.0
 10
46.6003527326
 20
35.7500540298
 30
0.0
 10
47.7583472305
 20
35.6178451974
 30
0.0
 10
48.9362799568
 20
35.5735306383
 30
0.0
 10
50.1141354172
 20
35.617843371
 30
0.0
 10
50.893597326
 20
35.7068414594
 30
0.0
 10
51.2785780107
 20
35.766398319
 30
0.0
  0
SPLINE
  5
260
100
AcDbEntity
  8
0
100
AcDbSpline
 62
7
  6
BYLAYER
 70
0
 71
3
 72
19
 73
15
 74
0
 42
0.0000001
 43
0.0000001
 44
0.0000000001
 40
0.0
 40
0.0
 40
0.0
 40
0.0
 40
0.0583263199
 40
0.1153405803
 40
0.1714210181
 40
0.2270231781
 40
0.2826278455
 40
0.3387057418
 40
0.3957072362
 40
0.4540468537
 40
0.5760140683
 40
0.7069789526
 40
0.8481847302
 40
1.0
 40
1.0
 40
1.0
 40
1.0
 10
40.1945907778
 20
42.1655965624
 30
0.0
 10
40.144210882
 20
42.0570427176
 30
0.0
 10
40.0551290307
 20
41.8372633199
 30
0.0
 10
39.9578439963
 20
41.4985800962
 30
0.0
 10
39.899286167
 20
41.1566973653
 30
0.0
 10
39.8797255801
 20
40.8132757434
 30
0.0
 10
39.8993086889
 20
40.4698578817
 30
0.0
 10
39.9578484092
 20
40.1280111053
 30
0.0
 10
40.055140324
 20
39.7892880255
 30
0.0
 10
40.2383391242
 20
39.3373169896
 30
0.0
 10
40.5675803555
 20
38.7851411512
 30
0.0
 10
41.0988860206
 20
38.1709414029
 30
0.0
 10
41.7621882065
 20
37.6038206321
 30
0.0
 10
42.2671737369
 20
37.2744384747
 30
0.0
 10
42.5369395309
 20
37.1186926444
 30
0.0
  0
SPLINE
  5
261
100
AcDbEntity
  8
0
100
AcDbSpline
 62
7
  6
BYLAYER
 70
0
 71
3
 72
11
 73
7
 74
0
 42
0.0000001
 43
0.0000001
 44
0.0000000001
 40
0.0
 40
0.0
 40
0.0
 40
0.0
 40
0.2780736586
 40
0.5367143743
 40
0.7765974938
 40
1.0
 40
1.0
 40
1.0
 40
1.0
 10
42.5368862451
 20
44.5078810653
 30
0.0
 10
42.2671228502
 20
44.3521340264
 30
0.0
 10
41.7621463774
 20
44.0227557469
 30
0.0
 10
41.0988364601
 20
43.4556032568
 30
0.0
 10
40.5675898925
 20
42.8414941675
 30
0.0
 10
40.2999407151
 20
42.3925946641
 30
0.0
 10
40.1945907778
 20
42.1655965624
 30
0.0
  0
SPLINE
  5
262
100
AcDbEntity
  8
0
100
AcDbSpline
 62
7
  6
BYLAYER
 70
0
 71
3
 72
19
 73
15
 74
0
 42
0.0000001
 43
0.0000001
 44
0.0000000001
 40
0.0
 40
0.0
 40
0.0
 40
0.0
 40
0.0583263199
 40
0.1153405803
 40
0.1714210181
 40
0.2270231781
 40
0.2826278455
 40
0.3387057418
 40
0.3957072362
 40
0.4540468537
 40
0.5760140683
 40
0.7069789526
 40
0.8481847302
 40
1.0
 40
1.0
 40
1.0
 40
1.0
 10
57.6778677375
 20
39.4610079115
 30
0.0
 10
57.7282476334
 20
39.5695617562
 30
0.0
 10
57.8173294847
 20
39.7893411539
 30
0.0
 10
57.9146145191
 20
40.1280243777
 30
0.0
 10
57.9731723483
 20
40.4699071085
 30
0.0
 10
57.9927329352
 20
40.8133287304
 30
0.0
 10
57.9731498264
 20
41.1567465921
 30
0.0
 10
57.9146101061
 20
41.4985933686
 30
0.0
 10
57.8173181913
 20
41.8373164484
 30
0.0
 10
57.6341193911
 20
42.2892874843
 30
0.0
 10
57.3048781598
 20
42.8414633226
 30
0.0
 10
56.7735724947
 20
43.455663071
 30
0.0
 10
56.1102703089
 20
44.0227838418
 30
0.0
 10
55.6052847784
 20
44.3521659991
 30
0.0
 10
55.3355189844
 20
44.5079118295
 30
0.0
  0
SPLINE
  5
263
100
AcDbEntity
  8
0
100
AcDbSpline
 62
7
  6
BYLAYER
 70
0
 71
3
 72
11
 73
7
 74
0
 42
0.0000001
 43
0.0000001
 44
0.0000000001
 40
0.0
 40
0.0
 40
0.0
 40
0.0
 40
0.2780736586
 40
0.5367143743
 40
0.7765974938
 40
1.0
 40
1.0
 40
1.0
 40
1.0
 10
55.3355722702
 20
37.1187234085
 30
0.0
 10
55.6053356651
 20
37.2744704475
 30
0.0
 10
56.110312138
 20
37.6038487269
 30
0.0
 10
56.7736220552
 20
38.1710012171
 30
0.0
 10
57.3048686229
 20
38.7851103064
 30
0.0
 10
57.5725178002
 20
39.2340098098
 30
0.0
 10
57.6778677375
 20
39.4610079115
 30
0.0
  0
SPLINE
  5
264
100
AcDbEntity
  8
0
100
AcDbSpline
 62
7
  6
BYLAYER
 70
0
 71
3
 72
34
 73
30
 74
0
 42
0.0000001
 43
0.0000001
 44
0.0000000001
 40
0.0
 40
0.0
 40
0.0
 40
0.0
 40
0.0325478572
 40
0.0665696562
 40
0.1019007696
 40
0.138379124
 40
0.213926285
 40
0.2914407692
 40
0.3689554287
 40
0.444503261
 40
0.5162757387
 40
0.5502890055
 40
0.5828435412
 40
0.6138393464
 40
0.6432269663
 40
0.6710145041
 40
0.6972784098
 40
0.7221740012
 40
0.745938833
 40
0.7688924983
 40
0.7914216066
 40
0.8139508457
 40
0.8369043044
 40
0.8606687142
 40
0.8855647491
 40
0.9118276155
 40
0.9396138486
 40
0.9690105856
 40
1.0
 40
1.0
 40
1.0
 40
1.0
 10
44.6935709068
 20
43.2627467641
 30
0.0
 10
44.8356864509
 20
43.3447967219
 30
0.0
 10
45.1337568928
 20
43.5000330859
 30
0.0
 10
45.6067398425
 20
43.7017447457
 30
0.0
 10
46.1116113634
 20
43.8757725524
 30
0.0
 10
46.8289375886
 20
44.0708901051
 30
0.0
 10
47.7731136606
 20
44.2340113345
 30
0.0
 10
48.9361793681
 20
44.2993043583
 30
0.0
 10
50.0994144945
 20
44.2340017058
 30
0.0
 10
51.2189326392
 20
44.0405664132
 30
0.0
 10
52.0965505066
 20
43.773827576
 30
0.0
 10
52.7386843793
 20
43.5000591807
 30
0.0
 10
53.1754365905
 20
43.2725738792
 30
0.0
 10
53.5717324535
 20
43.0213948156
 30
0.0
 10
53.923840701
 20
42.7488440875
 30
0.0
 10
54.2283750661
 20
42.4573645542
 30
0.0
 10
54.4823278777
 20
42.1495385805
 30
0.0
 10
54.6831194843
 20
41.8281410088
 30
0.0
 10
54.8284457838
 20
41.4960823878
 30
0.0
 10
54.9164844319
 20
41.1566143105
 30
0.0
 10
54.9460052541
 20
40.8133118713
 30
0.0
 10
54.9164859104
 20
40.4700107361
 30
0.0
 10
54.8284574336
 20
40.1305428034
 30
0.0
 10
54.6831351618
 20
39.7984827979
 30
0.0
 10
54.4823408375
 20
39.4770928124
 30
0.0
 10
54.2284078697
 20
39.1692661683
 30
0.0
 10
53.9238523363
 20
38.877747846
 30
0.0
 10
53.5717411405
 20
38.6052330996
 30
0.0
 10
53.3141984359
 20
38.4419789861
 30
0.0
 10
53.1788876085
 20
38.3638577098
 30
0.0
  0
SPLINE
  5
265
100
AcDbEntity
  8
0
100
AcDbSpline
 62
7
  6
BYLAYER
 70
0
 71
3
 72
11
 73
7
 74
0
 42
0.0000001
 43
0.0000001
 44
0.0000000001
 40
0.0
 40
0.0
 40
0.0
 40
0.0
 40
0.2546620059
 40
0.5061768175
 40
0.7545331597
 40
1.0
 40
1.0
 40
1.0
 40
1.0
 10
51.2785780107
 20
35.766398319
 30
0.0
 10
51.7030917204
 20
35.8320709732
 30
0.0
 10
52.551734126
 20
35.9332323121
 30
0.0
 10
53.823817953
 20
35.9961584408
 30
0.0
 10
55.0816504053
 20
35.9797843371
 30
0.0
 10
55.9131427682
 20
35.9240160059
 30
0.0
 10
56.3255540796
 20
35.8871802321
 30
0.0
  0
SPLINE
  5
266
100
AcDbEntity
  8
0
100
AcDbSpline
 62
7
  6
BYLAYER
 70
0
 71
3
 72
11
 73
7
 74
0
 42
0.0000001
 43
0.0000001
 44
0.0000000001
 40
0.0
 40
0.0
 40
0.0
 40
0.0
 40
0.2727720738
 40
0.5326331127
 40
0.7761317916
 40
1.0
 40
1.0
 40
1.0
 40
1.0
 10
56.3255540796
 20
35.8871802321
 30
0.0
 10
56.4333623173
 20
36.2176566694
 30
0.0
 10
56.6488560747
 20
36.8613657662
 30
0.0
 10
56.9828322976
 20
37.7924723531
 30
0.0
 10
57.3202990113
 20
38.6557704054
 30
0.0
 10
57.5577665331
 20
39.2022251716
 30
0.0
 10
57.6778677375
 20
39.4610079115
 30
0.0
  0
SPLINE
  5
267
100
AcDbEntity
  8
0
100
AcDbSpline
 62
7
  6
BYLAYER
 70
0
 71
3
 72
11
 73
7
 74
0
 42
0.0000001
 43
0.0000001
 44
0.0000000001
 40
0.0
 40
0.0
 40
0.0
 40
0.0
 40
0.2936016986
 40
0.5559374547
 40
0.7899377057
 40
1.0
 40
1.0
 40
1.0
 40
1.0
 10
57.6778677375
 20
39.4610079115
 30
0.0
 10
57.7864102614
 20
39.6948850977
 30
0.0
 10
58.0018213158
 20
40.1332931719
 30
0.0
 10
58.3425575423
 20
40.7380293623
 30
0.0
 10
58.6806629474
 20
41.2586485563
 30
0.0
 10
58.9146035347
 20
41.5710768903
 30
0.0
 10
59.0301813954
 20
41.7148559058
 30
0.0
  0
SPLINE
  5
268
100
AcDbEntity
  8
0
100
AcDbSpline
 62
7
  6
BYLAYER
 70
0
 71
3
 72
14
 73
10
 74
0
 42
0.0000001
 43
0.0000001
 44
0.0000000001
 40
0.0
 40
0.0
 40
0.0
 40
0.0
 40
0.289273021
 40
0.4225560527
 40
0.5484999908
 40
0.6678890519
 40
0.7818695862
 40
0.8919534474
 40
1.0
 40
1.0
 40
1.0
 40
1.0
 10
42.5722417313
 20
124.488375858
 30
0.0
 10
42.1771968342
 20
124.2602979417
 30
0.0
 10
41.6239219475
 20
123.8793748152
 30
0.0
 10
40.9980063965
 20
123.2802963657
 30
0.0
 10
40.6170120118
 20
122.8185475614
 30
0.0
 10
40.3159637907
 20
122.3364282671
 30
0.0
 10
40.0978540116
 20
121.8383594643
 30
0.0
 10
39.9658803201
 20
121.3292438926
 30
0.0
 10
39.9362275431
 20
120.9845888893
 30
0.0
 10
39.9362292574
 20
120.8142090673
 30
0.0
  0
SPLINE
  5
269
100
AcDbEntity
  8
0
100
AcDbSpline
 62
7
  6
BYLAYER
 70
0
 71
3
 72
23
 73
19
 74
0
 42
0.0000001
 43
0.0000001
 44
0.0000000001
 40
0.0
 40
0.0
 40
0.0
 40
0.0
 40
0.0623834969
 40
0.1287493885
 40
0.1983469346
 40
0.2703368568
 40
0.3437252053
 40
0.4174679347
 40
0.4905049061
 40
0.5618041932
 40
0.6304128878
 40
0.6955105849
 40
0.7564679708
 40
0.8129146628
 40
0.8648229988
 40
0.9126048262
 40
0.9571862423
 40
1.0
 40
1.0
 40
1.0
 40
1.0
 10
55.300216784
 20
108.052370374
 30
0.0
 10
54.9769148764
 20
107.8657130448
 30
0.0
 10
54.283909061
 20
107.5240903624
 30
0.0
 10
53.1661268426
 20
107.1189773242
 30
0.0
 10
51.9580783529
 20
106.8123708162
 30
0.0
 10
50.685846877
 20
106.6105878107
 30
0.0
 10
49.376245481
 20
106.5180309936
 30
0.0
 10
48.0572729258
 20
106.5366091161
 30
0.0
 10
46.7570359104
 20
106.6658949877
 30
0.0
 10
45.5032451361
 20
106.903172577
 30
0.0
 10
44.3225631436
 20
107.2434652334
 30
0.0
 10
43.2399421195
 20
107.6796310937
 30
0.0
 10
42.2781094842
 20
108.202752548
 30
0.0
 10
41.4572050461
 20
108.8025651561
 30
0.0
 10
40.7947526322
 20
109.4678330935
 30
0.0
 10
40.3059975821
 20
110.1867578559
 30
0.0
 10
40.0047699188
 20
110.9451138814
 30
0.0
 10
39.9362411315
 20
111.4703303854
 30
0.0
 10
39.9362402844
 20
111.7265371653
 30
0.0
  0
SPLINE
  5
26A
100
AcDbEntity
  8
0
100
AcDbSpline
 62
7
  6
BYLAYER
 70
0
 71
3
 72
11
 73
7
 74
0
 42
0.0000001
 43
0.0000001
 44
0.0000000001
 40
0.0
 40
0.0
 40
0.0
 40
0.0
 40
0.2816502086
 40
0.5409412085
 40
0.7791537965
 40
1.0
 40
1.0
 40
1.0
 40
1.0
 10
44.6934975951
 20
44.4036500666
 30
0.0
 10
44.4919806836
 20
44.5199992614
 30
0.0
 10
44.1179795116
 20
44.7676081626
 30
0.0
 10
43.6379263643
 20
45.2006425221
 30
0.0
 10
43.2718600219
 20
45.6721683594
 30
0.0
 10
43.1055410634
 20
46.0173071231
 30
0.0
 10
43.0471471318
 20
46.1901689623
 30
0.0
  0
SPLINE
  5
26B
100
AcDbEntity
  8
0
100
AcDbSpline
 62
7
  6
BYLAYER
 70
0
 71
3
 72
9
 73
5
 74
0
 42
0.0000001
 43
0.0000001
 44
0.0000000001
 40
0.0
 40
0.0
 40
0.0
 40
0.0
 40
0.5045004477
 40
1.0
 40
1.0
 40
1.0
 40
1.0
 10
43.0471471318
 20
46.1901689623
 30
0.0
 10
43.0108535359
 20
46.2976078274
 30
0.0
 10
42.9551434596
 20
46.5164954336
 30
0.0
 10
42.9362641406
 20
46.7416721039
 30
0.0
 10
42.9362633327
 20
46.8530522668
 30
0.0
  0
SPLINE
  5
26C
100
AcDbEntity
  8
0
100
AcDbSpline
 62
7
  6
BYLAYER
 70
0
 71
3
 72
9
 73
5
 74
0
 42
0.0000001
 43
0.0000001
 44
0.0000000001
 40
0.0
 40
0.0
 40
0.0
 40
0.0
 40
0.494680272
 40
1.0
 40
1.0
 40
1.0
 40
1.0
 10
54.9361951826
 20
46.8530522666
 30
0.0
 10
54.936196063
 20
46.7316838852
 30
0.0
 10
54.9137041868
 20
46.4858278334
 30
0.0
 10
54.8475793169
 20
46.2481267733
 30
0.0
 10
54.8046800659
 20
46.1318066006
 30
0.0
  0
SPLINE
  5
26D
100
AcDbEntity
  8
0
100
AcDbSpline
 62
7
  6
BYLAYER
 70
0
 71
3
 72
11
 73
7
 74
0
 42
0.0000001
 43
0.0000001
 44
0.0000000001
 40
0.0
 40
0.0
 40
0.0
 40
0.0
 40
0.2214106322
 40
0.4600160631
 40
0.7193284151
 40
1.0
 40
1.0
 40
1.0
 40
1.0
 10
54.8046800659
 20
46.1318066006
 30
0.0
 10
54.7429546202
 20
45.9644397036
 30
0.0
 10
54.5730417431
 20
45.6311750321
 30
0.0
 10
54.2096500989
 20
45.1757198465
 30
0.0
 10
53.7390763446
 20
44.7571078023
 30
0.0
 10
53.3747238222
 20
44.5166731553
 30
0.0
 10
53.1788876085
 20
44.4036077396
 30
0.0
  0
SPLINE
  5
26E
100
AcDbEntity
  8
0
100
AcDbSpline
 62
7
  6
BYLAYER
 70
0
 71
3
 72
15
 73
11
 74
0
 42
0.0000001
 43
0.0000001
 44
0.0000000001
 40
0.0
 40
0.0
 40
0.0
 40
0.0
 40
0.1121605539
 40
0.2324183458
 40
0.3588398022
 40
0.4892400687
 40
0.6210915149
 40
0.7518115455
 40
0.8788796439
 40
1.0
 40
1.0
 40
1.0
 40
1.0
 10
52.5091839879
 20
11.3568464337
 30
0.0
 10
52.2959001059
 20
11.2337076621
 30
0.0
 10
51.8339052978
 20
11.0124184575
 30
0.0
 10
51.084574591
 20
10.763446873
 30
0.0
 10
50.2729610053
 20
10.5916010063
 30
0.0
 10
49.4228378512
 20
10.5016319728
 30
0.0
 10
48.5585816296
 20
10.4962715381
 30
0.0
 10
47.7052389249
 20
10.5756313459
 30
0.0
 10
46.8876418543
 20
10.7373585994
 30
0.0
 10
46.3665301213
 20
10.9018988313
 30
0.0
 10
46.1185800738
 20
10.9980830282
 30
0.0
  0
SPLINE
  5
26F
100
AcDbEntity
  8
0
100
AcDbSpline
 62
7
  6
BYLAYER
 70
0
 71
3
 72
9
 73
5
 74
0
 42
0.0000001
 43
0.0000001
 44
0.0000000001
 40
0.0
 40
0.0
 40
0.0
 40
0.0
 40
0.2580962524
 40
1.0
 40
1.0
 40
1.0
 40
1.0
 10
46.1185800738
 20
10.9980830282
 30
0.0
 10
46.0514700675
 20
11.0241161834
 30
0.0
 10
45.7932577131
 20
11.1295210638
 30
0.0
 10
45.5424159372
 20
11.2534270421
 30
0.0
 10
45.3632243111
 20
11.3568887318
 30
0.0
  0
SPLINE
  5
270
100
AcDbEntity
  8
0
100
AcDbSpline
 62
7
  6
BYLAYER
 70
0
 71
3
 72
14
 73
10
 74
0
 42
0.0000001
 43
0.0000001
 44
0.0000000001
 40
0.0
 40
0.0
 40
0.0
 40
0.0
 40
0.1080477979
 40
0.218131215
 40
0.3321076562
 40
0.4515017769
 40
0.5774650555
 40
0.7107277957
 40
1.0
 40
1.0
 40
1.0
 40
1.0
 10
57.9362292579
 20
120.8142090673
 30
0.0
 10
57.9362275436
 20
120.9845861979
 30
0.0
 10
57.9065692477
 20
121.329232068
 30
0.0
 10
57.7746108859
 20
121.8383299187
 30
0.0
 10
57.5565341636
 20
122.3363980638
 30
0.0
 10
57.255468334
 20
122.81852965
 30
0.0
 10
56.8744418519
 20
123.280236553
 30
0.0
 10
56.2486053293
 20
123.8793560156
 30
0.0
 10
55.6953563107
 20
124.2602353866
 30
0.0
 10
55.3003267515
 20
124.4883123675
 30
0.0
  0
SPLINE
  5
271
100
AcDbEntity
  8
0
100
AcDbSpline
 62
7
  6
BYLAYER
 70
0
 71
3
 72
14
 73
10
 74
0
 42
0.0000001
 43
0.0000001
 44
0.0000000001
 40
0.0
 40
0.0
 40
0.0
 40
0.0
 40
0.1080435117
 40
0.2181250476
 40
0.3321054038
 40
0.4514946867
 40
0.5774397497
 40
0.7107252842
 40
1.0
 40
1.0
 40
1.0
 40
1.0
 10
57.936218231
 20
111.7265371639
 30
0.0
 10
57.9362187943
 20
111.5561623417
 30
0.0
 10
57.9065752189
 20
111.2115156924
 30
0.0
 10
57.7746015198
 20
110.7024092385
 30
0.0
 10
57.5564976823
 20
110.2043432067
 30
0.0
 10
57.2554578852
 20
109.7222170841
 30
0.0
 10
56.8744615525
 20
109.260462545
 30
0.0
 10
56.2485420893
 20
108.6613776678
 30
0.0
 10
55.6952635215
 20
108.2804493527
 30
0.0
 10
55.300216784
 20
108.052370374
 30
0.0
  0
SPLINE
  5
272
100
AcDbEntity
  8
0
100
AcDbSpline
 62
7
  6
BYLAYER
 70
0
 71
3
 72
15
 73
11
 74
0
 42
0.0000001
 43
0.0000001
 44
0.0000000001
 40
0.0
 40
0.0
 40
0.0
 40
0.0
 40
0.114150932
 40
0.2373193251
 40
0.3669677764
 40
0.4999907015
 40
0.6330154163
 40
0.7626654804
 40
0.8858475504
 40
1.0
 40
1.0
 40
1.0
 40
1.0
 10
54.9679347068
 20
124.6801728258
 30
0.0
 10
54.5550357215
 20
124.9185676104
 30
0.0
 10
53.6521526163
 20
125.3390222521
 30
0.0
 10
52.1818461181
 20
125.7859371398
 30
0.0
 10
50.589991082
 20
126.0610316992
 30
0.0
 10
48.9363791118
 20
126.1538808523
 30
0.0
 10
47.282760673
 20
126.0610659434
 30
0.0
 10
45.6908203766
 20
125.7860369347
 30
0.0
 10
44.220446043
 20
125.3391002166
 30
0.0
 10
43.3174916165
 20
124.9186501428
 30
0.0
 10
42.9045833022
 20
124.6802588394
 30
0.0
  0
SPLINE
  5
273
100
AcDbEntity
  8
0
100
AcDbSpline
 62
7
  6
BYLAYER
 70
0
 71
3
 72
15
 73
11
 74
0
 42
0.0000001
 43
0.0000001
 44
0.0000000001
 40
0.0
 40
0.0
 40
0.0
 40
0.0
 40
0.1141474514
 40
0.2373372766
 40
0.3669800178
 40
0.5000031312
 40
0.6330215899
 40
0.7626712185
 40
0.8858442339
 40
1.0
 40
1.0
 40
1.0
 40
1.0
 10
52.5091839879
 20
44.0169431189
 30
0.0
 10
52.2646007849
 20
43.8757337838
 30
0.0
 10
51.7297053522
 20
43.6266879027
 30
0.0
 10
50.8587220137
 20
43.3619077995
 30
0.0
 10
49.9157027842
 20
43.1990253774
 30
0.0
 10
48.9361871035
 20
43.1440203105
 30
0.0
 10
47.9566508784
 20
43.199021456
 30
0.0
 10
47.0136800747
 20
43.3619612369
 30
0.0
 10
46.1426878843
 20
43.6266949504
 30
0.0
 10
45.6078217991
 20
43.8757596803
 30
0.0
 10
45.3632243111
 20
44.016985417
 30
0.0
  0
SPLINE
  5
274
100
AcDbEntity
  8
0
100
AcDbSpline
 62
7
  6
BYLAYER
 70
0
 71
3
 72
9
 73
5
 74
0
 42
0.0000001
 43
0.0000001
 44
0.0000000001
 40
0.0
 40
0.0
 40
0.0
 40
0.0
 40
0.2436122761
 40
1.0
 40
1.0
 40
1.0
 40
1.0
 10
53.1788876085
 20
11.7435110544
 30
0.0
 10
53.1287069168
 20
11.7145393914
 30
0.0
 10
52.9208837797
 20
11.5988107472
 30
0.0
 10
52.7061902493
 20
11.4955394575
 30
0.0
 10
52.5411561695
 20
11.4239107664
 30
0.0
  0
SPLINE
  5
275
100
AcDbEntity
  8
0
100
AcDbSpline
 62
7
  6
BYLAYER
 70
0
 71
3
 72
11
 73
7
 74
0
 42
0.0000001
 43
0.0000001
 44
0.0000000001
 40
0.0
 40
0.0
 40
0.0
 40
0.0
 40
0.237851366
 40
0.4923612122
 40
0.7508654445
 40
1.0
 40
1.0
 40
1.0
 40
1.0
 10
52.5411561695
 20
11.4239107664
 30
0.0
 10
52.0694878399
 20
11.2191955639
 30
0.0
 10
51.0451009961
 20
10.9026640056
 30
0.0
 10
49.428303169
 20
10.696307307
 30
0.0
 10
47.7749395839
 20
10.7493285572
 30
0.0
 10
46.6918064873
 20
10.9629627919
 30
0.0
 10
46.1758248274
 20
11.1173015379
 30
0.0
  0
SPLINE
  5
276
100
AcDbEntity
  8
0
100
AcDbSpline
 62
7
  6
BYLAYER
 70
0
 71
3
 72
9
 73
5
 74
0
 42
0.0000001
 43
0.0000001
 44
0.0000000001
 40
0.0
 40
0.0
 40
0.0
 40
0.0
 40
0.2553959711
 40
1.0
 40
1.0
 40
1.0
 40
1.0
 10
46.1758248274
 20
11.1173015379
 30
0.0
 10
46.1062261031
 20
11.1381196806
 30
0.0
 10
45.834802825
 20
11.2232068816
 30
0.0
 10
45.5678892072
 20
11.3228770342
 30
0.0
 10
45.3730507035
 20
11.4059195165
 30
0.0
  0
SPLINE
  5
277
100
AcDbEntity
  8
0
100
AcDbSpline
 62
7
  6
BYLAYER
 70
0
 71
3
 72
18
 73
14
 74
0
 42
0.0000001
 43
0.0000001
 44
0.0000000001
 40
0.0
 40
0.0
 40
0.0
 40
0.0
 40
0.1472250401
 40
0.2799918432
 40
0.3999493082
 40
0.4565272082
 40
0.511710283
 40
0.5663708912
 40
0.6214213255
 40
0.6777398693
 40
0.7361078593
 40
0.861152575
 40
1.0
 40
1.0
 40
1.0
 40
1.0
 10
54.9678752132
 20
117.7156715673
 30
0.0
 10
55.3185154306
 20
117.9181125828
 30
0.0
 10
55.958490589
 20
118.3543193405
 30
0.0
 10
56.7390827244
 20
119.140003454
 30
0.0
 10
57.1846857313
 20
119.8775499083
 30
0.0
 10
57.3882300315
 20
120.4837302846
 30
0.0
 10
57.466225918
 20
120.9366378507
 30
0.0
 10
57.4717029907
 20
121.3920054984
 30
0.0
 10
57.4042484025
 20
121.8455006791
 30
0.0
 10
57.2650376233
 20
122.2929049323
 30
0.0
 10
56.9792174312
 20
122.8892679948
 30
0.0
 10
56.4361949615
 20
123.6017237533
 30
0.0
 10
55.8784223104
 20
124.0737252466
 30
0.0
 10
55.5676007504
 20
124.2955251964
 30
0.0
  0
SPLINE
  5
278
100
AcDbEntity
  8
0
100
AcDbSpline
 62
7
  6
BYLAYER
 70
0
 71
3
 72
27
 73
23
 74
0
 42
0.0000001
 43
0.0000001
 44
0.0000000001
 40
0.0
 40
0.0
 40
0.0
 40
0.0
 40
0.0585274144
 40
0.0854836986
 40
0.1110119708
 40
0.1353096889
 40
0.1586458297
 40
0.1813588918
 40
0.2038446204
 40
0.2265181338
 40
0.2497763532
 40
0.2992532147
 40
0.3543225549
 40
0.4156775822
 40
0.4830277232
 40
0.555375684
 40
0.6312481246
 40
0.7088772107
 40
0.7863633435
 40
0.8618133464
 40
0.9335029554
 40
1.0
 40
1.0
 40
1.0
 40
1.0
 10
42.5656261448
 20
124.4728397801
 30
0.0
 10
42.2203222353
 20
124.2488713049
 30
0.0
 10
41.740387461
 20
123.8781402674
 30
0.0
 10
41.2102249321
 20
123.3031219743
 30
0.0
 10
40.8945446284
 20
122.8631466255
 30
0.0
 10
40.6535096177
 20
122.4066428938
 30
0.0
 10
40.4894978092
 20
121.9378030306
 30
0.0
 10
40.4051024991
 20
121.4610819245
 30
0.0
 10
40.4010515878
 20
120.9815594739
 30
0.0
 10
40.4778847364
 20
120.5043558369
 30
0.0
 10
40.6901536883
 20
119.8651711487
 30
0.0
 10
41.1685421864
 20
119.089197029
 30
0.0
 10
42.0119948673
 20
118.2704453368
 30
0.0
 10
43.1022001811
 20
117.5639781767
 30
0.0
 10
44.4005281966
 20
116.9917295318
 30
0.0
 10
45.8614823374
 20
116.5721100154
 30
0.0
 10
47.4331273466
 20
116.3197867832
 30
0.0
 10
49.0590361642
 20
116.2436818271
 30
0.0
 10
50.6804708781
 20
116.346606866
 30
0.0
 10
52.2391703272
 20
116.6248138021
 30
0.0
 10
53.6785510883
 20
117.068306149
 30
0.0
 10
54.5629016095
 20
117.4818613438
 30
0.0
 10
54.9678752132
 20
117.7156715673
 30
0.0
  0
SPLINE
  5
279
100
AcDbEntity
  8
0
100
AcDbSpline
 62
7
  6
BYLAYER
 70
0
 71
3
 72
20
 73
16
 74
0
 42
0.0000001
 43
0.0000001
 44
0.0000000001
 40
0.0
 40
0.0
 40
0.0
 40
0.0
 40
0.0428299997
 40
0.0874304018
 40
0.1352338009
 40
0.1871636786
 40
0.243634654
 40
0.3046180355
 40
0.3697421886
 40
0.4383799555
 40
0.5826324993
 40
0.729694472
 40
0.8711911835
 40
0.9376005959
 40
1.0
 40
1.0
 40
1.0
 40
1.0
 10
42.9362705882
 20
46.0797428277
 30
0.0
 10
42.93627191
 20
45.9089465236
 30
0.0
 10
42.9819130835
 20
45.5588076259
 30
0.0
 10
43.1827234255
 20
45.0532291078
 30
0.0
 10
43.5086056013
 20
44.573977216
 30
0.0
 10
43.9502100441
 20
44.1304367895
 30
0.0
 10
44.4974831108
 20
43.7305594259
 30
0.0
 10
45.1386997039
 20
43.3818395069
 30
0.0
 10
45.8604580874
 20
43.0909957963
 30
0.0
 10
46.927283375
 20
42.7836948721
 30
0.0
 10
48.3570395659
 20
42.5831185263
 30
0.0
 10
50.0895092611
 20
42.6309602379
 30
0.0
 10
51.4863870312
 20
42.910350949
 30
0.0
 10
52.5013309011
 20
43.2781403864
 30
0.0
 10
52.9633901667
 20
43.5058815369
 30
0.0
 10
53.1788876085
 20
43.6302983003
 30
0.0
  0
SPLINE
  5
27A
100
AcDbEntity
  8
0
100
AcDbSpline
 62
7
  6
BYLAYER
 70
0
 71
3
 72
15
 73
11
 74
0
 42
0.0000001
 43
0.0000001
 44
0.0000000001
 40
0.0
 40
0.0
 40
0.0
 40
0.0
 40
0.1141446766
 40
0.2373325168
 40
0.3669748072
 40
0.5000017121
 40
0.6330247894
 40
0.7626746101
 40
0.8858460218
 40
1.0
 40
1.0
 40
1.0
 40
1.0
 10
53.1788876085
 20
44.4036077396
 30
0.0
 10
52.8884670571
 20
44.2359343569
 30
0.0
 10
52.2533262711
 20
43.9402090665
 30
0.0
 10
51.2191017739
 20
43.6258026417
 30
0.0
 10
50.099322148
 20
43.4323768305
 30
0.0
 10
48.9361833163
 20
43.3670643637
 30
0.0
 10
47.7730182223
 20
43.4323694264
 30
0.0
 10
46.6532893673
 20
43.6258561026
 30
0.0
 10
45.6190477128
 20
43.9402077754
 30
0.0
 10
44.9839392876
 20
44.2359586465
 30
0.0
 10
44.6934975951
 20
44.4036500666
 30
0.0
  0
SPLINE
  5
27B
100
AcDbEntity
  8
0
100
AcDbSpline
 62
7
  6
BYLAYER
 70
0
 71
3
 72
12
 73
8
 74
0
 42
0.0000001
 43
0.0000001
 44
0.0000000001
 40
0.0
 40
0.0
 40
0.0
 40
0.0
 40
0.289555259
 40
0.5486519424
 40
0.7816335802
 40
0.8918403258
 40
1.0
 40
1.0
 40
1.0
 40
1.0
 10
53.1788876085
 20
43.6302983003
 30
0.0
 10
53.442225633
 20
43.7823356721
 30
0.0
 10
53.9199108846
 20
44.1113879757
 30
0.0
 10
54.4907134122
 20
44.7107766592
 30
0.0
 10
54.7970128091
 20
45.2757273939
 30
0.0
 10
54.9164968416
 20
45.7363578848
 30
0.0
 10
54.9361888061
 20
45.9661590761
 30
0.0
 10
54.9361879271
 20
46.0797428271
 30
0.0
  0
SPLINE
  5
27C
100
AcDbEntity
  8
0
100
AcDbSpline
 62
7
  6
BYLAYER
 70
0
 71
3
 72
14
 73
10
 74
0
 42
0.0000001
 43
0.0000001
 44
0.0000000001
 40
0.0
 40
0.0
 40
0.0
 40
0.0
 40
0.289273021
 40
0.4225560527
 40
0.5484999908
 40
0.6678890519
 40
0.7818695862
 40
0.8919534474
 40
1.0
 40
1.0
 40
1.0
 40
1.0
 10
55.300216784
 20
117.1400422766
 30
0.0
 10
55.6952616811
 20
117.3681201929
 30
0.0
 10
56.2485365678
 20
117.7490433194
 30
0.0
 10
56.8744521188
 20
118.3481217689
 30
0.0
 10
57.2554465035
 20
118.8098705732
 30
0.0
 10
57.5564947246
 20
119.2919898675
 30
0.0
 10
57.7746045037
 20
119.7900586703
 30
0.0
 10
57.9065781953
 20
120.299174242
 30
0.0
 10
57.9362309722
 20
120.6438292453
 30
0.0
 10
57.9362292579
 20
120.8142090673
 30
0.0
  0
SPLINE
  5
27D
100
AcDbEntity
  8
0
100
AcDbSpline
 62
7
  6
BYLAYER
 70
0
 71
3
 72
23
 73
19
 74
0
 42
0.0000001
 43
0.0000001
 44
0.0000000001
 40
0.0
 40
0.0
 40
0.0
 40
0.0
 40
0.0428139027
 40
0.0873953801
 40
0.1351774251
 40
0.1870861316
 40
0.2435333494
 40
0.3044912169
 40
0.3695890874
 40
0.4381975147
 40
0.50949618
 40
0.5825325594
 40
0.6562757706
 40
0.7296653747
 40
0.8016549141
 40
0.8712517022
 40
0.9376169172
 40
1.0
 40
1.0
 40
1.0
 40
1.0
 10
39.9362292574
 20
120.8142090673
 30
0.0
 10
39.9362318353
 20
120.5580011378
 30
0.0
 10
40.0047527448
 20
120.0327820143
 30
0.0
 10
40.3059867073
 20
119.2744236948
 30
0.0
 10
40.7947437868
 20
118.5554951886
 30
0.0
 10
41.4572016684
 20
117.8902213998
 30
0.0
 10
42.2781153428
 20
117.2904053771
 30
0.0
 10
43.2399571769
 20
116.7672835039
 30
0.0
 10
44.322582711
 20
116.3311192401
 30
0.0
 10
45.5032629582
 20
115.9908310806
 30
0.0
 10
46.7570468416
 20
115.7535577772
 30
0.0
 10
48.057281061
 20
115.6242729624
 30
0.0
 10
49.376261985
 20
115.6056998437
 30
0.0
 10
50.6858728665
 20
115.6982577798
 30
0.0
 10
51.9581058544
 20
115.9000454565
 30
0.0
 10
53.1661438473
 20
116.206654152
 30
0.0
 10
54.2839166
 20
116.6117645546
 30
0.0
 10
54.976916667
 20
116.9533859812
 30
0.0
 10
55.300216784
 20
117.1400422766
 30
0.0
  0
ENDSEC
  0
SECTION
  2
OBJECTS
  0
DICTIONARY
  5
C
100
AcDbDictionary
280
0
281
1
  3
ACAD_GROUP
350
D
  3
ACAD_MLINESTYLE
350
17
  3
ACAD_LAYOUT
350
1A
  3
ACAD_PLOTSETTINGS
350
19
  3
ACAD_PLOTSTYLENAME
350
E
  0
DICTIONARY
  5
D
102
{ACAD_REACTORS
330
C
102
}
100
AcDbDictionary
280
0
281
1
  0
ACDBDICTIONARYWDFLT
  5
E
102
{ACAD_REACTORS
330
C
102
}
100
AcDbDictionary
281
1
  3
Normal
350
F
100
AcDbDictionaryWithDefault
340
F
  0
DICTIONARY
  5
17
102
{ACAD_REACTORS
330
C
102
}
100
AcDbDictionary
280
0
281
1
  3
Standard
350
18
  0
DICTIONARY
  5
19
102
{ACAD_REACTORS
330
C
102
}
100
AcDbDictionary
281
1
  0
DICTIONARY
  5
1A
102
{ACAD_REACTORS
330
C
102
}
100
AcDbDictionary
281
1
  3
Model
350
27E
  3
Layout1
350
27F
  0
ACDBPLACEHOLDER
  5
F
102
{ACAD_REACTORS
330
E
102
}
  0
MLINESTYLE
  5
18
102
{ACAD_REACTORS
330
17
102
}
100
AcDbMlineStyle
  2
STANDARD
 70
0
  3

 62
256
 51
90.0
 52
90.0
 71
2
 49
0.5
 62
256
  6
BYLAYER
 49
-0.5
 62
256
  6
BYLAYER
  0
LAYOUT
  5
27E
102
{ACAD_REACTORS
330
1A
102
}
100
AcDbPlotSettings
  1

  2
none_device
  4

  6

 40
0.0
 41
0.0
 42
0.0
 43
0.0
 44
210.0
 45
297.0
 46
0.0
 47
0.0
 48
0.0
 49
0.0
140
0.0
141
0.0
142
1.0
143
1.0
 70
1024
 72
1
 73
0
 74
0
  7

 75
0
147
1.0
148
0.0
149
0.0
100
AcDbLayout
  1
Model
 70
0
 71
0
 10
0.0
 20
0.0
 11
210.0
 21
297.0
 12
0.0
 22
0.0
 32
0.0
 14
0.0
 24
0.0
 34
0.0
 15
0.0
 25
0.0
 35
0.0
146
0.0
 13
0.0
 23
0.0
 33
0.0
 16
1.0
 26
0.0
 36
0.0
 17
0.0
 27
1.0
 37
0.0
 76
0
330
210
345
0
346
0
  0
LAYOUT
  5
27F
102
{ACAD_REACTORS
330
1A
102
}
100
AcDbPlotSettings
  1

  2
none_device
  4

  6

 40
0.0
 41
0.0
 42
0.0
 43
0.0
 44
210.0
 45
297.0
 46
0.0
 47
0.0
 48
0.0
 49
0.0
140
0.0
141
0.0
142
1.0
143
1.0
 70
0
 72
1
 73
0
 74
0
  7

 75
0
147
1.0
148
0.0
149
0.0
100
AcDbLayout
  1
Layout1
 70
0
 71
1
 10
0.0
 20
0.0
 11
210.0
 21
297.0
 12
0.0
 22
0.0
 32
0.0
 14
0.0
 24
0.0
 34
0.0
 15
0.0
 25
0.0
 35
0.0
146
0.0
 13
0.0
 23
0.0
 33
0.0
 16
1.0
 26
0.0
 36
0.0
 17
0.0
 27
1.0
 37
0.0
 76
0
330
211
345
0
346
0
  0
ENDSEC
  0
EOF
