999
DXF file: C:\Users\sesa63760\Dev\_Creo\CAD\MCADID0004835_3D-CAD\drw0001_7.dxf
999
Pro/ENGINEER 2019471 by Parametric Technology Corporation
  0
SECTION
  2
HEADER
  9
$ACADVER
  1
AC1024
  9
$DWGCODEPAGE
  3
ANSI_1252
  9
$EXTMAX
 10
152.2464950387
 20
215.3200429832
 30
0.0
  9
$EXTMIN
 10
0.0
 20
0.0
 30
0.0
  9
$LIMMIN
 10
0.0
 20
0.0
  9
$LIMMAX
 10
152.2464950387
 20
215.3200429832
  9
$VIEWCTR
 10
76.1232475193
 20
107.6600214916
  9
$VIEWSIZE
 40
215.3200429832
  9
$CLAYER
  8
0
  9
$LTSCALE
 40
14.0356768759
  9
$CELTYPE
  6
BYLAYER
  9
$DIMSCALE
 40
1.0
  9
$DIMASZ
 40
1.8124582743
  9
$DIMEXO
 40
1.0
  9
$DIMDLI
 40
9.6973767507
  9
$DIMEXE
 40
1.0
  9
$DIMCEN
 40
2.2967471252
  9
$DIMLFAC
 40
1.0
  9
$DIMBLK
  1
_FILLED
  9
$DIMALT
 70
0
  9
$DIMALTF
 40
0.0393700787
  9
$DIMTXT
 40
2.537441584
  9
$DIMTOL
 70
1
  9
$DIMLIM
 70
0
  9
$DIMTFAC
 40
1.0
  9
$DIMTP
 40
0.01
  9
$DIMTM
 40
0.01
  9
$DIMGAP
 40
0.625
  9
$DIMDSEP
 70
46
  9
$AUNITS
 70
0
  9
$PDMODE
 70
3
  9
$PDSIZE
 40
0.3125
  9
$HANDSEED
  5
375
  9
$TILEMODE
 70
1
  9
$MEASUREMENT
 70
1
  9
$INSUNITS
 70
4
  0
ENDSEC
  0
SECTION
  2
CLASSES
  0
CLASS
  1
ACDBDICTIONARYWDFLT
  2
AcDbDictionaryWithDefault
  3
AutoCAD 2000
 90
0
 91
1
280
0
281
0
  0
CLASS
  1
ACDBPLACEHOLDER
  2
AcDbPlaceHolder
  3
AutoCAD 2000
 90
0
 91
1
280
0
281
0
  0
CLASS
  1
LAYOUT
  2
AcDbLayout
  3
AutoCAD 2000
 90
0
 91
0
280
0
281
0
  0
ENDSEC
  0
SECTION
  2
TABLES
  0
TABLE
  2
VPORT
  5
8
100
AcDbSymbolTable
 70
2
  0
VPORT
  5
1F4
100
AcDbSymbolTableRecord
100
AcDbViewportTableRecord
  2
*ACTIVE
 70
0
 10
0.0
 20
0.0
 11
1.0
 21
1.0
 12
76.1232475193
 22
107.6600214916
 13
0.0
 23
0.0
 14
1.0
 24
1.0
 15
0.0
 25
0.0
 16
0.0
 26
0.0
 36
1.0
 17
0.0
 27
0.0
 37
0.0
 40
215.3200429832
 41
0.7070707071
 42
50.0
 43
0.0
 44
0.0
 50
0.0
 51
0.0
 71
0
 72
100
 73
1
 74
1
 75
0
 76
0
 77
0
 78
0
  0
ENDTAB
  0
TABLE
  2
LTYPE
  5
5
100
AcDbSymbolTable
 70
6
  0
LTYPE
  5
14
100
AcDbSymbolTableRecord
100
AcDbLinetypeTableRecord
  2
BYBLOCK
 70
0
  3

 72
65
 73
0
 40
0.0
  0
LTYPE
  5
15
100
AcDbSymbolTableRecord
100
AcDbLinetypeTableRecord
  2
BYLAYER
 70
0
  3

 72
65
 73
0
 40
0.0
  0
LTYPE
  5
16
100
AcDbSymbolTableRecord
100
AcDbLinetypeTableRecord
  2
CONTINUOUS
 70
64
  3
Solid line
 72
65
 73
0
 40
0.0
  0
LTYPE
  5
1F5
100
AcDbSymbolTableRecord
100
AcDbLinetypeTableRecord
  2
CENTER
 70
64
  3
____ _ ____ _ ____ _ ____ _ ____ _ ____ _ ____
 72
65
 73
4
 40
0.6
 49
0.375
 74
0
 49
-0.075
 74
0
 49
0.075
 74
0
 49
-0.075
 74
0
  0
LTYPE
  5
1F6
100
AcDbSymbolTableRecord
100
AcDbLinetypeTableRecord
  2
HIDDEN
 70
64
  3
- - - - - - - - - - - - - - - - - - - -
 72
65
 73
2
 40
0.2
 49
0.1
 74
0
 49
-0.1
 74
0
  0
LTYPE
  5
1F7
100
AcDbSymbolTableRecord
100
AcDbLinetypeTableRecord
  2
PHANTOM
 70
64
  3
_____ _ _ _____ _ _ _____ _ _ _____
 72
65
 73
6
 40
0.8
 49
0.45
 74
0
 49
-0.05
 74
0
 49
0.1
 74
0
 49
-0.05
 74
0
 49
0.1
 74
0
 49
-0.05
 74
0
  0
LTYPE
  5
1F8
100
AcDbSymbolTableRecord
100
AcDbLinetypeTableRecord
  2
DOT
 70
64
  3
. . . . . . . . . . . . . . . . . . . .
 72
65
 73
2
 40
0.2
 49
0.1
 74
0
 49
-0.1
 74
0
  0
LTYPE
  5
1F9
100
AcDbSymbolTableRecord
100
AcDbLinetypeTableRecord
  2
DASHED
 70
64
  3
- - - - - - - - - - - - - - - - - - - -
 72
65
 73
2
 40
0.2
 49
0.1
 74
0
 49
-0.1
 74
0
  0
ENDTAB
  0
TABLE
  2
LAYER
  5
2
100
AcDbSymbolTable
 70
36
  0
LAYER
  5
10
100
AcDbSymbolTableRecord
100
AcDbLayerTableRecord
  2
0
 70
0
 62
7
  6
CONTINUOUS
370
-3
390
F
  0
LAYER
  5
1FA
100
AcDbSymbolTableRecord
100
AcDbLayerTableRecord
  2
DEFAULT_1
 70
0
 62
7
  6
CENTER
370
-3
390
F
  0
LAYER
  5
1FB
100
AcDbSymbolTableRecord
100
AcDbLayerTableRecord
  2
DEFAULT_2
 70
0
 62
7
  6
HIDDEN
370
-3
390
F
  0
LAYER
  5
1FC
100
AcDbSymbolTableRecord
100
AcDbLayerTableRecord
  2
DEFAULT_3
 70
0
 62
7
  6
PHANTOM
370
-3
390
F
  0
LAYER
  5
1FD
100
AcDbSymbolTableRecord
100
AcDbLayerTableRecord
  2
00_COMPONENTS
 70
0
 62
7
  6
CONTINUOUS
370
-3
390
F
  0
LAYER
  5
1FE
100
AcDbSymbolTableRecord
100
AcDbLayerTableRecord
  2
01_1_DEFAULT_DATUMS
 70
0
 62
7
  6
CONTINUOUS
370
-3
390
F
  0
LAYER
  5
1FF
100
AcDbSymbolTableRecord
100
AcDbLayerTableRecord
  2
01_PLANES
 70
0
 62
7
  6
CONTINUOUS
370
-3
390
F
  0
LAYER
  5
200
100
AcDbSymbolTableRecord
100
AcDbLayerTableRecord
  2
02_COORD_SYS
 70
0
 62
7
  6
CONTINUOUS
370
-3
390
F
  0
LAYER
  5
201
100
AcDbSymbolTableRecord
100
AcDbLayerTableRecord
  2
03_AXES
 70
0
 62
7
  6
CONTINUOUS
370
-3
390
F
  0
LAYER
  5
202
100
AcDbSymbolTableRecord
100
AcDbLayerTableRecord
  2
04_POINTS
 70
0
 62
7
  6
CONTINUOUS
370
-3
390
F
  0
LAYER
  5
203
100
AcDbSymbolTableRecord
100
AcDbLayerTableRecord
  2
05_CURVES
 70
0
 62
7
  6
CONTINUOUS
370
-3
390
F
  0
LAYER
  5
204
100
AcDbSymbolTableRecord
100
AcDbLayerTableRecord
  2
06_SURFS
 70
0
 62
7
  6
CONTINUOUS
370
-3
390
F
  0
LAYER
  5
205
100
AcDbSymbolTableRecord
100
AcDbLayerTableRecord
  2
07_COSMETICS
 70
0
 62
7
  6
CONTINUOUS
370
-3
390
F
  0
LAYER
  5
206
100
AcDbSymbolTableRecord
100
AcDbLayerTableRecord
  2
10_NOTES
 70
0
 62
7
  6
CONTINUOUS
370
-3
390
F
  0
LAYER
  5
207
100
AcDbSymbolTableRecord
100
AcDbLayerTableRecord
  2
11_NOTES_PUB
 70
0
 62
7
  6
CONTINUOUS
370
-3
390
F
  0
LAYER
  5
208
100
AcDbSymbolTableRecord
100
AcDbLayerTableRecord
  2
13_REF_GTOL
 70
0
 62
7
  6
CONTINUOUS
370
-3
390
F
  0
LAYER
  5
209
100
AcDbSymbolTableRecord
100
AcDbLayerTableRecord
  2
16_MISC
 70
0
 62
7
  6
CONTINUOUS
370
-3
390
F
  0
LAYER
  5
20A
100
AcDbSymbolTableRecord
100
AcDbLayerTableRecord
  2
17_NO_PRINT
 70
0
 62
7
  6
CONTINUOUS
370
-3
390
F
  0
LAYER
  5
20B
100
AcDbSymbolTableRecord
100
AcDbLayerTableRecord
  2
18_DATUM_CAMS_JOINTS
 70
0
 62
7
  6
CONTINUOUS
370
-3
390
F
  0
LAYER
  5
20C
100
AcDbSymbolTableRecord
100
AcDbLayerTableRecord
  2
19_DATUM_FUNCTIONAL
 70
0
 62
7
  6
CONTINUOUS
370
-3
390
F
  0
LAYER
  5
20D
100
AcDbSymbolTableRecord
100
AcDbLayerTableRecord
  2
20_DATUM_KINEMATIC_SCHEME
 70
0
 62
7
  6
CONTINUOUS
370
-3
390
F
  0
ENDTAB
  0
TABLE
  2
STYLE
  5
3
100
AcDbSymbolTable
 70
1
  0
STYLE
  5
11
100
AcDbSymbolTableRecord
100
AcDbTextStyleTableRecord
  2
STANDARD
 70
0
 40
0.0
 41
1.0
 50
0.0
 71
0
 42
0.2
  3
ARIAL.TTF
  4

  0
STYLE
  5
20E
100
AcDbSymbolTableRecord
100
AcDbTextStyleTableRecord
  2
TEXTSTYLE_1
 70
0
 40
0.0
 41
0.8
 50
0.0
 71
0
 42
0.2
  3
gdt
  4

  0
ENDTAB
  0
TABLE
  2
VIEW
  5
6
100
AcDbSymbolTable
 70
0
  0
ENDTAB
  0
TABLE
  2
UCS
  5
7
100
AcDbSymbolTable
 70
0
  0
ENDTAB
  0
TABLE
  2
APPID
  5
9
100
AcDbSymbolTable
 70
1
  0
APPID
  5
20F
100
AcDbSymbolTableRecord
100
AcDbRegAppTableRecord
  2
ACAD
 70
0
  0
ENDTAB
  0
TABLE
  2
BLOCK_RECORD
  5
1
100
AcDbSymbolTable
 70
0
  0
BLOCK_RECORD
  5
210
100
AcDbSymbolTableRecord
100
AcDbBlockTableRecord
  2
*Model_Space
  0
BLOCK_RECORD
  5
211
100
AcDbSymbolTableRecord
100
AcDbBlockTableRecord
  2
*Paper_Space
  0
BLOCK_RECORD
  5
212
100
AcDbSymbolTableRecord
100
AcDbBlockTableRecord
  2
_FILLED
  0
ENDTAB
  0
TABLE
  2
DIMSTYLE
  5
A
100
AcDbSymbolTable
 70
1
100
AcDbDimStyleTable
 71
0
  0
DIMSTYLE
105
213
100
AcDbSymbolTableRecord
100
AcDbDimStyleTableRecord
  2
STANDARD
 70
0
  3

  4

 40
1.0
 41
1.8124582743
 42
1.0
 43
0.38
 44
1.0
 45
0.0
 46
0.0
 47
0.01
 48
0.01
140
2.537441584
141
0.09
142
0.0
143
25.4
144
1.0
145
0.0
146
1.0
147
0.625
 71
1
 72
0
 73
0
 74
0
 75
0
 76
0
 77
1
 78
8
 79
2
170
0
171
1
172
0
173
0
174
0
175
0
176
0
177
0
178
0
270
2
179
2
271
2
272
2
273
2
274
2
275
0
280
0
281
0
282
0
283
1
284
8
285
0
286
0
287
3
288
0
340
11
278
46
341
212
342
212
343
212
344
212
  0
ENDTAB
  0
ENDSEC
  0
SECTION
  2
BLOCKS
  0
BLOCK
  5
20
100
AcDbEntity
  8
0
100
AcDbBlockBegin
  2
*Model_Space
 70
0
 10
0.0
 20
0.0
 30
0.0
  3
*Model_Space
  1

  0
ENDBLK
  5
21
100
AcDbEntity
  8
0
100
AcDbBlockEnd
  0
BLOCK
  5
1C
100
AcDbEntity
  8
0
100
AcDbBlockBegin
  2
*Paper_Space
 70
0
 10
0.0
 20
0.0
 30
0.0
  3
*Paper_Space
  1

  0
ENDBLK
  5
1D
100
AcDbEntity
  8
0
100
AcDbBlockEnd
  0
BLOCK
  5
214
100
AcDbEntity
  8
0
100
AcDbBlockBegin
  2
_FILLED
 70
64
 10
0.0
 20
0.0
  3
_FILLED
  1

  0
SOLID
  5
215
100
AcDbEntity
  8
0
  6
BYBLOCK
 62
0
100
AcDbTrace
 10
0.0
 20
0.0
 11
-1.0
 21
0.25
 12
-1.0
 22
-0.25
 13
-1.0
 23
-0.25
  0
ENDBLK
  5
216
100
AcDbEntity
  8
0
  6
BYBLOCK
 62
0
100
AcDbBlockEnd
  0
ENDSEC
  0
SECTION
  2
ENTITIES
  0
LINE
  5
217
100
AcDbEntity
  8
0
100
AcDbLine
 62
7
  6
BYLAYER
 10
19.6792255625
 20
107.1291847393
 11
19.6792255625
 21
107.43712074
  0
LINE
  5
218
100
AcDbEntity
  8
0
100
AcDbLine
 62
7
  6
BYLAYER
 10
19.6792255625
 20
108.93712074
 11
19.6792255625
 21
109.2450567408
  0
LINE
  5
219
100
AcDbEntity
  8
0
100
AcDbLine
 62
7
  6
BYLAYER
 10
29.8667143296
 20
129.3917441335
 11
29.6010714418
 21
128.4003513796
  0
LINE
  5
21A
100
AcDbEntity
  8
0
100
AcDbLine
 62
7
  6
BYLAYER
 10
29.6010714418
 20
87.9738901005
 11
29.8667143296
 21
86.9824973466
  0
LINE
  5
21B
100
AcDbEntity
  8
0
100
AcDbLine
 62
7
  6
BYLAYER
 10
35.8937228729
 20
109.2450567408
 11
35.8937228729
 21
108.93712074
  0
LINE
  5
21C
100
AcDbEntity
  8
0
100
AcDbLine
 62
7
  6
BYLAYER
 10
35.8937228729
 20
107.43712074
 11
35.8937228729
 21
107.1291847393
  0
LINE
  5
21D
100
AcDbEntity
  8
0
100
AcDbLine
 62
7
  6
BYLAYER
 10
17.8493076328
 20
108.0456993838
 11
17.1235577666
 21
107.3199495177
  0
LINE
  5
21E
100
AcDbEntity
  8
0
100
AcDbLine
 62
7
  6
BYLAYER
 10
31.3097553717
 20
127.2738532879
 11
31.0430749723
 21
127.1198852875
  0
LINE
  5
21F
100
AcDbEntity
  8
0
100
AcDbLine
 62
7
  6
BYLAYER
 10
29.7440368667
 20
126.3698852875
 11
29.4773564673
 21
126.2159172872
  0
LINE
  5
220
100
AcDbEntity
  8
0
100
AcDbLine
 62
7
  6
BYLAYER
 10
29.7440368667
 20
90.0043561926
 11
29.4773564673
 21
90.1583241929
  0
LINE
  5
221
100
AcDbEntity
  8
0
100
AcDbLine
 62
7
  6
BYLAYER
 10
31.0430749723
 20
89.2543561926
 11
31.3097553717
 21
89.1003881922
  0
LINE
  5
222
100
AcDbEntity
  8
0
100
AcDbLine
 62
7
  6
BYLAYER
 10
17.1235577666
 20
109.0542919624
 11
17.8493076328
 21
108.3285420963
  0
LINE
  5
223
100
AcDbEntity
  8
0
100
AcDbLine
 62
7
  6
BYLAYER
 10
42.0620755888
 20
112.8994207457
 11
42.0013889702
 21
112.5975236671
  0
LINE
  5
224
100
AcDbEntity
  8
0
100
AcDbLine
 62
7
  6
BYLAYER
 10
40.1536969643
 20
103.4748207344
 11
40.2148103487
 21
103.7766314943
  0
LINE
  5
225
100
AcDbEntity
  8
0
100
AcDbLine
 62
7
  6
BYLAYER
 10
42.0622968519
 20
103.4748655431
 11
42.0011692962
 21
103.7766734332
  0
LINE
  5
226
100
AcDbEntity
  8
0
100
AcDbLine
 62
7
  6
BYLAYER
 10
40.1536969643
 20
112.8994207457
 11
40.2148103487
 21
112.5976099858
  0
LINE
  5
227
100
AcDbEntity
  8
0
100
AcDbLine
 62
7
  6
BYLAYER
 10
46.3220496802
 20
107.1291847393
 11
46.3220496802
 21
107.43712074
  0
LINE
  5
228
100
AcDbEntity
  8
0
100
AcDbLine
 62
7
  6
BYLAYER
 10
46.3220496802
 20
108.93712074
 11
46.3220496802
 21
109.2450567408
  0
LINE
  5
229
100
AcDbEntity
  8
0
100
AcDbLine
 62
7
  6
BYLAYER
 10
48.3248254647
 20
131.076327558
 11
48.144401985
 21
130.5040973876
  0
LINE
  5
22A
100
AcDbEntity
  8
0
100
AcDbLine
 62
7
  6
BYLAYER
 10
34.0713705682
 20
85.8701440925
 11
33.8909470885
 21
85.2979139221
  0
LINE
  5
22B
100
AcDbEntity
  8
0
100
AcDbLine
 62
7
  6
BYLAYER
 10
31.6130004432
 20
88.1288344833
 11
31.4812498691
 21
87.8505066787
  0
LINE
  5
22C
100
AcDbEntity
  8
0
100
AcDbLine
 62
7
  6
BYLAYER
 10
50.6027721099
 20
128.2454069968
 11
50.734522684
 21
128.5237348014
  0
LINE
  5
22D
100
AcDbEntity
  8
0
100
AcDbLine
 62
7
  6
BYLAYER
 10
28.8442279916
 20
90.6556250222
 11
36.8569713551
 21
104.5341036359
  0
LINE
  5
22E
100
AcDbEntity
  8
0
100
AcDbLine
 62
7
  6
BYLAYER
 10
42.1460344285
 20
113.6950296034
 11
50.1587777921
 21
127.5735082171
  0
LINE
  5
22F
100
AcDbEntity
  8
0
100
AcDbLine
 62
7
  6
BYLAYER
 10
29.4773564673
 20
90.1583241929
 11
37.5846051225
 21
104.2004907734
  0
LINE
  5
230
100
AcDbEntity
  8
0
100
AcDbLine
 62
7
  6
BYLAYER
 10
42.7987685262
 20
113.2316867075
 11
50.9060171814
 21
127.2738532879
  0
LINE
  5
231
100
AcDbEntity
  8
0
100
AcDbLine
 62
7
  6
BYLAYER
 10
51.1726975808
 20
127.1198852875
 11
43.0654489255
 21
113.0777187071
  0
LINE
  5
232
100
AcDbEntity
  8
0
100
AcDbLine
 62
7
  6
BYLAYER
 10
37.8512855219
 20
104.046522773
 11
29.7440368667
 21
90.0043561925
  0
LINE
  5
233
100
AcDbEntity
  8
0
100
AcDbLine
 62
7
  6
BYLAYER
 10
50.1587777921
 20
88.800733263
 11
42.1460344285
 21
102.6792118767
  0
LINE
  5
234
100
AcDbEntity
  8
0
100
AcDbLine
 62
7
  6
BYLAYER
 10
36.8569713551
 20
111.8401378442
 11
28.8442279916
 21
125.7186164579
  0
LINE
  5
235
100
AcDbEntity
  8
0
100
AcDbLine
 62
7
  6
BYLAYER
 10
29.4773564673
 20
126.2159172872
 11
37.5846051225
 21
112.1737507067
  0
LINE
  5
236
100
AcDbEntity
  8
0
100
AcDbLine
 62
7
  6
BYLAYER
 10
42.7987685262
 20
103.1425547726
 11
50.9060171814
 21
89.1003881922
  0
LINE
  5
237
100
AcDbEntity
  8
0
100
AcDbLine
 62
7
  6
BYLAYER
 10
51.1726975808
 20
89.2543561926
 11
43.0654489255
 21
103.296522773
  0
LINE
  5
238
100
AcDbEntity
  8
0
100
AcDbLine
 62
7
  6
BYLAYER
 10
37.8512855219
 20
112.3277187071
 11
29.7440368667
 21
126.3698852875
  0
LINE
  5
239
100
AcDbEntity
  8
0
100
AcDbLine
 62
7
  6
BYLAYER
 10
50.6027721099
 20
88.1288344833
 11
50.734522684
 21
87.8505066787
  0
LINE
  5
23A
100
AcDbEntity
  8
0
100
AcDbLine
 62
7
  6
BYLAYER
 10
31.6130004432
 20
128.2454069968
 11
31.4812498691
 21
128.5237348014
  0
LINE
  5
23B
100
AcDbEntity
  8
0
100
AcDbLine
 62
7
  6
BYLAYER
 10
33.8909470885
 20
131.076327558
 11
34.0713705682
 21
130.5040973876
  0
LINE
  5
23C
100
AcDbEntity
  8
0
100
AcDbLine
 62
7
  6
BYLAYER
 10
48.144401985
 20
85.8701440925
 11
48.3248254647
 21
85.2979139221
  0
LINE
  5
23D
100
AcDbEntity
  8
0
100
AcDbLine
 62
7
  6
BYLAYER
 10
52.4717356864
 20
126.3698852875
 11
44.3644870312
 21
112.3277187071
  0
LINE
  5
23E
100
AcDbEntity
  8
0
100
AcDbLine
 62
7
  6
BYLAYER
 10
39.1503236276
 20
103.296522773
 11
31.0430749723
 21
89.2543561926
  0
LINE
  5
23F
100
AcDbEntity
  8
0
100
AcDbLine
 62
7
  6
BYLAYER
 10
31.3097553717
 20
89.1003881922
 11
39.4170040269
 21
103.1425547726
  0
LINE
  5
240
100
AcDbEntity
  8
0
100
AcDbLine
 62
7
  6
BYLAYER
 10
44.6311674306
 20
112.1737507067
 11
52.7384160858
 21
126.2159172872
  0
LINE
  5
241
100
AcDbEntity
  8
0
100
AcDbLine
 62
7
  6
BYLAYER
 10
53.3715445615
 20
125.7186164579
 11
45.358801198
 21
111.8401378442
  0
LINE
  5
242
100
AcDbEntity
  8
0
100
AcDbLine
 62
7
  6
BYLAYER
 10
40.0697381246
 20
102.6792118767
 11
32.0569947611
 21
88.800733263
  0
LINE
  5
243
100
AcDbEntity
  8
0
100
AcDbLine
 62
7
  6
BYLAYER
 10
28.4843437385
 20
89.9351652739
 11
28.3091800762
 21
89.6819020276
  0
LINE
  5
244
100
AcDbEntity
  8
0
100
AcDbLine
 62
7
  6
BYLAYER
 10
53.7314288146
 20
126.4390762062
 11
53.9065924769
 21
126.6923394525
  0
LINE
  5
245
100
AcDbEntity
  8
0
100
AcDbLine
 62
7
  6
BYLAYER
 10
57.3220512593
 20
125.8817768235
 11
56.9166971348
 21
125.4394104214
  0
LINE
  5
246
100
AcDbEntity
  8
0
100
AcDbLine
 62
7
  6
BYLAYER
 10
25.2990754183
 20
90.9348310587
 11
24.8937212938
 21
90.4924646566
  0
LINE
  5
247
100
AcDbEntity
  8
0
100
AcDbLine
 62
7
  6
BYLAYER
 10
24.8937212938
 20
125.8817768235
 11
25.2990754183
 21
125.4394104214
  0
LINE
  5
248
100
AcDbEntity
  8
0
100
AcDbLine
 62
7
  6
BYLAYER
 10
57.3220512593
 20
90.4924646566
 11
56.9166971348
 21
90.9348310587
  0
LINE
  5
249
100
AcDbEntity
  8
0
100
AcDbLine
 62
7
  6
BYLAYER
 10
53.7314288146
 20
89.9351652739
 11
53.9065924769
 21
89.6819020276
  0
LINE
  5
24A
100
AcDbEntity
  8
0
100
AcDbLine
 62
7
  6
BYLAYER
 10
28.4843437385
 20
126.4390762062
 11
28.3091800762
 21
126.6923394525
  0
LINE
  5
24B
100
AcDbEntity
  8
0
100
AcDbLine
 62
7
  6
BYLAYER
 10
31.0430749723
 20
127.1198852875
 11
39.1503236276
 21
113.0777187071
  0
LINE
  5
24C
100
AcDbEntity
  8
0
100
AcDbLine
 62
7
  6
BYLAYER
 10
44.3644870312
 20
104.046522773
 11
52.4717356864
 21
90.0043561926
  0
LINE
  5
24D
100
AcDbEntity
  8
0
100
AcDbLine
 62
7
  6
BYLAYER
 10
52.7384160858
 20
90.1583241929
 11
44.6311674306
 21
104.2004907734
  0
LINE
  5
24E
100
AcDbEntity
  8
0
100
AcDbLine
 62
7
  6
BYLAYER
 10
39.4170040269
 20
113.2316867075
 11
31.3097553717
 21
127.2738532879
  0
LINE
  5
24F
100
AcDbEntity
  8
0
100
AcDbLine
 62
7
  6
BYLAYER
 10
32.056994761
 20
127.5735082171
 11
40.0697381246
 21
113.6950296034
  0
LINE
  5
250
100
AcDbEntity
  8
0
100
AcDbLine
 62
7
  6
BYLAYER
 10
45.358801198
 20
104.5341036359
 11
53.3715445615
 21
90.6556250222
  0
LINE
  5
251
100
AcDbEntity
  8
0
100
AcDbLine
 62
7
  6
BYLAYER
 10
44.7117631356
 20
111.3696229273
 11
44.4809440426
 21
111.165791804
  0
LINE
  5
252
100
AcDbEntity
  8
0
100
AcDbLine
 62
7
  6
BYLAYER
 10
37.5040094175
 20
105.0046185528
 11
37.7348285106
 21
105.2084496761
  0
LINE
  5
253
100
AcDbEntity
  8
0
100
AcDbLine
 62
7
  6
BYLAYER
 10
37.5846051225
 20
112.1737507067
 11
37.8512855219
 21
112.3277187071
  0
LINE
  5
254
100
AcDbEntity
  8
0
100
AcDbLine
 62
7
  6
BYLAYER
 10
39.1503236276
 20
113.0777187071
 11
39.4170040269
 21
113.2316867075
  0
LINE
  5
255
100
AcDbEntity
  8
0
100
AcDbLine
 62
7
  6
BYLAYER
 10
53.8510428395
 20
87.849668569
 11
52.8596500856
 21
88.1153114567
  0
LINE
  5
256
100
AcDbEntity
  8
0
100
AcDbLine
 62
7
  6
BYLAYER
 10
39.4170040269
 20
103.1425547726
 11
39.1503236276
 21
103.296522773
  0
LINE
  5
257
100
AcDbEntity
  8
0
100
AcDbLine
 62
7
  6
BYLAYER
 10
37.5846051225
 20
104.2004907734
 11
37.8512855219
 21
104.046522773
  0
LINE
  5
258
100
AcDbEntity
  8
0
100
AcDbLine
 62
7
  6
BYLAYER
 10
37.5040094175
 20
111.3696229273
 11
37.7348285106
 21
111.165791804
  0
LINE
  5
259
100
AcDbEntity
  8
0
100
AcDbLine
 62
7
  6
BYLAYER
 10
44.7117631356
 20
105.0046185528
 11
44.4809440426
 21
105.2084496761
  0
LINE
  5
25A
100
AcDbEntity
  8
0
100
AcDbLine
 62
7
  6
BYLAYER
 10
52.6147011113
 20
87.9738901005
 11
52.3490582235
 21
86.9824973466
  0
LINE
  5
25B
100
AcDbEntity
  8
0
100
AcDbLine
 62
7
  6
BYLAYER
 10
52.3490582235
 20
129.3917441335
 11
52.6147011113
 21
128.4003513796
  0
LINE
  5
25C
100
AcDbEntity
  8
0
100
AcDbLine
 62
7
  6
BYLAYER
 10
62.5365469907
 20
109.2450567408
 11
62.5365469907
 21
108.93712074
  0
LINE
  5
25D
100
AcDbEntity
  8
0
100
AcDbLine
 62
7
  6
BYLAYER
 10
62.5365469907
 20
107.43712074
 11
62.5365469907
 21
107.1291847393
  0
LINE
  5
25E
100
AcDbEntity
  8
0
100
AcDbLine
 62
7
  6
BYLAYER
 10
65.0922147865
 20
109.0542919624
 11
64.3664649203
 21
108.3285420963
  0
LINE
  5
25F
100
AcDbEntity
  8
0
100
AcDbLine
 62
7
  6
BYLAYER
 10
44.6311674306
 20
104.2004907734
 11
44.3644870312
 21
104.046522773
  0
LINE
  5
260
100
AcDbEntity
  8
0
100
AcDbLine
 62
7
  6
BYLAYER
 10
43.0654489255
 20
103.296522773
 11
42.7987685262
 21
103.1425547726
  0
LINE
  5
261
100
AcDbEntity
  8
0
100
AcDbLine
 62
7
  6
BYLAYER
 10
45.6659524478
 20
109.7169185585
 11
45.3740199705
 21
109.6189389219
  0
LINE
  5
262
100
AcDbEntity
  8
0
100
AcDbLine
 62
7
  6
BYLAYER
 10
36.5498201053
 20
106.6573229216
 11
36.8417525827
 21
106.7553025582
  0
LINE
  5
263
100
AcDbEntity
  8
0
100
AcDbLine
 62
7
  6
BYLAYER
 10
45.6659524478
 20
106.6573229216
 11
45.3740199705
 21
106.7553025582
  0
LINE
  5
264
100
AcDbEntity
  8
0
100
AcDbLine
 62
7
  6
BYLAYER
 10
36.5498201053
 20
109.7169185585
 11
36.8417525827
 21
109.6189389219
  0
LINE
  5
265
100
AcDbEntity
  8
0
100
AcDbLine
 62
7
  6
BYLAYER
 10
43.0654489255
 20
113.0777187071
 11
42.7987685262
 21
113.2316867075
  0
LINE
  5
266
100
AcDbEntity
  8
0
100
AcDbLine
 62
7
  6
BYLAYER
 10
44.3644870312
 20
112.3277187071
 11
44.6311674306
 21
112.1737507067
  0
LINE
  5
267
100
AcDbEntity
  8
0
100
AcDbLine
 62
7
  6
BYLAYER
 10
65.0922147865
 20
107.3199495177
 11
64.3664649203
 21
108.0456993838
  0
LINE
  5
268
100
AcDbEntity
  8
0
100
AcDbLine
 62
7
  6
BYLAYER
 10
29.3561224675
 20
88.1153114567
 11
28.3647297136
 21
87.8496685689
  0
LINE
  5
269
100
AcDbEntity
  8
0
100
AcDbLine
 62
7
  6
BYLAYER
 10
131.6078862766
 20
100.68712074
 11
66.5290686759
 21
100.68712074
  0
LINE
  5
26A
100
AcDbEntity
  8
0
100
AcDbLine
 62
7
  6
BYLAYER
 10
64.5389904474
 20
102.9925700055
 11
63.9532128432
 21
103.1224337739
  0
LINE
  5
26B
100
AcDbEntity
  8
0
100
AcDbLine
 62
7
  6
BYLAYER
 10
18.2625597099
 20
113.2518077062
 11
17.6767821057
 21
113.3816714746
  0
LINE
  5
26C
100
AcDbEntity
  8
0
100
AcDbLine
 62
7
  6
BYLAYER
 10
75.5078862766
 20
104.4722856158
 11
75.5078862766
 21
107.4801997225
  0
LINE
  5
26D
100
AcDbEntity
  8
0
100
AcDbLine
 62
7
  6
BYLAYER
 10
75.5078862766
 20
108.8940417576
 11
75.5078862766
 21
111.9019558642
  0
LINE
  5
26E
100
AcDbEntity
  8
0
100
AcDbLine
 62
7
  6
BYLAYER
 10
75.6183904251
 20
109.869040463
 11
75.6183904251
 21
109.0387486259
  0
LINE
  5
26F
100
AcDbEntity
  8
0
100
AcDbLine
 62
7
  6
BYLAYER
 10
75.6183904251
 20
107.3354928542
 11
75.6183904251
 21
106.5052010171
  0
LINE
  5
270
100
AcDbEntity
  8
0
100
AcDbLine
 62
7
  6
BYLAYER
 10
76.597382128
 20
106.5052010171
 11
76.597382128
 21
107.3354928542
  0
LINE
  5
271
100
AcDbEntity
  8
0
100
AcDbLine
 62
7
  6
BYLAYER
 10
76.597382128
 20
109.0387486259
 11
76.597382128
 21
109.869040463
  0
LINE
  5
272
100
AcDbEntity
  8
0
100
AcDbLine
 62
7
  6
BYLAYER
 10
76.7078862766
 20
104.4722856158
 11
76.7078862766
 21
107.4801997225
  0
LINE
  5
273
100
AcDbEntity
  8
0
100
AcDbLine
 62
7
  6
BYLAYER
 10
76.7078862766
 20
108.8940417576
 11
76.7078862766
 21
111.9019558643
  0
LINE
  5
274
100
AcDbEntity
  8
0
100
AcDbLine
 62
7
  6
BYLAYER
 10
74.3401193236
 20
106.4193537871
 11
75.3622984822
 21
107.4415897504
  0
LINE
  5
275
100
AcDbEntity
  8
0
100
AcDbLine
 62
7
  6
BYLAYER
 10
77.8756532295
 20
109.954887693
 11
76.853474071
 21
108.9326517297
  0
LINE
  5
276
100
AcDbEntity
  8
0
100
AcDbLine
 62
7
  6
BYLAYER
 10
65.6760137173
 20
104.68712074
 11
70.6688600183
 21
104.68712074
  0
LINE
  5
277
100
AcDbEntity
  8
0
100
AcDbLine
 62
7
  6
BYLAYER
 10
81.5469125348
 20
104.68712074
 11
124.6078862766
 21
104.68712074
  0
LINE
  5
278
100
AcDbEntity
  8
0
100
AcDbLine
 62
7
  6
BYLAYER
 10
85.3214391491
 20
105.18712074
 11
81.8059916523
 21
105.18712074
  0
LINE
  5
279
100
AcDbEntity
  8
0
100
AcDbLine
 62
7
  6
BYLAYER
 10
70.4097809008
 20
105.18712074
 11
66.894333404
 21
105.18712074
  0
LINE
  5
27A
100
AcDbEntity
  8
0
100
AcDbLine
 62
7
  6
BYLAYER
 10
19.7933364761
 20
106.3322289809
 11
35.8188232032
 21
106.3322289809
  0
LINE
  5
27B
100
AcDbEntity
  8
0
100
AcDbLine
 62
7
  6
BYLAYER
 10
46.3969493499
 20
106.3322289809
 11
62.422436077
 21
106.3322289809
  0
LINE
  5
27C
100
AcDbEntity
  8
0
100
AcDbLine
 62
7
  6
BYLAYER
 10
62.5365469907
 20
107.1291847393
 11
46.3220496802
 21
107.1291847393
  0
LINE
  5
27D
100
AcDbEntity
  8
0
100
AcDbLine
 62
7
  6
BYLAYER
 10
35.8937228729
 20
107.1291847393
 11
19.6792255625
 21
107.1291847393
  0
LINE
  5
27E
100
AcDbEntity
  8
0
100
AcDbLine
 62
7
  6
BYLAYER
 10
62.5365469907
 20
107.43712074
 11
46.3220496802
 21
107.43712074
  0
LINE
  5
27F
100
AcDbEntity
  8
0
100
AcDbLine
 62
7
  6
BYLAYER
 10
35.8937228729
 20
107.43712074
 11
19.6792255625
 21
107.43712074
  0
LINE
  5
280
100
AcDbEntity
  8
0
100
AcDbLine
 62
7
  6
BYLAYER
 10
78.2167807569
 20
107.6976248886
 11
76.9595141624
 21
107.6976248886
  0
LINE
  5
281
100
AcDbEntity
  8
0
100
AcDbLine
 62
7
  6
BYLAYER
 10
75.2562583907
 20
107.6976248886
 11
73.9989917962
 21
107.6976248886
  0
LINE
  5
282
100
AcDbEntity
  8
0
100
AcDbLine
 62
7
  6
BYLAYER
 10
73.9989917962
 20
108.6766165915
 11
75.2562583907
 21
108.6766165915
  0
LINE
  5
283
100
AcDbEntity
  8
0
100
AcDbLine
 62
7
  6
BYLAYER
 10
76.9595141624
 20
108.6766165915
 11
78.2167807569
 21
108.6766165915
  0
LINE
  5
284
100
AcDbEntity
  8
0
100
AcDbLine
 62
7
  6
BYLAYER
 10
18.9894579051
 20
109.9934515307
 11
18.6825436688
 21
110.0185160889
  0
LINE
  5
285
100
AcDbEntity
  8
0
100
AcDbLine
 62
7
  6
BYLAYER
 10
63.226314648
 20
106.3807899494
 11
63.5332288843
 21
106.3557253912
  0
LINE
  5
286
100
AcDbEntity
  8
0
100
AcDbLine
 62
7
  6
BYLAYER
 10
77.8756532295
 20
106.4193537871
 11
76.8534254258
 21
107.4415397978
  0
LINE
  5
287
100
AcDbEntity
  8
0
100
AcDbLine
 62
7
  6
BYLAYER
 10
74.3401193236
 20
109.954887693
 11
75.3623471273
 21
108.9327016823
  0
LINE
  5
288
100
AcDbEntity
  8
0
100
AcDbLine
 62
7
  6
BYLAYER
 10
50.9060171814
 20
89.1003881922
 11
51.1726975808
 21
89.2543561926
  0
LINE
  5
289
100
AcDbEntity
  8
0
100
AcDbLine
 62
7
  6
BYLAYER
 10
52.4717356864
 20
90.0043561926
 11
52.7384160858
 21
90.1583241929
  0
LINE
  5
28A
100
AcDbEntity
  8
0
100
AcDbLine
 62
7
  6
BYLAYER
 10
18.9894579051
 20
106.3807899494
 11
18.6825436688
 21
106.3557253912
  0
LINE
  5
28B
100
AcDbEntity
  8
0
100
AcDbLine
 62
7
  6
BYLAYER
 10
63.226314648
 20
109.9934515307
 11
63.5332288843
 21
110.0185160889
  0
LINE
  5
28C
100
AcDbEntity
  8
0
100
AcDbLine
 62
7
  6
BYLAYER
 10
19.6792255625
 20
108.93712074
 11
35.8937228729
 21
108.93712074
  0
LINE
  5
28D
100
AcDbEntity
  8
0
100
AcDbLine
 62
7
  6
BYLAYER
 10
46.3220496802
 20
108.93712074
 11
62.5365469907
 21
108.93712074
  0
LINE
  5
28E
100
AcDbEntity
  8
0
100
AcDbLine
 62
7
  6
BYLAYER
 10
19.6792255625
 20
109.2450567408
 11
35.8937228729
 21
109.2450567408
  0
LINE
  5
28F
100
AcDbEntity
  8
0
100
AcDbLine
 62
7
  6
BYLAYER
 10
46.3220496802
 20
109.2450567408
 11
62.5365469907
 21
109.2450567408
  0
LINE
  5
290
100
AcDbEntity
  8
0
100
AcDbLine
 62
7
  6
BYLAYER
 10
62.422436077
 20
110.0420124992
 11
46.3969493499
 21
110.0420124992
  0
LINE
  5
291
100
AcDbEntity
  8
0
100
AcDbLine
 62
7
  6
BYLAYER
 10
35.8188232032
 20
110.0420124992
 11
19.7933364761
 21
110.0420124992
  0
LINE
  5
292
100
AcDbEntity
  8
0
100
AcDbLine
 62
7
  6
BYLAYER
 10
66.894333404
 20
111.18712074
 11
70.4097809008
 21
111.18712074
  0
LINE
  5
293
100
AcDbEntity
  8
0
100
AcDbLine
 62
7
  6
BYLAYER
 10
81.8059916523
 20
111.18712074
 11
85.3214391491
 21
111.18712074
  0
LINE
  5
294
100
AcDbEntity
  8
0
100
AcDbLine
 62
7
  6
BYLAYER
 10
124.6078862766
 20
111.68712074
 11
81.5469125348
 21
111.68712074
  0
LINE
  5
295
100
AcDbEntity
  8
0
100
AcDbLine
 62
7
  6
BYLAYER
 10
70.6688600183
 20
111.68712074
 11
65.6774135202
 21
111.68712074
  0
LINE
  5
296
100
AcDbEntity
  8
0
100
AcDbLine
 62
7
  6
BYLAYER
 10
52.7384160858
 20
126.2159172872
 11
52.4717356864
 21
126.3698852875
  0
LINE
  5
297
100
AcDbEntity
  8
0
100
AcDbLine
 62
7
  6
BYLAYER
 10
50.9060171814
 20
127.2738532879
 11
51.1726975808
 21
127.1198852875
  0
LINE
  5
298
100
AcDbEntity
  8
0
100
AcDbLine
 62
7
  6
BYLAYER
 10
64.5389904474
 20
113.3816714746
 11
63.9532128432
 21
113.2518077062
  0
LINE
  5
299
100
AcDbEntity
  8
0
100
AcDbLine
 62
7
  6
BYLAYER
 10
18.2625597099
 20
103.1224337739
 11
17.6767821057
 21
102.9925700055
  0
LINE
  5
29A
100
AcDbEntity
  8
0
100
AcDbLine
 62
7
  6
BYLAYER
 10
66.5290686759
 20
115.68712074
 11
131.6078862766
 21
115.68712074
  0
LINE
  5
29B
100
AcDbEntity
  8
0
100
AcDbLine
 62
7
  6
BYLAYER
 10
29.3561224675
 20
128.2589300234
 11
28.3647297136
 21
128.5245729111
  0
LINE
  5
29C
100
AcDbEntity
  8
0
100
AcDbLine
 62
7
  6
BYLAYER
 10
53.8510428395
 20
128.5245729112
 11
52.8596500856
 21
128.2589300234
  0
LINE
  5
29D
100
AcDbEntity
  8
0
100
AcDbLine
 62
7
  6
BYLAYER
 10
136.6078862766
 20
110.68712074
 11
136.6078862766
 21
105.68712074
  0
ARC
  5
29E
100
AcDbEntity
  8
0
100
AcDbCircle
 62
7
  6
BYLAYER
 10
-97.4968196779
 20
-41.874027229
 40
229.6660392652
100
AcDbArc
 50
40.2174507908
 51
40.6164767398
  0
ARC
  5
29F
100
AcDbEntity
  8
0
100
AcDbCircle
 62
7
  6
BYLAYER
 10
-56.6961675741
 20
-45.1429707863
 40
203.0415247498
100
AcDbArc
 50
49.3849302786
 51
49.8069189585
  0
ARC
  5
2A0
100
AcDbEntity
  8
0
100
AcDbCircle
 62
7
  6
BYLAYER
 10
14.0477690216
 20
70.3830241725
 40
59.9590166446
100
AcDbArc
 50
72.5208377843
 51
73.2872201562
  0
ARC
  5
2A1
100
AcDbEntity
  8
0
100
AcDbCircle
 62
7
  6
BYLAYER
 10
22.8167408599
 20
66.8381816887
 40
58.6104264644
100
AcDbArc
 50
46.7039627126
 51
47.4879793476
  0
ARC
  5
2A2
100
AcDbEntity
  8
0
100
AcDbCircle
 62
7
  6
BYLAYER
 10
-3.8469180138
 20
103.3532477972
 40
58.6104264071
100
AcDbArc
 50
346.7039627118
 51
347.4879793476
  0
ARC
  5
2A3
100
AcDbEntity
  8
0
100
AcDbCircle
 62
7
  6
BYLAYER
 10
26.2636954286
 20
106.3839074104
 40
17.4843129642
100
AcDbArc
 50
22.1491999861
 51
24.7180488841
  0
ARC
  5
2A4
100
AcDbEntity
  8
0
100
AcDbCircle
 62
7
  6
BYLAYER
 10
31.9091003761
 20
88.7543561926
 40
1.0
100
AcDbArc
 50
150.0000000005
 51
244.6687749335
  0
ARC
  5
2A5
100
AcDbEntity
  8
0
100
AcDbCircle
 62
7
  6
BYLAYER
 10
19.6792255625
 20
106.43712074
 40
1.0
100
AcDbArc
 50
90.0
 51
184.668774934
  0
ARC
  5
2A6
100
AcDbEntity
  8
0
100
AcDbCircle
 62
7
  6
BYLAYER
 10
28.8780114629
 20
90.5043561926
 40
1.0
100
AcDbArc
 50
235.3312250659
 51
329.9999999984
  0
ARC
  5
2A7
100
AcDbEntity
  8
0
100
AcDbCircle
 62
7
  6
BYLAYER
 10
28.8279466524
 20
90.5447458535
 40
0.6997509882
100
AcDbArc
 50
240.5913035444
 51
245.2108521834
  0
ARC
  5
2A8
100
AcDbEntity
  8
0
100
AcDbCircle
 62
7
  6
BYLAYER
 10
28.9094949343
 20
90.5601592651
 40
0.6956566293
100
AcDbArc
 50
279.418011039
 51
324.7156824992
  0
ARC
  5
2A9
100
AcDbEntity
  8
0
100
AcDbCircle
 62
7
  6
BYLAYER
 10
31.9415040313
 20
88.8095297646
 40
0.6954890321
100
AcDbArc
 50
155.2785562721
 51
200.5877501901
  0
ARC
  5
2AA
100
AcDbEntity
  8
0
100
AcDbCircle
 62
7
  6
BYLAYER
 10
19.743209105
 20
106.4366451375
 40
0.6954890322
100
AcDbArc
 50
95.2785562726
 51
140.587750189
  0
ARC
  5
2AB
100
AcDbEntity
  8
0
100
AcDbCircle
 62
7
  6
BYLAYER
 10
31.9656828542
 20
88.7270352669
 40
0.6944271456
100
AcDbArc
 50
193.496395413
 51
239.4775905663
  0
ARC
  5
2AC
100
AcDbEntity
  8
0
100
AcDbCircle
 62
7
  6
BYLAYER
 10
19.6838561858
 20
106.3744584139
 40
0.6944271456
100
AcDbArc
 50
133.4963954132
 51
179.4775905665
  0
ARC
  5
2AD
100
AcDbEntity
  8
0
100
AcDbCircle
 62
7
  6
BYLAYER
 10
28.8260885906
 20
90.5391134877
 40
0.6938588849
100
AcDbArc
 50
245.1551397078
 51
286.5150117228
  0
ARC
  5
2AE
100
AcDbEntity
  8
0
100
AcDbCircle
 62
7
  6
BYLAYER
 10
17.7078862766
 20
108.18712074
 40
0.2
100
AcDbArc
 50
315.0000000066
 51
45.0000000041
  0
ARC
  5
2AF
100
AcDbEntity
  8
0
100
AcDbCircle
 62
7
  6
BYLAYER
 10
29.4078862766
 20
87.9221262915
 40
0.2
100
AcDbArc
 50
14.9999999962
 51
105.0000000043
  0
ARC
  5
2B0
100
AcDbEntity
  8
0
100
AcDbCircle
 62
7
  6
BYLAYER
 10
60.3171356143
 20
65.8503235152
 40
59.9590166018
100
AcDbArc
 50
132.5208377837
 51
133.2872201561
  0
ARC
  5
2B1
100
AcDbEntity
  8
0
100
AcDbCircle
 62
7
  6
BYLAYER
 10
67.7715452108
 20
71.6720546034
 40
58.6104264808
100
AcDbArc
 50
106.7039627124
 51
107.4879793472
  0
ARC
  5
2B2
100
AcDbEntity
  8
0
100
AcDbCircle
 62
7
  6
BYLAYER
 10
35.2474194042
 20
94.4300676993
 40
17.4843129672
100
AcDbArc
 50
82.1491999864
 51
84.718048884
  0
ARC
  5
2B3
100
AcDbEntity
  8
0
100
AcDbCircle
 62
7
  6
BYLAYER
 10
50.0916102498
 20
96.233281034
 40
17.4843129608
100
AcDbArc
 50
142.1491999859
 51
144.7180488845
  0
ARC
  5
2B4
100
AcDbEntity
  8
0
100
AcDbCircle
 62
7
  6
BYLAYER
 10
46.9599674895
 20
94.5029172542
 40
17.4110008695
100
AcDbArc
 50
95.2765419078
 51
97.8562092216
  0
ARC
  5
2B5
100
AcDbEntity
  8
0
100
AcDbCircle
 62
7
  6
BYLAYER
 10
32.1830590344
 20
96.2769680022
 40
17.4110008686
100
AcDbArc
 50
35.2765419078
 51
37.8562092218
  0
ARC
  5
2B6
100
AcDbEntity
  8
0
100
AcDbCircle
 62
7
  6
BYLAYER
 10
36.9852601181
 20
104.546522773
 40
1.0
100
AcDbArc
 50
329.9999999998
 51
41.446995465
  0
ARC
  5
2B7
100
AcDbEntity
  8
0
100
AcDbCircle
 62
7
  6
BYLAYER
 10
40.0163490314
 20
102.796522773
 40
1.0
100
AcDbArc
 50
78.553004535
 51
149.9999999982
  0
ARC
  5
2B8
100
AcDbEntity
  8
0
100
AcDbCircle
 62
7
  6
BYLAYER
 10
36.9340901891
 20
104.5944147669
 40
0.7021930453
100
AcDbArc
 50
2.3934329906
 51
35.7447453597
  0
ARC
  5
2B9
100
AcDbEntity
  8
0
100
AcDbCircle
 62
7
  6
BYLAYER
 10
40.0834069584
 20
102.7761683992
 40
0.7021793007
100
AcDbArc
 50
84.2549186875
 51
117.606902962
  0
ARC
  5
2BA
100
AcDbEntity
  8
0
100
AcDbCircle
 62
7
  6
BYLAYER
 10
39.9862685727
 20
102.7391503799
 40
0.6977085546
100
AcDbArc
 50
115.5002226597
 51
144.6770367297
  0
ARC
  5
2BB
100
AcDbEntity
  8
0
100
AcDbCircle
 62
7
  6
BYLAYER
 10
36.9515190233
 20
104.4915782893
 40
0.6967997926
100
AcDbArc
 50
335.3074371961
 51
10.9334293913
  0
ARC
  5
2BC
100
AcDbEntity
  8
0
100
AcDbCircle
 62
7
  6
BYLAYER
 10
39.984932903
 20
102.7409988845
 40
0.6954652201
100
AcDbArc
 50
109.0432641056
 51
115.4664658602
  0
ARC
  5
2BD
100
AcDbEntity
  8
0
100
AcDbCircle
 62
7
  6
BYLAYER
 10
35.8937228729
 20
106.43712074
 40
1.0
100
AcDbArc
 50
18.5530045349
 51
90.0
  0
ARC
  5
2BE
100
AcDbEntity
  8
0
100
AcDbCircle
 62
7
  6
BYLAYER
 10
35.9096244316
 20
106.3688696848
 40
0.7021793007
100
AcDbArc
 50
24.2549186875
 51
57.606902962
  0
ARC
  5
2BF
100
AcDbEntity
  8
0
100
AcDbCircle
 62
7
  6
BYLAYER
 10
35.8289966936
 20
106.4344849848
 40
0.6977085546
100
AcDbArc
 50
55.5002226603
 51
84.6770367297
  0
ARC
  5
2C0
100
AcDbEntity
  8
0
100
AcDbCircle
 62
7
  6
BYLAYER
 10
35.8299297107
 20
106.4365659609
 40
0.6954652202
100
AcDbArc
 50
49.0432641061
 51
55.4664658595
  0
ARC
  5
2C1
100
AcDbEntity
  8
0
100
AcDbCircle
 62
7
  6
BYLAYER
 10
42.1994235218
 20
102.796522773
 40
1.0
100
AcDbArc
 50
30.0000000002
 51
101.4220811046
  0
ARC
  5
2C2
100
AcDbEntity
  8
0
100
AcDbCircle
 62
7
  6
BYLAYER
 10
45.230512435
 20
104.546522773
 40
1.0
100
AcDbArc
 50
138.553004535
 51
210.0000000001
  0
ARC
  5
2C3
100
AcDbEntity
  8
0
100
AcDbCircle
 62
7
  6
BYLAYER
 10
42.1323628739
 20
102.7761543115
 40
0.7021930453
100
AcDbArc
 50
62.3934329907
 51
95.7447453598
  0
ARC
  5
2C4
100
AcDbEntity
  8
0
100
AcDbCircle
 62
7
  6
BYLAYER
 10
45.2816688033
 20
104.5944194545
 40
0.7021793007
100
AcDbArc
 50
144.2549186876
 51
177.6069029621
  0
ARC
  5
2C5
100
AcDbEntity
  8
0
100
AcDbCircle
 62
7
  6
BYLAYER
 10
45.2651581556
 20
104.4917861351
 40
0.6977085546
100
AcDbArc
 50
175.5002226596
 51
204.6770367296
  0
ARC
  5
2C6
100
AcDbEntity
  8
0
100
AcDbCircle
 62
7
  6
BYLAYER
 10
42.230136293
 20
102.7398298859
 40
0.6967997926
100
AcDbArc
 50
35.3074371962
 51
70.9334293912
  0
ARC
  5
2C7
100
AcDbEntity
  8
0
100
AcDbCircle
 62
7
  6
BYLAYER
 10
45.2628894689
 20
104.4915536635
 40
0.6954652201
100
AcDbArc
 50
169.0432641054
 51
175.4664658593
  0
CIRCLE
  5
2C8
100
AcDbEntity
  8
0
100
AcDbCircle
 62
7
  6
BYLAYER
 10
41.1078862766
 20
108.18712074
 40
25.0
  0
ARC
  5
2C9
100
AcDbEntity
  8
0
100
AcDbCircle
 62
7
  6
BYLAYER
 10
41.1078862766
 20
108.18712074
 40
24.0
100
AcDbArc
 50
122.0706695189
 51
132.5
  0
ARC
  5
2CA
100
AcDbEntity
  8
0
100
AcDbCircle
 62
7
  6
BYLAYER
 10
41.1078862766
 20
108.18712074
 40
24.0
100
AcDbArc
 50
167.5
 51
177.9293304811
  0
ARC
  5
2CB
100
AcDbEntity
  8
0
100
AcDbCircle
 62
7
  6
BYLAYER
 10
41.1078862766
 20
108.18712074
 40
24.0
100
AcDbArc
 50
182.0706695189
 51
192.5
  0
ARC
  5
2CC
100
AcDbEntity
  8
0
100
AcDbCircle
 62
7
  6
BYLAYER
 10
41.1078862766
 20
108.18712074
 40
24.0
100
AcDbArc
 50
227.5
 51
237.9293304811
  0
ARC
  5
2CD
100
AcDbEntity
  8
0
100
AcDbCircle
 62
7
  6
BYLAYER
 10
41.1078862766
 20
108.18712074
 40
24.0
100
AcDbArc
 50
242.0706695189
 51
252.5
  0
ARC
  5
2CE
100
AcDbEntity
  8
0
100
AcDbCircle
 62
7
  6
BYLAYER
 10
41.1078862766
 20
108.18712074
 40
24.0
100
AcDbArc
 50
287.5
 51
297.9293304811
  0
ARC
  5
2CF
100
AcDbEntity
  8
0
100
AcDbCircle
 62
7
  6
BYLAYER
 10
41.1078862766
 20
108.18712074
 40
24.0
100
AcDbArc
 50
302.0706695189
 51
312.5
  0
ARC
  5
2D0
100
AcDbEntity
  8
0
100
AcDbCircle
 62
7
  6
BYLAYER
 10
41.1078862766
 20
108.18712074
 40
24.0
100
AcDbArc
 50
347.5
 51
357.9293304811
  0
ARC
  5
2D1
100
AcDbEntity
  8
0
100
AcDbCircle
 62
7
  6
BYLAYER
 10
41.1078862766
 20
108.18712074
 40
24.0
100
AcDbArc
 50
2.0706695189
 51
12.5
  0
ARC
  5
2D2
100
AcDbEntity
  8
0
100
AcDbCircle
 62
7
  6
BYLAYER
 10
41.1078862766
 20
108.18712074
 40
24.0
100
AcDbArc
 50
47.5
 51
57.9293304811
  0
ARC
  5
2D3
100
AcDbEntity
  8
0
100
AcDbCircle
 62
7
  6
BYLAYER
 10
41.1078862766
 20
108.18712074
 40
24.0
100
AcDbArc
 50
62.0706695189
 51
72.5
  0
ARC
  5
2D4
100
AcDbEntity
  8
0
100
AcDbCircle
 62
7
  6
BYLAYER
 10
41.1078862766
 20
108.18712074
 40
24.0
100
AcDbArc
 50
107.5
 51
117.9293304811
  0
ARC
  5
2D5
100
AcDbEntity
  8
0
100
AcDbCircle
 62
7
  6
BYLAYER
 10
41.1078862766
 20
108.18712074
 40
23.4
100
AcDbArc
 50
132.5
 51
167.5
  0
ARC
  5
2D6
100
AcDbEntity
  8
0
100
AcDbCircle
 62
7
  6
BYLAYER
 10
41.1078862766
 20
108.18712074
 40
23.4
100
AcDbArc
 50
192.5
 51
227.5
  0
ARC
  5
2D7
100
AcDbEntity
  8
0
100
AcDbCircle
 62
7
  6
BYLAYER
 10
41.1078862766
 20
108.18712074
 40
23.4
100
AcDbArc
 50
252.5
 51
287.5
  0
ARC
  5
2D8
100
AcDbEntity
  8
0
100
AcDbCircle
 62
7
  6
BYLAYER
 10
41.1078862766
 20
108.18712074
 40
23.4
100
AcDbArc
 50
312.5
 51
347.5
  0
ARC
  5
2D9
100
AcDbEntity
  8
0
100
AcDbCircle
 62
7
  6
BYLAYER
 10
41.1078862766
 20
108.18712074
 40
23.4
100
AcDbArc
 50
12.5
 51
47.5
  0
ARC
  5
2DA
100
AcDbEntity
  8
0
100
AcDbCircle
 62
7
  6
BYLAYER
 10
41.1078862766
 20
108.18712074
 40
23.4
100
AcDbArc
 50
72.5
 51
107.5
  0
ARC
  5
2DB
100
AcDbEntity
  8
0
100
AcDbCircle
 62
7
  6
BYLAYER
 10
41.1078862766
 20
108.18712074
 40
22.5
100
AcDbArc
 50
244.6687749341
 51
295.331225066
  0
ARC
  5
2DC
100
AcDbEntity
  8
0
100
AcDbCircle
 62
7
  6
BYLAYER
 10
41.1078862766
 20
108.18712074
 40
22.5
100
AcDbArc
 50
304.6687749341
 51
355.3312250659
  0
ARC
  5
2DD
100
AcDbEntity
  8
0
100
AcDbCircle
 62
7
  6
BYLAYER
 10
41.1078862766
 20
108.18712074
 40
22.5
100
AcDbArc
 50
4.6687749341
 51
55.3312250659
  0
ARC
  5
2DE
100
AcDbEntity
  8
0
100
AcDbCircle
 62
7
  6
BYLAYER
 10
41.1078862766
 20
108.18712074
 40
22.5
100
AcDbArc
 50
64.6687749341
 51
115.331225066
  0
ARC
  5
2DF
100
AcDbEntity
  8
0
100
AcDbCircle
 62
7
  6
BYLAYER
 10
41.1078862766
 20
108.18712074
 40
22.5
100
AcDbArc
 50
124.6687749341
 51
175.3312250659
  0
ARC
  5
2E0
100
AcDbEntity
  8
0
100
AcDbCircle
 62
7
  6
BYLAYER
 10
41.1078862766
 20
108.18712074
 40
22.5
100
AcDbArc
 50
184.6687749341
 51
235.3312250659
  0
ARC
  5
2E1
100
AcDbEntity
  8
0
100
AcDbCircle
 62
7
  6
BYLAYER
 10
41.1078862766
 20
108.18712074
 40
22.1920639993
100
AcDbArc
 50
4.6687749341
 51
55.3312250659
  0
ARC
  5
2E2
100
AcDbEntity
  8
0
100
AcDbCircle
 62
7
  6
BYLAYER
 10
41.1078862766
 20
108.18712074
 40
22.1920639993
100
AcDbArc
 50
124.6687749341
 51
175.3312250659
  0
ARC
  5
2E3
100
AcDbEntity
  8
0
100
AcDbCircle
 62
7
  6
BYLAYER
 10
41.1078862766
 20
108.18712074
 40
22.1920639993
100
AcDbArc
 50
244.6687749341
 51
295.3312250659
  0
ARC
  5
2E4
100
AcDbEntity
  8
0
100
AcDbCircle
 62
7
  6
BYLAYER
 10
41.1078862766
 20
108.18712074
 40
22.1920639993
100
AcDbArc
 50
304.6687749341
 51
355.3312250659
  0
ARC
  5
2E5
100
AcDbEntity
  8
0
100
AcDbCircle
 62
7
  6
BYLAYER
 10
41.1078862766
 20
108.18712074
 40
22.1920639993
100
AcDbArc
 50
64.6687749341
 51
115.3312250659
  0
ARC
  5
2E6
100
AcDbEntity
  8
0
100
AcDbCircle
 62
7
  6
BYLAYER
 10
41.1078862766
 20
108.18712074
 40
22.1920639993
100
AcDbArc
 50
184.6687749341
 51
235.3312250659
  0
ARC
  5
2E7
100
AcDbEntity
  8
0
100
AcDbCircle
 62
7
  6
BYLAYER
 10
41.1078862766
 20
108.18712074
 40
21.3951082408
100
AcDbArc
 50
4.9736162679
 51
55.0263837321
  0
ARC
  5
2E8
100
AcDbEntity
  8
0
100
AcDbCircle
 62
7
  6
BYLAYER
 10
41.1078862766
 20
108.18712074
 40
21.3951082408
100
AcDbArc
 50
124.9736162679
 51
175.0263837321
  0
ARC
  5
2E9
100
AcDbEntity
  8
0
100
AcDbCircle
 62
7
  6
BYLAYER
 10
41.1078862766
 20
108.18712074
 40
21.3951082408
100
AcDbArc
 50
244.9736162679
 51
295.0263837321
  0
ARC
  5
2EA
100
AcDbEntity
  8
0
100
AcDbCircle
 62
7
  6
BYLAYER
 10
41.1078862766
 20
108.18712074
 40
21.3951082408
100
AcDbArc
 50
304.9736162679
 51
355.0263837321
  0
ARC
  5
2EB
100
AcDbEntity
  8
0
100
AcDbCircle
 62
7
  6
BYLAYER
 10
41.1078862766
 20
108.18712074
 40
21.3951082408
100
AcDbArc
 50
64.9736162679
 51
115.0263837321
  0
ARC
  5
2EC
100
AcDbEntity
  8
0
100
AcDbCircle
 62
7
  6
BYLAYER
 10
41.1078862766
 20
108.18712074
 40
21.3951082408
100
AcDbArc
 50
184.9736162679
 51
235.0263837321
  0
ARC
  5
2ED
100
AcDbEntity
  8
0
100
AcDbCircle
 62
7
  6
BYLAYER
 10
41.1078862766
 20
108.18712074
 40
5.6048917592
100
AcDbArc
 50
19.3259357885
 51
40.6740642115
  0
ARC
  5
2EE
100
AcDbEntity
  8
0
100
AcDbCircle
 62
7
  6
BYLAYER
 10
41.1078862766
 20
108.18712074
 40
5.6048917592
100
AcDbArc
 50
139.3259357885
 51
160.6740642115
  0
ARC
  5
2EF
100
AcDbEntity
  8
0
100
AcDbCircle
 62
7
  6
BYLAYER
 10
41.1078862766
 20
108.18712074
 40
5.6048917592
100
AcDbArc
 50
259.3259357885
 51
280.6740642115
  0
ARC
  5
2F0
100
AcDbEntity
  8
0
100
AcDbCircle
 62
7
  6
BYLAYER
 10
41.1078862766
 20
108.18712074
 40
5.6048917592
100
AcDbArc
 50
319.3259357885
 51
340.6740642115
  0
ARC
  5
2F1
100
AcDbEntity
  8
0
100
AcDbCircle
 62
7
  6
BYLAYER
 10
41.1078862766
 20
108.18712074
 40
5.6048917592
100
AcDbArc
 50
79.3259357885
 51
100.6740642115
  0
ARC
  5
2F2
100
AcDbEntity
  8
0
100
AcDbCircle
 62
7
  6
BYLAYER
 10
41.1078862766
 20
108.18712074
 40
5.6048917592
100
AcDbArc
 50
199.3259357885
 51
220.6740642115
  0
ARC
  5
2F3
100
AcDbEntity
  8
0
100
AcDbCircle
 62
7
  6
BYLAYER
 10
41.1078862766
 20
108.18712074
 40
4.8079360007
100
AcDbArc
 50
18.553004535
 51
41.446995465
  0
ARC
  5
2F4
100
AcDbEntity
  8
0
100
AcDbCircle
 62
7
  6
BYLAYER
 10
41.1078862766
 20
108.18712074
 40
4.8079360007
100
AcDbArc
 50
138.553004535
 51
161.446995465
  0
ARC
  5
2F5
100
AcDbEntity
  8
0
100
AcDbCircle
 62
7
  6
BYLAYER
 10
41.1078862766
 20
108.18712074
 40
4.8079360007
100
AcDbArc
 50
258.553004535
 51
281.4496857647
  0
ARC
  5
2F6
100
AcDbEntity
  8
0
100
AcDbCircle
 62
7
  6
BYLAYER
 10
41.1078862766
 20
108.18712074
 40
4.8079360007
100
AcDbArc
 50
318.553004535
 51
341.446995465
  0
ARC
  5
2F7
100
AcDbEntity
  8
0
100
AcDbCircle
 62
7
  6
BYLAYER
 10
41.1078862766
 20
108.18712074
 40
4.8079360007
100
AcDbArc
 50
78.553004535
 51
101.446995465
  0
ARC
  5
2F8
100
AcDbEntity
  8
0
100
AcDbCircle
 62
7
  6
BYLAYER
 10
41.1078862766
 20
108.18712074
 40
4.8079360007
100
AcDbArc
 50
198.553004535
 51
221.446995465
  0
CIRCLE
  5
2F9
100
AcDbEntity
  8
0
100
AcDbCircle
 62
7
  6
BYLAYER
 10
41.1078862766
 20
108.18712074
 40
4.4999753469
  0
CIRCLE
  5
2FA
100
AcDbEntity
  8
0
100
AcDbCircle
 62
7
  6
BYLAYER
 10
41.1078862766
 20
108.18712074
 40
0.9999894649
  0
ARC
  5
2FB
100
AcDbEntity
  8
0
100
AcDbCircle
 62
7
  6
BYLAYER
 10
46.3220496802
 20
106.43712074
 40
1.0
100
AcDbArc
 50
90.0
 51
161.4469954651
  0
ARC
  5
2FC
100
AcDbEntity
  8
0
100
AcDbCircle
 62
7
  6
BYLAYER
 10
46.3061589614
 20
106.3688602847
 40
0.7021930453
100
AcDbArc
 50
122.3934329907
 51
155.7447453598
  0
ARC
  5
2FD
100
AcDbEntity
  8
0
100
AcDbCircle
 62
7
  6
BYLAYER
 10
46.3865035462
 20
106.4353723366
 40
0.6967997926
100
AcDbArc
 50
95.307437196
 51
130.9334293913
  0
ARC
  5
2FE
100
AcDbEntity
  8
0
100
AcDbCircle
 62
7
  6
BYLAYER
 10
66.5290686759
 20
95.68712074
 40
20.0
100
AcDbArc
 50
90.0
 51
94.7876374437
  0
ARC
  5
2FF
100
AcDbEntity
  8
0
100
AcDbCircle
 62
7
  6
BYLAYER
 10
50.306672177
 20
88.7543561926
 40
1.0
100
AcDbArc
 50
295.3312250674
 51
30.0000000005
  0
ARC
  5
300
100
AcDbEntity
  8
0
100
AcDbCircle
 62
7
  6
BYLAYER
 10
53.3377610902
 20
90.5043561926
 40
1.0
100
AcDbArc
 50
210.0000000017
 51
304.6687749341
  0
ARC
  5
301
100
AcDbEntity
  8
0
100
AcDbCircle
 62
7
  6
BYLAYER
 10
50.2466612994
 20
88.7311936251
 40
0.699750988
100
AcDbArc
 50
300.5913035438
 51
305.2108521837
  0
ARC
  5
302
100
AcDbEntity
  8
0
100
AcDbCircle
 62
7
  6
BYLAYER
 10
50.2740870343
 20
88.8095232149
 40
0.6956566293
100
AcDbArc
 50
339.4180110387
 51
24.7156824994
  0
ARC
  5
303
100
AcDbEntity
  8
0
100
AcDbCircle
 62
7
  6
BYLAYER
 10
53.3061812028
 20
90.5600053671
 40
0.6954890321
100
AcDbArc
 50
215.2785562727
 51
260.5877501897
  0
ARC
  5
304
100
AcDbEntity
  8
0
100
AcDbCircle
 62
7
  6
BYLAYER
 10
53.3897129449
 20
90.5396975931
 40
0.6944271456
100
AcDbArc
 50
253.4963954131
 51
299.4775905668
  0
ARC
  5
305
100
AcDbEntity
  8
0
100
AcDbCircle
 62
7
  6
BYLAYER
 10
50.2506100402
 20
88.7267683137
 40
0.6938588848
100
AcDbArc
 50
305.1551397077
 51
346.515011723
  0
ARC
  5
306
100
AcDbEntity
  8
0
100
AcDbCircle
 62
7
  6
BYLAYER
 10
52.8078862766
 20
87.9221262915
 40
0.2
100
AcDbArc
 50
74.9999999895
 51
165.0000000043
  0
ARC
  5
307
100
AcDbEntity
  8
0
100
AcDbCircle
 62
7
  6
BYLAYER
 10
55.884794732
 20
106.4130699927
 40
17.4110008692
100
AcDbArc
 50
155.2765419079
 51
157.8562092218
  0
ARC
  5
308
100
AcDbEntity
  8
0
100
AcDbCircle
 62
7
  6
BYLAYER
 10
68.0078862766
 20
108.18712074
 40
3.2
100
AcDbArc
 50
110.3641348063
 51
132.1865151256
  0
ARC
  5
309
100
AcDbEntity
  8
0
100
AcDbCircle
 62
7
  6
BYLAYER
 10
68.0078862766
 20
108.18712074
 40
3.2
100
AcDbArc
 50
227.788491103
 51
249.6358651937
  0
ARC
  5
30A
100
AcDbEntity
  8
0
100
AcDbCircle
 62
7
  6
BYLAYER
 10
62.5365469907
 20
106.43712074
 40
1.0
100
AcDbArc
 50
355.3312250661
 51
90.0
  0
ARC
  5
30B
100
AcDbEntity
  8
0
100
AcDbCircle
 62
7
  6
BYLAYER
 10
62.5266009235
 20
106.3735685118
 40
0.6997509881
100
AcDbArc
 50
0.5913035443
 51
5.2108521832
  0
ARC
  5
30C
100
AcDbEntity
  8
0
100
AcDbCircle
 62
7
  6
BYLAYER
 10
62.4724783765
 20
106.4364846898
 40
0.6956566293
100
AcDbArc
 50
39.4180110395
 51
84.7156824989
  0
ARC
  5
30D
100
AcDbEntity
  8
0
100
AcDbCircle
 62
7
  6
BYLAYER
 10
62.5324077262
 20
106.374775566
 40
0.6938588849
100
AcDbArc
 50
5.1551397079
 51
46.5150117226
  0
ARC
  5
30E
100
AcDbEntity
  8
0
100
AcDbCircle
 62
7
  6
BYLAYER
 10
64.5078862766
 20
108.18712074
 40
0.2
100
AcDbArc
 50
135.0000000066
 51
225.0000000041
  0
ARC
  5
30F
100
AcDbEntity
  8
0
100
AcDbCircle
 62
7
  6
BYLAYER
 10
-64.1140644838
 20
270.2304219959
 40
214.4846376694
100
AcDbArc
 50
310.2046243532
 51
310.6040643832
  0
ARC
  5
310
100
AcDbEntity
  8
0
100
AcDbCircle
 62
7
  6
BYLAYER
 10
-83.3567330022
 20
246.2050097893
 40
211.0923790841
100
AcDbArc
 50
319.3663587002
 51
319.8004751386
  0
ARC
  5
311
100
AcDbEntity
  8
0
100
AcDbCircle
 62
7
  6
BYLAYER
 10
-5.1614802893
 20
112.7198214411
 40
59.9590165869
100
AcDbArc
 50
12.5208377842
 51
13.2872201567
  0
ARC
  5
312
100
AcDbEntity
  8
0
100
AcDbCircle
 62
7
  6
BYLAYER
 10
26.3309778211
 20
109.9611714874
 40
17.4110008692
100
AcDbArc
 50
335.2765419079
 51
337.8562092218
  0
ARC
  5
313
100
AcDbEntity
  8
0
100
AcDbCircle
 62
7
  6
BYLAYER
 10
28.8780114629
 20
125.8698852875
 40
1.0
100
AcDbArc
 50
30.0000000017
 51
124.6687749341
  0
ARC
  5
314
100
AcDbEntity
  8
0
100
AcDbCircle
 62
7
  6
BYLAYER
 10
19.6792255625
 20
109.93712074
 40
1.0
100
AcDbArc
 50
175.3312250661
 51
270.0
  0
ARC
  5
315
100
AcDbEntity
  8
0
100
AcDbCircle
 62
7
  6
BYLAYER
 10
19.6891716296
 20
110.0006729683
 40
0.6997509881
100
AcDbArc
 50
180.5913035443
 51
185.2108521832
  0
ARC
  5
316
100
AcDbEntity
  8
0
100
AcDbCircle
 62
7
  6
BYLAYER
 10
19.7432941766
 20
109.9377567903
 40
0.6956566293
100
AcDbArc
 50
219.4180110395
 51
264.7156824989
  0
ARC
  5
317
100
AcDbEntity
  8
0
100
AcDbCircle
 62
7
  6
BYLAYER
 10
28.9095913503
 20
125.814236113
 40
0.6954890321
100
AcDbArc
 50
35.2785562727
 51
80.5877501897
  0
ARC
  5
318
100
AcDbEntity
  8
0
100
AcDbCircle
 62
7
  6
BYLAYER
 10
28.8260596082
 20
125.834543887
 40
0.6944271456
100
AcDbArc
 50
73.4963954131
 51
119.4775905668
  0
ARC
  5
319
100
AcDbEntity
  8
0
100
AcDbCircle
 62
7
  6
BYLAYER
 10
19.6833648269
 20
109.9994659141
 40
0.6938588849
100
AcDbArc
 50
185.1551397079
 51
226.5150117226
  0
ARC
  5
31A
100
AcDbEntity
  8
0
100
AcDbCircle
 62
7
  6
BYLAYER
 10
29.4078862766
 20
128.4521151886
 40
0.2
100
AcDbArc
 50
254.9999999895
 51
345.0000000043
  0
ARC
  5
31B
100
AcDbEntity
  8
0
100
AcDbCircle
 62
7
  6
BYLAYER
 10
21.8986369384
 20
150.5239179654
 40
59.9590166025
100
AcDbArc
 50
312.5208377837
 51
313.2872201561
  0
ARC
  5
31C
100
AcDbEntity
  8
0
100
AcDbCircle
 62
7
  6
BYLAYER
 10
14.4442273426
 20
144.7021868759
 40
58.61042648
100
AcDbArc
 50
286.7039627124
 51
287.4879793473
  0
ARC
  5
31D
100
AcDbEntity
  8
0
100
AcDbCircle
 62
7
  6
BYLAYER
 10
46.3220496802
 20
109.93712074
 40
1.0
100
AcDbArc
 50
198.5530045349
 51
270.0
  0
ARC
  5
31E
100
AcDbEntity
  8
0
100
AcDbCircle
 62
7
  6
BYLAYER
 10
45.230512435
 20
111.8277187071
 40
1.0
100
AcDbArc
 50
149.9999999998
 51
221.446995465
  0
ARC
  5
31F
100
AcDbEntity
  8
0
100
AcDbCircle
 62
7
  6
BYLAYER
 10
42.1994235218
 20
113.5777187071
 40
1.0
100
AcDbArc
 50
258.5779188188
 51
329.9999999982
  0
ARC
  5
320
100
AcDbEntity
  8
0
100
AcDbCircle
 62
7
  6
BYLAYER
 10
40.0163490314
 20
113.5777187071
 40
1.0
100
AcDbArc
 50
210.0000000002
 51
281.4469954649
  0
ARC
  5
321
100
AcDbEntity
  8
0
100
AcDbCircle
 62
7
  6
BYLAYER
 10
36.9852601181
 20
111.8277187071
 40
1.0
100
AcDbArc
 50
318.553004535
 51
30.0000000001
  0
ARC
  5
322
100
AcDbEntity
  8
0
100
AcDbCircle
 62
7
  6
BYLAYER
 10
35.8937228729
 20
109.93712074
 40
1.0
100
AcDbArc
 50
270.0
 51
341.4469954651
  0
ARC
  5
323
100
AcDbEntity
  8
0
100
AcDbCircle
 62
7
  6
BYLAYER
 10
45.281682364
 20
111.7798267132
 40
0.7021930453
100
AcDbArc
 50
182.3934329906
 51
215.7447453597
  0
ARC
  5
324
100
AcDbEntity
  8
0
100
AcDbCircle
 62
7
  6
BYLAYER
 10
35.9096135917
 20
110.0053811954
 40
0.7021930453
100
AcDbArc
 50
302.3934329907
 51
335.7447453598
  0
ARC
  5
325
100
AcDbEntity
  8
0
100
AcDbCircle
 62
7
  6
BYLAYER
 10
40.0834096792
 20
113.5980871686
 40
0.7021930453
100
AcDbArc
 50
242.3934329907
 51
275.7447453598
  0
ARC
  5
326
100
AcDbEntity
  8
0
100
AcDbCircle
 62
7
  6
BYLAYER
 10
46.3061481215
 20
110.0053717953
 40
0.7021793007
100
AcDbArc
 50
204.2549186875
 51
237.606902962
  0
ARC
  5
327
100
AcDbEntity
  8
0
100
AcDbCircle
 62
7
  6
BYLAYER
 10
36.9341037498
 20
111.7798220256
 40
0.7021793007
100
AcDbArc
 50
324.2549186876
 51
357.6069029621
  0
ARC
  5
328
100
AcDbEntity
  8
0
100
AcDbCircle
 62
7
  6
BYLAYER
 10
42.1323655947
 20
113.5980730809
 40
0.7021793007
100
AcDbArc
 50
264.2549186875
 51
297.606902962
  0
ARC
  5
329
100
AcDbEntity
  8
0
100
AcDbCircle
 62
7
  6
BYLAYER
 10
36.9506143975
 20
111.882455345
 40
0.6977085546
100
AcDbArc
 50
355.5002226595
 51
24.6770367296
  0
ARC
  5
32A
100
AcDbEntity
  8
0
100
AcDbCircle
 62
7
  6
BYLAYER
 10
42.2295039804
 20
113.6350911002
 40
0.6977085546
100
AcDbArc
 50
295.5002226599
 51
324.6770367296
  0
ARC
  5
32B
100
AcDbEntity
  8
0
100
AcDbCircle
 62
7
  6
BYLAYER
 10
46.3867758595
 20
109.9397564953
 40
0.6977085546
100
AcDbArc
 50
235.5002226603
 51
264.6770367297
  0
ARC
  5
32C
100
AcDbEntity
  8
0
100
AcDbCircle
 62
7
  6
BYLAYER
 10
45.2642535298
 20
111.8826631908
 40
0.6967997926
100
AcDbArc
 50
155.307437196
 51
190.9334293914
  0
ARC
  5
32D
100
AcDbEntity
  8
0
100
AcDbCircle
 62
7
  6
BYLAYER
 10
35.8292690069
 20
109.9388691435
 40
0.6967997926
100
AcDbArc
 50
275.307437196
 51
310.9334293913
  0
ARC
  5
32E
100
AcDbEntity
  8
0
100
AcDbCircle
 62
7
  6
BYLAYER
 10
39.9856362601
 20
113.6344115942
 40
0.6967997926
100
AcDbArc
 50
215.3074371962
 51
250.9334293912
  0
ARC
  5
32F
100
AcDbEntity
  8
0
100
AcDbCircle
 62
7
  6
BYLAYER
 10
46.3858428425
 20
109.9376755192
 40
0.6954652202
100
AcDbArc
 50
229.0432641061
 51
235.4664658595
  0
ARC
  5
330
100
AcDbEntity
  8
0
100
AcDbCircle
 62
7
  6
BYLAYER
 10
36.9528830842
 20
111.8826878166
 40
0.6954652201
100
AcDbArc
 50
349.0432641055
 51
355.4664658593
  0
ARC
  5
331
100
AcDbEntity
  8
0
100
AcDbCircle
 62
7
  6
BYLAYER
 10
42.2308396501
 20
113.6332425957
 40
0.6954652201
100
AcDbArc
 50
289.0432641057
 51
295.4664658595
  0
ARC
  5
332
100
AcDbEntity
  8
0
100
AcDbCircle
 62
7
  6
BYLAYER
 10
46.9683531489
 20
121.9441737808
 40
17.4843129672
100
AcDbArc
 50
262.1491999864
 51
264.718048884
  0
ARC
  5
333
100
AcDbEntity
  8
0
100
AcDbCircle
 62
7
  6
BYLAYER
 10
32.1241623033
 20
120.1409604461
 40
17.4843129608
100
AcDbArc
 50
322.1491999859
 51
324.7180488845
  0
ARC
  5
334
100
AcDbEntity
  8
0
100
AcDbCircle
 62
7
  6
BYLAYER
 10
35.2558050636
 20
121.8713242258
 40
17.4110008694
100
AcDbArc
 50
275.2765419078
 51
277.8562092217
  0
ARC
  5
335
100
AcDbEntity
  8
0
100
AcDbCircle
 62
7
  6
BYLAYER
 10
31.9091003761
 20
127.6198852875
 40
1.0
100
AcDbArc
 50
115.3312250674
 51
210.0000000005
  0
ARC
  5
336
100
AcDbEntity
  8
0
100
AcDbCircle
 62
7
  6
BYLAYER
 10
31.9691112537
 20
127.643047855
 40
0.699750988
100
AcDbArc
 50
120.5913035438
 51
125.2108521837
  0
ARC
  5
337
100
AcDbEntity
  8
0
100
AcDbCircle
 62
7
  6
BYLAYER
 10
31.9416855188
 20
127.5647182652
 40
0.6956566293
100
AcDbArc
 50
159.4180110387
 51
204.7156824994
  0
ARC
  5
338
100
AcDbEntity
  8
0
100
AcDbCircle
 62
7
  6
BYLAYER
 10
31.9651625129
 20
127.6474731664
 40
0.6938588848
100
AcDbArc
 50
125.1551397077
 51
166.515011723
  0
ARC
  5
339
100
AcDbEntity
  8
0
100
AcDbCircle
 62
7
  6
BYLAYER
 10
55.9520771244
 20
109.9903340697
 40
17.484312964
100
AcDbArc
 50
202.1491999861
 51
204.7180488842
  0
ARC
  5
33A
100
AcDbEntity
  8
0
100
AcDbCircle
 62
7
  6
BYLAYER
 10
62.5365469907
 20
109.93712074
 40
1.0
100
AcDbArc
 50
270.0
 51
4.668774934
  0
ARC
  5
33B
100
AcDbEntity
  8
0
100
AcDbCircle
 62
7
  6
BYLAYER
 10
62.4725634481
 20
109.9375963426
 40
0.6954890322
100
AcDbArc
 50
275.2785562726
 51
320.587750189
  0
ARC
  5
33C
100
AcDbEntity
  8
0
100
AcDbCircle
 62
7
  6
BYLAYER
 10
62.5319163673
 20
109.9997830662
 40
0.6944271456
100
AcDbArc
 50
313.4963954132
 51
359.4775905665
  0
ARC
  5
33D
100
AcDbEntity
  8
0
100
AcDbCircle
 62
7
  6
BYLAYER
 10
66.5290686759
 20
120.68712074
 40
20.0
100
AcDbArc
 50
265.2121206438
 51
270.0
  0
ARC
  5
33E
100
AcDbEntity
  8
0
100
AcDbCircle
 62
7
  6
BYLAYER
 10
50.0327135186
 20
120.0972734778
 40
17.4110008686
100
AcDbArc
 50
215.2765419078
 51
217.8562092218
  0
ARC
  5
33F
100
AcDbEntity
  8
0
100
AcDbCircle
 62
7
  6
BYLAYER
 10
53.3377610902
 20
125.8698852875
 40
1.0
100
AcDbArc
 50
55.3312250659
 51
149.9999999984
  0
ARC
  5
340
100
AcDbEntity
  8
0
100
AcDbCircle
 62
7
  6
BYLAYER
 10
50.306672177
 20
127.6198852875
 40
1.0
100
AcDbArc
 50
330.0000000005
 51
64.6687749335
  0
ARC
  5
341
100
AcDbEntity
  8
0
100
AcDbCircle
 62
7
  6
BYLAYER
 10
53.3878259007
 20
125.8294956266
 40
0.6997509882
100
AcDbArc
 50
60.5913035444
 51
65.2108521834
  0
ARC
  5
342
100
AcDbEntity
  8
0
100
AcDbCircle
 62
7
  6
BYLAYER
 10
53.3062776188
 20
125.814082215
 40
0.6956566293
100
AcDbArc
 50
99.418011039
 51
144.7156824992
  0
ARC
  5
343
100
AcDbEntity
  8
0
100
AcDbCircle
 62
7
  6
BYLAYER
 10
50.2742685218
 20
127.5647117155
 40
0.6954890321
100
AcDbArc
 50
335.2785562721
 51
20.5877501901
  0
ARC
  5
344
100
AcDbEntity
  8
0
100
AcDbCircle
 62
7
  6
BYLAYER
 10
50.250089699
 20
127.6472062132
 40
0.6944271456
100
AcDbArc
 50
13.496395413
 51
59.4775905663
  0
ARC
  5
345
100
AcDbEntity
  8
0
100
AcDbCircle
 62
7
  6
BYLAYER
 10
53.3896839625
 20
125.8351279924
 40
0.6938588849
100
AcDbArc
 50
65.1551397078
 51
106.5150117228
  0
ARC
  5
346
100
AcDbEntity
  8
0
100
AcDbCircle
 62
7
  6
BYLAYER
 10
52.8078862766
 20
128.4521151886
 40
0.2
100
AcDbArc
 50
194.9999999963
 51
285.0000000043
  0
ARC
  5
347
100
AcDbEntity
  8
0
100
AcDbCircle
 62
7
  6
BYLAYER
 10
68.1680035315
 20
145.9912173076
 40
59.9590166446
100
AcDbArc
 50
252.5208377843
 51
253.2872201562
  0
ARC
  5
348
100
AcDbEntity
  8
0
100
AcDbCircle
 62
7
  6
BYLAYER
 10
59.3990316941
 20
149.5360597923
 40
58.6104264657
100
AcDbArc
 50
226.7039627126
 51
227.4879793476
  0
ARC
  5
349
100
AcDbEntity
  8
0
100
AcDbCircle
 62
7
  6
BYLAYER
 10
87.3772528442
 20
103.6544200394
 40
59.9590165888
100
AcDbArc
 50
192.5208377842
 51
193.2872201567
  0
ARC
  5
34A
100
AcDbEntity
  8
0
100
AcDbCircle
 62
7
  6
BYLAYER
 10
75.4683904251
 20
107.3354928542
 40
0.15
100
AcDbArc
 50
0.0
 51
135.0
  0
ARC
  5
34B
100
AcDbEntity
  8
0
100
AcDbCircle
 62
7
  6
BYLAYER
 10
76.747382128
 20
107.3354928542
 40
0.15
100
AcDbArc
 50
45.0
 51
180.0
  0
ARC
  5
34C
100
AcDbEntity
  8
0
100
AcDbCircle
 62
7
  6
BYLAYER
 10
76.9595141624
 20
107.5476248886
 40
0.15
100
AcDbArc
 50
90.0
 51
225.0
  0
ARC
  5
34D
100
AcDbEntity
  8
0
100
AcDbCircle
 62
7
  6
BYLAYER
 10
75.2562583907
 20
107.5476248886
 40
0.15
100
AcDbArc
 50
315.0
 51
90.0
  0
ARC
  5
34E
100
AcDbEntity
  8
0
100
AcDbCircle
 62
7
  6
BYLAYER
 10
76.1078862766
 20
108.18712074
 40
10.0
100
AcDbArc
 50
196.4486131295
 51
200.5992668748
  0
ARC
  5
34F
100
AcDbEntity
  8
0
100
AcDbCircle
 62
7
  6
BYLAYER
 10
76.1078862766
 20
108.18712074
 40
10.0
100
AcDbArc
 50
159.4007331252
 51
163.5513868705
  0
ARC
  5
350
100
AcDbEntity
  8
0
100
AcDbCircle
 62
7
  6
BYLAYER
 10
76.1078862766
 20
108.18712074
 40
10.0
100
AcDbArc
 50
16.4486131295
 51
20.5992668748
  0
ARC
  5
351
100
AcDbEntity
  8
0
100
AcDbCircle
 62
7
  6
BYLAYER
 10
76.1078862766
 20
108.18712074
 40
10.0
100
AcDbArc
 50
339.4007331252
 51
343.5513868705
  0
CIRCLE
  5
352
100
AcDbEntity
  8
0
100
AcDbCircle
 62
7
  6
BYLAYER
 10
76.1078862766
 20
108.18712074
 40
6.5
  0
CIRCLE
  5
353
100
AcDbEntity
  8
0
100
AcDbCircle
 62
7
  6
BYLAYER
 10
76.1078862766
 20
108.18712074
 40
4.0
  0
ARC
  5
354
100
AcDbEntity
  8
0
100
AcDbCircle
 62
7
  6
BYLAYER
 10
76.1078862766
 20
108.18712074
 40
3.7629775444
100
AcDbArc
 50
80.8251307023
 51
99.1748692977
  0
ARC
  5
355
100
AcDbEntity
  8
0
100
AcDbCircle
 62
7
  6
BYLAYER
 10
76.1078862766
 20
108.18712074
 40
3.7629775444
100
AcDbArc
 50
260.8251307023
 51
279.1748692977
  0
ARC
  5
356
100
AcDbEntity
  8
0
100
AcDbCircle
 62
7
  6
BYLAYER
 10
76.1078862766
 20
108.18712074
 40
2.1649577635
100
AcDbArc
 50
346.9324593106
 51
13.0675406894
  0
ARC
  5
357
100
AcDbEntity
  8
0
100
AcDbCircle
 62
7
  6
BYLAYER
 10
76.1078862766
 20
108.18712074
 40
2.1649577635
100
AcDbArc
 50
166.9324593106
 51
193.0675406894
  0
ARC
  5
358
100
AcDbEntity
  8
0
100
AcDbCircle
 62
7
  6
BYLAYER
 10
76.1078862766
 20
108.18712074
 40
1.7517020703
100
AcDbArc
 50
253.7732073259
 51
286.2267926741
  0
ARC
  5
359
100
AcDbEntity
  8
0
100
AcDbCircle
 62
7
  6
BYLAYER
 10
76.1078862766
 20
108.18712074
 40
1.7517020703
100
AcDbArc
 50
73.7732073259
 51
106.2267926741
  0
ARC
  5
35A
100
AcDbEntity
  8
0
100
AcDbCircle
 62
7
  6
BYLAYER
 10
76.1078862766
 20
108.18712074
 40
1.1268745185
100
AcDbArc
 50
154.2539197873
 51
205.7460802127
  0
ARC
  5
35B
100
AcDbEntity
  8
0
100
AcDbCircle
 62
7
  6
BYLAYER
 10
76.1078862766
 20
108.18712074
 40
1.1268745185
100
AcDbArc
 50
64.2539197873
 51
115.7460802127
  0
ARC
  5
35C
100
AcDbEntity
  8
0
100
AcDbCircle
 62
7
  6
BYLAYER
 10
76.1078862766
 20
108.18712074
 40
1.1268745185
100
AcDbArc
 50
244.2539197873
 51
295.7460802127
  0
ARC
  5
35D
100
AcDbEntity
  8
0
100
AcDbCircle
 62
7
  6
BYLAYER
 10
76.1078862766
 20
108.18712074
 40
1.1268745185
100
AcDbArc
 50
334.2539197873
 51
25.7460802127
  0
ARC
  5
35E
100
AcDbEntity
  8
0
100
AcDbCircle
 62
7
  6
BYLAYER
 10
76.747382128
 20
109.0387486259
 40
0.15
100
AcDbArc
 50
180.0
 51
315.0
  0
ARC
  5
35F
100
AcDbEntity
  8
0
100
AcDbCircle
 62
7
  6
BYLAYER
 10
76.9595141624
 20
108.8266165915
 40
0.15
100
AcDbArc
 50
135.0
 51
270.0
  0
ARC
  5
360
100
AcDbEntity
  8
0
100
AcDbCircle
 62
7
  6
BYLAYER
 10
75.4683904251
 20
109.0387486259
 40
0.15
100
AcDbArc
 50
225.0
 51
360.0
  0
ARC
  5
361
100
AcDbEntity
  8
0
100
AcDbCircle
 62
7
  6
BYLAYER
 10
75.2562583907
 20
108.8266165915
 40
0.15
100
AcDbArc
 50
270.0
 51
45.0
  0
ARC
  5
362
100
AcDbEntity
  8
0
100
AcDbCircle
 62
7
  6
BYLAYER
 10
84.2078862766
 20
108.18712074
 40
3.2
100
AcDbArc
 50
290.3641348063
 51
69.6358651937
  0
ARC
  5
363
100
AcDbEntity
  8
0
100
AcDbCircle
 62
7
  6
BYLAYER
 10
131.6078862766
 20
105.68712074
 40
5.0
100
AcDbArc
 50
270.0
 51
360.0
  0
ARC
  5
364
100
AcDbEntity
  8
0
100
AcDbCircle
 62
7
  6
BYLAYER
 10
124.6078862766
 20
108.18712074
 40
3.5
100
AcDbArc
 50
270.0
 51
90.0
  0
ARC
  5
365
100
AcDbEntity
  8
0
100
AcDbCircle
 62
7
  6
BYLAYER
 10
213.3692504922
 20
-50.3885536411
 40
209.9250954839
100
AcDbArc
 50
130.1984154958
 51
130.6065419167
  0
ARC
  5
366
100
AcDbEntity
  8
0
100
AcDbCircle
 62
7
  6
BYLAYER
 10
230.1573587407
 20
-25.2102558109
 40
203.9739153716
100
AcDbArc
 50
139.360741814
 51
139.8100003463
  0
ARC
  5
367
100
AcDbEntity
  8
0
100
AcDbCircle
 62
7
  6
BYLAYER
 10
240.7127968184
 20
250.5736586617
 40
217.8383104698
100
AcDbArc
 50
220.2045052002
 51
220.6251892558
  0
ARC
  5
368
100
AcDbEntity
  8
0
100
AcDbCircle
 62
7
  6
BYLAYER
 10
203.2660212103
 20
254.8949945172
 40
194.3392486841
100
AcDbArc
 50
229.3775415145
 51
229.8184342855
  0
ARC
  5
369
100
AcDbEntity
  8
0
100
AcDbCircle
 62
7
  6
BYLAYER
 10
86.0626905669
 20
113.0209936829
 40
58.6104264071
100
AcDbArc
 50
166.7039627118
 51
167.4879793476
  0
ARC
  5
36A
100
AcDbEntity
  8
0
100
AcDbCircle
 62
7
  6
BYLAYER
 10
131.6078862766
 20
110.68712074
 40
5.0
100
AcDbArc
 50
0.0
 51
90.0
  0
SPLINE
  5
36B
100
AcDbEntity
  8
0
100
AcDbSpline
 62
7
  6
BYLAYER
 70
0
 71
3
 72
9
 73
5
 74
0
 42
0.0000001
 43
0.0000001
 44
0.0000000001
 40
0.0
 40
0.0
 40
0.0
 40
0.0
 40
0.4765679597
 40
1.0
 40
1.0
 40
1.0
 40
1.0
 10
76.7078862766
 20
111.9019558642
 30
0.0
 10
76.7163622814
 20
111.4387807742
 30
0.0
 10
76.7293789986
 20
110.4667952534
 30
0.0
 10
76.7355597608
 20
109.4947477671
 30
0.0
 10
76.737213347
 20
108.985943119
 30
0.0
  0
SPLINE
  5
36C
100
AcDbEntity
  8
0
100
AcDbSpline
 62
7
  6
BYLAYER
 70
0
 71
3
 72
9
 73
5
 74
0
 42
0.0000001
 43
0.0000001
 44
0.0000000001
 40
0.0
 40
0.0
 40
0.0
 40
0.0
 40
0.5234454458
 40
1.0
 40
1.0
 40
1.0
 40
1.0
 10
75.4785592024
 20
108.9859433364
 30
0.0
 10
75.4802126745
 20
109.4947609783
 30
0.0
 10
75.4863931216
 20
110.4668083977
 30
0.0
 10
75.4994105108
 20
111.438793837
 30
0.0
 10
75.5078862766
 20
111.9019558642
 30
0.0
  0
LINE
  5
36D
100
AcDbEntity
  8
0
100
AcDbLine
 62
7
  6
BYLAYER
 10
75.4801860204
 20
108.889213132
 11
75.4785592024
 21
108.9859433364
  0
LINE
  5
36E
100
AcDbEntity
  8
0
100
AcDbLine
 62
7
  6
BYLAYER
 10
75.478559206
 20
107.3882983552
 11
75.4801860204
 21
107.4850283481
  0
LINE
  5
36F
100
AcDbEntity
  8
0
100
AcDbLine
 62
7
  6
BYLAYER
 10
76.737213347
 20
108.985943119
 11
76.7355865327
 21
108.889213132
  0
SPLINE
  5
370
100
AcDbEntity
  8
0
100
AcDbSpline
 62
7
  6
BYLAYER
 70
0
 71
3
 72
9
 73
5
 74
0
 42
0.0000001
 43
0.0000001
 44
0.0000000001
 40
0.0
 40
0.0
 40
0.0
 40
0.0
 40
0.4765545494
 40
1.0
 40
1.0
 40
1.0
 40
1.0
 10
75.5078862766
 20
104.4722856158
 30
0.0
 10
75.4994105103
 20
104.935447672
 30
0.0
 10
75.4863930466
 20
105.9074331815
 30
0.0
 10
75.4802128332
 20
106.8794806722
 30
0.0
 10
75.478559206
 20
107.3882983552
 30
0.0
  0
SPLINE
  5
371
100
AcDbEntity
  8
0
100
AcDbSpline
 62
7
  6
BYLAYER
 70
0
 71
3
 72
9
 73
5
 74
0
 42
0.0000001
 43
0.0000001
 44
0.0000000001
 40
0.0
 40
0.0
 40
0.0
 40
0.0
 40
0.5234320371
 40
1.0
 40
1.0
 40
1.0
 40
1.0
 10
76.7372133496
 20
107.3882982093
 30
0.0
 10
76.7355599127
 20
106.8794935904
 30
0.0
 10
76.7293789283
 20
105.9074461554
 30
0.0
 10
76.716362281
 20
104.935460685
 30
0.0
 10
76.7078862766
 20
104.4722856158
 30
0.0
  0
LINE
  5
372
100
AcDbEntity
  8
0
100
AcDbLine
 62
7
  6
BYLAYER
 10
76.7355865327
 20
107.4850283481
 11
76.7372133496
 21
107.3882982093
  0
ENDSEC
  0
SECTION
  2
OBJECTS
  0
DICTIONARY
  5
C
100
AcDbDictionary
280
0
281
1
  3
ACAD_GROUP
350
D
  3
ACAD_MLINESTYLE
350
17
  3
ACAD_LAYOUT
350
1A
  3
ACAD_PLOTSETTINGS
350
19
  3
ACAD_PLOTSTYLENAME
350
E
  0
DICTIONARY
  5
D
102
{ACAD_REACTORS
330
C
102
}
100
AcDbDictionary
280
0
281
1
  0
ACDBDICTIONARYWDFLT
  5
E
102
{ACAD_REACTORS
330
C
102
}
100
AcDbDictionary
281
1
  3
Normal
350
F
100
AcDbDictionaryWithDefault
340
F
  0
DICTIONARY
  5
17
102
{ACAD_REACTORS
330
C
102
}
100
AcDbDictionary
280
0
281
1
  3
Standard
350
18
  0
DICTIONARY
  5
19
102
{ACAD_REACTORS
330
C
102
}
100
AcDbDictionary
281
1
  0
DICTIONARY
  5
1A
102
{ACAD_REACTORS
330
C
102
}
100
AcDbDictionary
281
1
  3
Model
350
373
  3
Layout1
350
374
  0
ACDBPLACEHOLDER
  5
F
102
{ACAD_REACTORS
330
E
102
}
  0
MLINESTYLE
  5
18
102
{ACAD_REACTORS
330
17
102
}
100
AcDbMlineStyle
  2
STANDARD
 70
0
  3

 62
256
 51
90.0
 52
90.0
 71
2
 49
0.5
 62
256
  6
BYLAYER
 49
-0.5
 62
256
  6
BYLAYER
  0
LAYOUT
  5
373
102
{ACAD_REACTORS
330
1A
102
}
100
AcDbPlotSettings
  1

  2
none_device
  4

  6

 40
0.0
 41
0.0
 42
0.0
 43
0.0
 44
210.0
 45
297.0
 46
0.0
 47
0.0
 48
0.0
 49
0.0
140
0.0
141
0.0
142
1.0
143
1.0
 70
1024
 72
1
 73
0
 74
0
  7

 75
0
147
1.0
148
0.0
149
0.0
100
AcDbLayout
  1
Model
 70
0
 71
0
 10
0.0
 20
0.0
 11
210.0
 21
297.0
 12
0.0
 22
0.0
 32
0.0
 14
0.0
 24
0.0
 34
0.0
 15
0.0
 25
0.0
 35
0.0
146
0.0
 13
0.0
 23
0.0
 33
0.0
 16
1.0
 26
0.0
 36
0.0
 17
0.0
 27
1.0
 37
0.0
 76
0
330
210
345
0
346
0
  0
LAYOUT
  5
374
102
{ACAD_REACTORS
330
1A
102
}
100
AcDbPlotSettings
  1

  2
none_device
  4

  6

 40
0.0
 41
0.0
 42
0.0
 43
0.0
 44
210.0
 45
297.0
 46
0.0
 47
0.0
 48
0.0
 49
0.0
140
0.0
141
0.0
142
1.0
143
1.0
 70
0
 72
1
 73
0
 74
0
  7

 75
0
147
1.0
148
0.0
149
0.0
100
AcDbLayout
  1
Layout1
 70
0
 71
1
 10
0.0
 20
0.0
 11
210.0
 21
297.0
 12
0.0
 22
0.0
 32
0.0
 14
0.0
 24
0.0
 34
0.0
 15
0.0
 25
0.0
 35
0.0
146
0.0
 13
0.0
 23
0.0
 33
0.0
 16
1.0
 26
0.0
 36
0.0
 17
0.0
 27
1.0
 37
0.0
 76
0
330
211
345
0
346
0
  0
ENDSEC
  0
EOF
