999
DXF file: C:\Users\sesa63760\Dev\_Creo\CAD\MCADID0004754_3D-CAD\drw0001_2.dxf
999
Pro/ENGINEER 2019471 by Parametric Technology Corporation
  0
SECTION
  2
HEADER
  9
$ACADVER
  1
AC1024
  9
$DWGCODEPAGE
  3
ANSI_1252
  9
$EXTMAX
 10
54.9359279065
 20
77.6950980392
 30
0.0
  9
$EXTMIN
 10
0.0
 20
0.0
 30
0.0
  9
$LIMMIN
 10
0.0
 20
0.0
  9
$LIMMAX
 10
54.9359279065
 20
77.6950980392
  9
$VIEWCTR
 10
27.4679639533
 20
38.8475490196
  9
$VIEWSIZE
 40
77.6950980392
  9
$CLAYER
  8
0
  9
$LTSCALE
 40
5.0645693537
  9
$CELTYPE
  6
BYLAYER
  9
$DIMSCALE
 40
1.0
  9
$DIMASZ
 40
0.6539991417
  9
$DIMEXO
 40
1.0
  9
$DIMDLI
 40
3.499157008
  9
$DIMEXE
 40
1.0
  9
$DIMCEN
 40
0.8287477124
  9
$DIMLFAC
 40
1.0
  9
$DIMBLK
  1
_FILLED
  9
$DIMALT
 70
0
  9
$DIMALTF
 40
0.0393700787
  9
$DIMTXT
 40
0.9155987984
  9
$DIMTOL
 70
1
  9
$DIMLIM
 70
0
  9
$DIMTFAC
 40
1.0
  9
$DIMTP
 40
0.01
  9
$DIMTM
 40
0.01
  9
$DIMGAP
 40
0.625
  9
$DIMDSEP
 70
46
  9
$AUNITS
 70
0
  9
$PDMODE
 70
3
  9
$PDSIZE
 40
0.3125
  9
$HANDSEED
  5
2D9
  9
$TILEMODE
 70
1
  9
$MEASUREMENT
 70
1
  9
$INSUNITS
 70
4
  0
ENDSEC
  0
SECTION
  2
CLASSES
  0
CLASS
  1
ACDBDICTIONARYWDFLT
  2
AcDbDictionaryWithDefault
  3
AutoCAD 2000
 90
0
 91
1
280
0
281
0
  0
CLASS
  1
ACDBPLACEHOLDER
  2
AcDbPlaceHolder
  3
AutoCAD 2000
 90
0
 91
1
280
0
281
0
  0
CLASS
  1
LAYOUT
  2
AcDbLayout
  3
AutoCAD 2000
 90
0
 91
0
280
0
281
0
  0
ENDSEC
  0
SECTION
  2
TABLES
  0
TABLE
  2
VPORT
  5
8
100
AcDbSymbolTable
 70
2
  0
VPORT
  5
1F4
100
AcDbSymbolTableRecord
100
AcDbViewportTableRecord
  2
*ACTIVE
 70
0
 10
0.0
 20
0.0
 11
1.0
 21
1.0
 12
27.4679639533
 22
38.8475490196
 13
0.0
 23
0.0
 14
1.0
 24
1.0
 15
0.0
 25
0.0
 16
0.0
 26
0.0
 36
1.0
 17
0.0
 27
0.0
 37
0.0
 40
77.6950980392
 41
0.7070707071
 42
50.0
 43
0.0
 44
0.0
 50
0.0
 51
0.0
 71
0
 72
100
 73
1
 74
1
 75
0
 76
0
 77
0
 78
0
  0
ENDTAB
  0
TABLE
  2
LTYPE
  5
5
100
AcDbSymbolTable
 70
6
  0
LTYPE
  5
14
100
AcDbSymbolTableRecord
100
AcDbLinetypeTableRecord
  2
BYBLOCK
 70
0
  3

 72
65
 73
0
 40
0.0
  0
LTYPE
  5
15
100
AcDbSymbolTableRecord
100
AcDbLinetypeTableRecord
  2
BYLAYER
 70
0
  3

 72
65
 73
0
 40
0.0
  0
LTYPE
  5
16
100
AcDbSymbolTableRecord
100
AcDbLinetypeTableRecord
  2
CONTINUOUS
 70
64
  3
Solid line
 72
65
 73
0
 40
0.0
  0
LTYPE
  5
1F5
100
AcDbSymbolTableRecord
100
AcDbLinetypeTableRecord
  2
CENTER
 70
64
  3
____ _ ____ _ ____ _ ____ _ ____ _ ____ _ ____
 72
65
 73
4
 40
0.6
 49
0.375
 74
0
 49
-0.075
 74
0
 49
0.075
 74
0
 49
-0.075
 74
0
  0
LTYPE
  5
1F6
100
AcDbSymbolTableRecord
100
AcDbLinetypeTableRecord
  2
HIDDEN
 70
64
  3
- - - - - - - - - - - - - - - - - - - -
 72
65
 73
2
 40
0.2
 49
0.1
 74
0
 49
-0.1
 74
0
  0
LTYPE
  5
1F7
100
AcDbSymbolTableRecord
100
AcDbLinetypeTableRecord
  2
PHANTOM
 70
64
  3
_____ _ _ _____ _ _ _____ _ _ _____
 72
65
 73
6
 40
0.8
 49
0.45
 74
0
 49
-0.05
 74
0
 49
0.1
 74
0
 49
-0.05
 74
0
 49
0.1
 74
0
 49
-0.05
 74
0
  0
LTYPE
  5
1F8
100
AcDbSymbolTableRecord
100
AcDbLinetypeTableRecord
  2
DOT
 70
64
  3
. . . . . . . . . . . . . . . . . . . .
 72
65
 73
2
 40
0.2
 49
0.1
 74
0
 49
-0.1
 74
0
  0
LTYPE
  5
1F9
100
AcDbSymbolTableRecord
100
AcDbLinetypeTableRecord
  2
DASHED
 70
64
  3
- - - - - - - - - - - - - - - - - - - -
 72
65
 73
2
 40
0.2
 49
0.1
 74
0
 49
-0.1
 74
0
  0
ENDTAB
  0
TABLE
  2
LAYER
  5
2
100
AcDbSymbolTable
 70
36
  0
LAYER
  5
10
100
AcDbSymbolTableRecord
100
AcDbLayerTableRecord
  2
0
 70
0
 62
7
  6
CONTINUOUS
370
-3
390
F
  0
LAYER
  5
1FA
100
AcDbSymbolTableRecord
100
AcDbLayerTableRecord
  2
DEFAULT_1
 70
0
 62
7
  6
CENTER
370
-3
390
F
  0
LAYER
  5
1FB
100
AcDbSymbolTableRecord
100
AcDbLayerTableRecord
  2
DEFAULT_2
 70
0
 62
7
  6
HIDDEN
370
-3
390
F
  0
LAYER
  5
1FC
100
AcDbSymbolTableRecord
100
AcDbLayerTableRecord
  2
DEFAULT_3
 70
0
 62
7
  6
PHANTOM
370
-3
390
F
  0
LAYER
  5
1FD
100
AcDbSymbolTableRecord
100
AcDbLayerTableRecord
  2
00_COMPONENTS
 70
0
 62
7
  6
CONTINUOUS
370
-3
390
F
  0
LAYER
  5
1FE
100
AcDbSymbolTableRecord
100
AcDbLayerTableRecord
  2
01_1_DEFAULT_DATUMS
 70
0
 62
7
  6
CONTINUOUS
370
-3
390
F
  0
LAYER
  5
1FF
100
AcDbSymbolTableRecord
100
AcDbLayerTableRecord
  2
01_PLANES
 70
0
 62
7
  6
CONTINUOUS
370
-3
390
F
  0
LAYER
  5
200
100
AcDbSymbolTableRecord
100
AcDbLayerTableRecord
  2
02_COORD_SYS
 70
0
 62
7
  6
CONTINUOUS
370
-3
390
F
  0
LAYER
  5
201
100
AcDbSymbolTableRecord
100
AcDbLayerTableRecord
  2
03_AXES
 70
0
 62
7
  6
CONTINUOUS
370
-3
390
F
  0
LAYER
  5
202
100
AcDbSymbolTableRecord
100
AcDbLayerTableRecord
  2
04_POINTS
 70
0
 62
7
  6
CONTINUOUS
370
-3
390
F
  0
LAYER
  5
203
100
AcDbSymbolTableRecord
100
AcDbLayerTableRecord
  2
05_CURVES
 70
0
 62
7
  6
CONTINUOUS
370
-3
390
F
  0
LAYER
  5
204
100
AcDbSymbolTableRecord
100
AcDbLayerTableRecord
  2
06_SURFS
 70
0
 62
7
  6
CONTINUOUS
370
-3
390
F
  0
LAYER
  5
205
100
AcDbSymbolTableRecord
100
AcDbLayerTableRecord
  2
07_COSMETICS
 70
0
 62
7
  6
CONTINUOUS
370
-3
390
F
  0
LAYER
  5
206
100
AcDbSymbolTableRecord
100
AcDbLayerTableRecord
  2
10_NOTES
 70
0
 62
7
  6
CONTINUOUS
370
-3
390
F
  0
LAYER
  5
207
100
AcDbSymbolTableRecord
100
AcDbLayerTableRecord
  2
11_NOTES_PUB
 70
0
 62
7
  6
CONTINUOUS
370
-3
390
F
  0
LAYER
  5
208
100
AcDbSymbolTableRecord
100
AcDbLayerTableRecord
  2
13_REF_GTOL
 70
0
 62
7
  6
CONTINUOUS
370
-3
390
F
  0
LAYER
  5
209
100
AcDbSymbolTableRecord
100
AcDbLayerTableRecord
  2
16_MISC
 70
0
 62
7
  6
CONTINUOUS
370
-3
390
F
  0
LAYER
  5
20A
100
AcDbSymbolTableRecord
100
AcDbLayerTableRecord
  2
17_NO_PRINT
 70
0
 62
7
  6
CONTINUOUS
370
-3
390
F
  0
LAYER
  5
20B
100
AcDbSymbolTableRecord
100
AcDbLayerTableRecord
  2
18_DATUM_CAMS_JOINTS
 70
0
 62
7
  6
CONTINUOUS
370
-3
390
F
  0
LAYER
  5
20C
100
AcDbSymbolTableRecord
100
AcDbLayerTableRecord
  2
19_DATUM_FUNCTIONAL
 70
0
 62
7
  6
CONTINUOUS
370
-3
390
F
  0
LAYER
  5
20D
100
AcDbSymbolTableRecord
100
AcDbLayerTableRecord
  2
20_DATUM_KINEMATIC_SCHEME
 70
0
 62
7
  6
CONTINUOUS
370
-3
390
F
  0
ENDTAB
  0
TABLE
  2
STYLE
  5
3
100
AcDbSymbolTable
 70
1
  0
STYLE
  5
11
100
AcDbSymbolTableRecord
100
AcDbTextStyleTableRecord
  2
STANDARD
 70
0
 40
0.0
 41
1.0
 50
0.0
 71
0
 42
0.2
  3
ARIAL.TTF
  4

  0
STYLE
  5
20E
100
AcDbSymbolTableRecord
100
AcDbTextStyleTableRecord
  2
TEXTSTYLE_1
 70
0
 40
0.0
 41
0.8
 50
0.0
 71
0
 42
0.2
  3
gdt
  4

  0
ENDTAB
  0
TABLE
  2
VIEW
  5
6
100
AcDbSymbolTable
 70
0
  0
ENDTAB
  0
TABLE
  2
UCS
  5
7
100
AcDbSymbolTable
 70
0
  0
ENDTAB
  0
TABLE
  2
APPID
  5
9
100
AcDbSymbolTable
 70
1
  0
APPID
  5
20F
100
AcDbSymbolTableRecord
100
AcDbRegAppTableRecord
  2
ACAD
 70
0
  0
ENDTAB
  0
TABLE
  2
BLOCK_RECORD
  5
1
100
AcDbSymbolTable
 70
0
  0
BLOCK_RECORD
  5
210
100
AcDbSymbolTableRecord
100
AcDbBlockTableRecord
  2
*Model_Space
  0
BLOCK_RECORD
  5
211
100
AcDbSymbolTableRecord
100
AcDbBlockTableRecord
  2
*Paper_Space
  0
BLOCK_RECORD
  5
212
100
AcDbSymbolTableRecord
100
AcDbBlockTableRecord
  2
_FILLED
  0
ENDTAB
  0
TABLE
  2
DIMSTYLE
  5
A
100
AcDbSymbolTable
 70
1
100
AcDbDimStyleTable
 71
0
  0
DIMSTYLE
105
213
100
AcDbSymbolTableRecord
100
AcDbDimStyleTableRecord
  2
STANDARD
 70
0
  3

  4

 40
1.0
 41
0.6539991417
 42
1.0
 43
0.38
 44
1.0
 45
0.0
 46
0.0
 47
0.01
 48
0.01
140
0.9155987984
141
0.09
142
0.0
143
25.4
144
1.0
145
0.0
146
1.0
147
0.625
 71
1
 72
0
 73
0
 74
0
 75
0
 76
0
 77
1
 78
8
 79
2
170
0
171
1
172
0
173
0
174
0
175
0
176
0
177
0
178
0
270
2
179
2
271
2
272
2
273
2
274
2
275
0
280
0
281
0
282
0
283
1
284
8
285
0
286
0
287
3
288
0
340
11
278
46
341
212
342
212
343
212
344
212
  0
ENDTAB
  0
ENDSEC
  0
SECTION
  2
BLOCKS
  0
BLOCK
  5
20
100
AcDbEntity
  8
0
100
AcDbBlockBegin
  2
*Model_Space
 70
0
 10
0.0
 20
0.0
 30
0.0
  3
*Model_Space
  1

  0
ENDBLK
  5
21
100
AcDbEntity
  8
0
100
AcDbBlockEnd
  0
BLOCK
  5
1C
100
AcDbEntity
  8
0
100
AcDbBlockBegin
  2
*Paper_Space
 70
0
 10
0.0
 20
0.0
 30
0.0
  3
*Paper_Space
  1

  0
ENDBLK
  5
1D
100
AcDbEntity
  8
0
100
AcDbBlockEnd
  0
BLOCK
  5
214
100
AcDbEntity
  8
0
100
AcDbBlockBegin
  2
_FILLED
 70
64
 10
0.0
 20
0.0
  3
_FILLED
  1

  0
SOLID
  5
215
100
AcDbEntity
  8
0
  6
BYBLOCK
 62
0
100
AcDbTrace
 10
0.0
 20
0.0
 11
-1.0
 21
0.25
 12
-1.0
 22
-0.25
 13
-1.0
 23
-0.25
  0
ENDBLK
  5
216
100
AcDbEntity
  8
0
  6
BYBLOCK
 62
0
100
AcDbBlockEnd
  0
ENDSEC
  0
SECTION
  2
ENTITIES
  0
LINE
  5
217
100
AcDbEntity
  8
0
100
AcDbLine
 62
7
  6
BYLAYER
 10
8.0233561101
 20
40.7549027245
 11
8.0233561101
 21
47.1549011971
  0
LINE
  5
218
100
AcDbEntity
  8
0
100
AcDbLine
 62
7
  6
BYLAYER
 10
8.3233561101
 20
40.4549019608
 11
8.3233561101
 21
47.4549019608
  0
LINE
  5
219
100
AcDbEntity
  8
0
100
AcDbLine
 62
7
  6
BYLAYER
 10
9.0233561101
 20
40.2549025414
 11
9.0233561101
 21
47.6549013801
  0
LINE
  5
21A
100
AcDbEntity
  8
0
100
AcDbLine
 62
7
  6
BYLAYER
 10
9.3233561101
 20
39.9549019608
 11
9.3233561101
 21
47.9549019608
  0
LINE
  5
21B
100
AcDbEntity
  8
0
100
AcDbLine
 62
7
  6
BYLAYER
 10
17.6826824458
 20
51.5696556675
 11
18.3233561101
 21
51.8549019608
  0
LINE
  5
21C
100
AcDbEntity
  8
0
100
AcDbLine
 62
7
  6
BYLAYER
 10
18.7733561101
 20
51.8549019608
 11
19.0233561101
 21
51.9549019608
  0
LINE
  5
21D
100
AcDbEntity
  8
0
100
AcDbLine
 62
7
  6
BYLAYER
 10
17.6233561101
 20
49.3549019608
 11
17.2233561101
 21
48.9549019608
  0
LINE
  5
21E
100
AcDbEntity
  8
0
100
AcDbLine
 62
7
  6
BYLAYER
 10
36.1733562608
 20
24.4549019608
 11
47.1733559595
 21
24.4549019608
  0
LINE
  5
21F
100
AcDbEntity
  8
0
100
AcDbLine
 62
7
  6
BYLAYER
 10
47.4233561101
 20
24.7049019608
 11
42.7410639353
 21
24.7049019608
  0
LINE
  5
220
100
AcDbEntity
  8
0
100
AcDbLine
 62
7
  6
BYLAYER
 10
40.6056482849
 20
24.7049019608
 11
35.9233561101
 21
24.7049019608
  0
LINE
  5
221
100
AcDbEntity
  8
0
100
AcDbLine
 62
7
  6
BYLAYER
 10
35.9233561101
 20
26.1049019608
 11
36.6937100383
 21
26.1049019608
  0
LINE
  5
222
100
AcDbEntity
  8
0
100
AcDbLine
 62
7
  6
BYLAYER
 10
46.6530021822
 20
26.1049019608
 11
47.4233561101
 21
26.1049019608
  0
LINE
  5
223
100
AcDbEntity
  8
0
100
AcDbLine
 62
7
  6
BYLAYER
 10
36.173434797
 20
26.3549019608
 11
36.8984207263
 21
26.3549019608
  0
LINE
  5
224
100
AcDbEntity
  8
0
100
AcDbLine
 62
7
  6
BYLAYER
 10
46.4551656462
 20
26.3549019608
 11
47.1732774233
 21
26.3549019608
  0
LINE
  5
225
100
AcDbEntity
  8
0
100
AcDbLine
 62
7
  6
BYLAYER
 10
37.0346117353
 20
26.604901969
 11
36.9862962728
 21
26.604901969
  0
LINE
  5
226
100
AcDbEntity
  8
0
100
AcDbLine
 62
7
  6
BYLAYER
 10
46.312100485
 20
26.6049029926
 11
46.3604159474
 21
26.6048979358
  0
LINE
  5
227
100
AcDbEntity
  8
0
100
AcDbLine
 62
7
  6
BYLAYER
 10
17.2233561101
 20
38.9549019608
 11
17.2233561101
 21
48.9549019608
  0
LINE
  5
228
100
AcDbEntity
  8
0
100
AcDbLine
 62
7
  6
BYLAYER
 10
17.6233561101
 20
36.4315085085
 11
17.6233561101
 21
37.5116249013
  0
LINE
  5
229
100
AcDbEntity
  8
0
100
AcDbLine
 62
7
  6
BYLAYER
 10
17.6233561101
 20
37.5680453744
 11
17.6233561101
 21
43.7049019608
  0
LINE
  5
22A
100
AcDbEntity
  8
0
100
AcDbLine
 62
7
  6
BYLAYER
 10
17.6233561101
 20
44.2049019608
 11
17.6233561101
 21
50.3417585472
  0
LINE
  5
22B
100
AcDbEntity
  8
0
100
AcDbLine
 62
7
  6
BYLAYER
 10
17.6233561101
 20
50.3981790202
 11
17.6233561101
 21
51.4782954131
  0
LINE
  5
22C
100
AcDbEntity
  8
0
100
AcDbLine
 62
7
  6
BYLAYER
 10
46.312100485
 20
27.8049019525
 11
46.360415946
 21
27.8049019525
  0
LINE
  5
22D
100
AcDbEntity
  8
0
100
AcDbLine
 62
7
  6
BYLAYER
 10
37.0346117353
 20
27.8049089911
 11
36.9862962728
 21
27.8049109742
  0
LINE
  5
22E
100
AcDbEntity
  8
0
100
AcDbLine
 62
7
  6
BYLAYER
 10
48.0233561101
 20
28.0549019608
 11
35.3233561101
 21
28.0549019608
  0
LINE
  5
22F
100
AcDbEntity
  8
0
100
AcDbLine
 62
7
  6
BYLAYER
 10
17.6826824458
 20
36.3401482541
 11
17.6826824458
 21
37.2489036755
  0
LINE
  5
230
100
AcDbEntity
  8
0
100
AcDbLine
 62
7
  6
BYLAYER
 10
17.6826824458
 20
37.4777158494
 11
17.6826824458
 21
43.7260900339
  0
LINE
  5
231
100
AcDbEntity
  8
0
100
AcDbLine
 62
7
  6
BYLAYER
 10
17.6826824458
 20
44.1837143572
 11
17.6826824458
 21
50.4320883192
  0
LINE
  5
232
100
AcDbEntity
  8
0
100
AcDbLine
 62
7
  6
BYLAYER
 10
17.6826824458
 20
50.6609004686
 11
17.6826824458
 21
51.5696556675
  0
LINE
  5
233
100
AcDbEntity
  8
0
100
AcDbLine
 62
7
  6
BYLAYER
 10
17.7233561101
 20
43.7406162465
 11
17.7233561101
 21
44.1691876751
  0
LINE
  5
234
100
AcDbEntity
  8
0
100
AcDbLine
 62
7
  6
BYLAYER
 10
18.3233561101
 20
36.0549019608
 11
18.3233561101
 21
51.8549019608
  0
LINE
  5
235
100
AcDbEntity
  8
0
100
AcDbLine
 62
7
  6
BYLAYER
 10
18.7733561101
 20
51.8549019608
 11
18.7733561101
 21
36.0549019608
  0
LINE
  5
236
100
AcDbEntity
  8
0
100
AcDbLine
 62
7
  6
BYLAYER
 10
19.0233561101
 20
35.1049019608
 11
19.0233561101
 21
52.9548988589
  0
LINE
  5
237
100
AcDbEntity
  8
0
100
AcDbLine
 62
7
  6
BYLAYER
 10
35.3233561101
 20
28.6549019608
 11
48.0233561101
 21
28.6549019608
  0
LINE
  5
238
100
AcDbEntity
  8
0
100
AcDbLine
 62
7
  6
BYLAYER
 10
47.6733561101
 20
28.7549019608
 11
35.6733561101
 21
28.7549019608
  0
LINE
  5
239
100
AcDbEntity
  8
0
100
AcDbLine
 62
7
  6
BYLAYER
 10
47.6733561101
 20
29.7549019608
 11
35.6733561101
 21
29.7549019608
  0
LINE
  5
23A
100
AcDbEntity
  8
0
100
AcDbLine
 62
7
  6
BYLAYER
 10
48.0233561101
 20
29.8549019608
 11
35.3233561101
 21
29.8549019608
  0
LINE
  5
23B
100
AcDbEntity
  8
0
100
AcDbLine
 62
7
  6
BYLAYER
 10
17.6233561101
 20
43.7049019608
 11
18.3233561101
 21
43.9549019608
  0
LINE
  5
23C
100
AcDbEntity
  8
0
100
AcDbLine
 62
7
  6
BYLAYER
 10
35.3233561101
 20
31.0049019608
 11
48.0233561101
 21
31.0049019608
  0
LINE
  5
23D
100
AcDbEntity
  8
0
100
AcDbLine
 62
7
  6
BYLAYER
 10
17.6233561101
 20
38.5549019608
 11
17.2233561101
 21
38.9549019608
  0
LINE
  5
23E
100
AcDbEntity
  8
0
100
AcDbLine
 62
7
  6
BYLAYER
 10
48.3733561101
 20
32.3049019608
 11
34.9733561101
 21
32.3049019608
  0
LINE
  5
23F
100
AcDbEntity
  8
0
100
AcDbLine
 62
7
  6
BYLAYER
 10
48.8469055508
 20
32.4549019608
 11
47.6246634528
 21
32.4549019608
  0
LINE
  5
240
100
AcDbEntity
  8
0
100
AcDbLine
 62
7
  6
BYLAYER
 10
44.7510079606
 20
32.4549019608
 11
43.7053373955
 21
32.4549019608
  0
LINE
  5
241
100
AcDbEntity
  8
0
100
AcDbLine
 62
7
  6
BYLAYER
 10
43.1058278333
 20
32.4549019608
 11
41.983685095
 21
32.4549019608
  0
LINE
  5
242
100
AcDbEntity
  8
0
100
AcDbLine
 62
7
  6
BYLAYER
 10
41.3630271253
 20
32.4549019608
 11
40.240884387
 21
32.4549019608
  0
LINE
  5
243
100
AcDbEntity
  8
0
100
AcDbLine
 62
7
  6
BYLAYER
 10
39.6413748248
 20
32.4549019608
 11
38.5957042596
 21
32.4549019608
  0
LINE
  5
244
100
AcDbEntity
  8
0
100
AcDbLine
 62
7
  6
BYLAYER
 10
35.7220487674
 20
32.4549019608
 11
34.5846531067
 21
32.4549019608
  0
LINE
  5
245
100
AcDbEntity
  8
0
100
AcDbLine
 62
7
  6
BYLAYER
 10
49.0365245068
 20
32.6549019608
 11
48.9764824583
 21
32.6549019608
  0
LINE
  5
246
100
AcDbEntity
  8
0
100
AcDbLine
 62
7
  6
BYLAYER
 10
48.5947787972
 20
32.6549019608
 11
48.4187444183
 21
32.6549019608
  0
LINE
  5
247
100
AcDbEntity
  8
0
100
AcDbLine
 62
7
  6
BYLAYER
 10
44.7163376369
 20
32.6549019608
 11
44.2913530519
 21
32.6549019608
  0
LINE
  5
248
100
AcDbEntity
  8
0
100
AcDbLine
 62
7
  6
BYLAYER
 10
42.866815595
 20
32.6549019608
 11
42.4107509588
 21
32.6549019608
  0
LINE
  5
249
100
AcDbEntity
  8
0
100
AcDbLine
 62
7
  6
BYLAYER
 10
40.9359612615
 20
32.6549019608
 11
40.4798966252
 21
32.6549019608
  0
LINE
  5
24A
100
AcDbEntity
  8
0
100
AcDbLine
 62
7
  6
BYLAYER
 10
39.0553591683
 20
32.6549019608
 11
38.6303745833
 21
32.6549019608
  0
LINE
  5
24B
100
AcDbEntity
  8
0
100
AcDbLine
 62
7
  6
BYLAYER
 10
34.927967802
 20
32.6549019608
 11
34.7519334231
 21
32.6549019608
  0
LINE
  5
24C
100
AcDbEntity
  8
0
100
AcDbLine
 62
7
  6
BYLAYER
 10
34.3702297619
 20
32.6549019608
 11
34.3101877135
 21
32.6549019608
  0
LINE
  5
24D
100
AcDbEntity
  8
0
100
AcDbLine
 62
7
  6
BYLAYER
 10
18.7733561101
 20
36.0549019608
 11
19.0233561101
 21
35.9549019608
  0
LINE
  5
24E
100
AcDbEntity
  8
0
100
AcDbLine
 62
7
  6
BYLAYER
 10
17.6826824458
 20
36.3401482541
 11
18.3233561101
 21
36.0549019608
  0
LINE
  5
24F
100
AcDbEntity
  8
0
100
AcDbLine
 62
7
  6
BYLAYER
 10
23.5233561101
 20
34.9549509368
 11
23.5233561101
 21
35.1049019608
  0
LINE
  5
250
100
AcDbEntity
  8
0
100
AcDbLine
 62
7
  6
BYLAYER
 10
49.6733561101
 20
34.4549019608
 11
33.6733561101
 21
34.4549019608
  0
LINE
  5
251
100
AcDbEntity
  8
0
100
AcDbLine
 62
7
  6
BYLAYER
 10
23.5233561101
 20
34.9549019608
 11
33.4233561101
 21
34.9549019608
  0
LINE
  5
252
100
AcDbEntity
  8
0
100
AcDbLine
 62
7
  6
BYLAYER
 10
19.0233561101
 20
35.1049019608
 11
23.5233561101
 21
35.1049019608
  0
LINE
  5
253
100
AcDbEntity
  8
0
100
AcDbLine
 62
7
  6
BYLAYER
 10
18.7733561101
 20
36.0549019608
 11
18.3233561101
 21
36.0549019608
  0
LWPOLYLINE
  5
254
100
AcDbEntity
  8
0
100
AcDbPolyline
 62
7
  6
BYLAYER
 90
5
 70
0
 10
46.4590043541
 20
26.3513170683
 10
46.4572238395
 20
26.352448725
 10
46.4104948796
 20
26.4081466808
 10
46.3667375336
 20
26.5314148018
 10
46.3604101847
 20
26.6048244694
  0
LINE
  5
255
100
AcDbEntity
  8
0
100
AcDbLine
 62
7
  6
BYLAYER
 10
39.3929493263
 20
39.3191931781
 11
19.0233561101
 21
39.3191931781
  0
LINE
  5
256
100
AcDbEntity
  8
0
100
AcDbLine
 62
7
  6
BYLAYER
 10
9.3233561101
 20
39.9549019608
 11
17.2233561101
 21
39.9549019608
  0
LINE
  5
257
100
AcDbEntity
  8
0
100
AcDbLine
 62
7
  6
BYLAYER
 10
41.6733561101
 20
40.3493506853
 11
19.0233561101
 21
40.3493506853
  0
LINE
  5
258
100
AcDbEntity
  8
0
100
AcDbLine
 62
7
  6
BYLAYER
 10
8.3233561101
 20
40.4549019608
 11
9.0233561101
 21
40.4549019608
  0
LINE
  5
259
100
AcDbEntity
  8
0
100
AcDbLine
 62
7
  6
BYLAYER
 10
18.3233561101
 20
43.9549019608
 11
17.6233561101
 21
44.2049019608
  0
LWPOLYLINE
  5
25A
100
AcDbEntity
  8
0
100
AcDbPolyline
 62
7
  6
BYLAYER
 90
4
 70
0
 10
36.8928684945
 20
28.0549019608
 10
36.9362177317
 20
28.0016565359
 10
36.9799719817
 20
27.8784043915
 10
36.9863024814
 20
27.8049549592
  0
LWPOLYLINE
  5
25B
100
AcDbEntity
  8
0
100
AcDbPolyline
 62
7
  6
BYLAYER
 90
3
 70
0
 10
36.9506538259
 20
27.9609912388
 10
36.9791887387
 20
27.8827655946
 10
36.9794538445
 20
27.8798639418
  0
LINE
  5
25C
100
AcDbEntity
  8
0
100
AcDbLine
 62
7
  6
BYLAYER
 10
33.6733561101
 20
34.4549019608
 11
33.6733561101
 21
34.7049019608
  0
LINE
  5
25D
100
AcDbEntity
  8
0
100
AcDbLine
 62
7
  6
BYLAYER
 10
34.3101877135
 20
34.4549019608
 11
34.3101877135
 21
32.6549019608
  0
LINE
  5
25E
100
AcDbEntity
  8
0
100
AcDbLine
 62
7
  6
BYLAYER
 10
34.3702297619
 20
32.6549019608
 11
34.3702297619
 21
34.4549019608
  0
LINE
  5
25F
100
AcDbEntity
  8
0
100
AcDbLine
 62
7
  6
BYLAYER
 10
34.7519334231
 20
34.4549019608
 11
34.7519334231
 21
32.6549019608
  0
LINE
  5
260
100
AcDbEntity
  8
0
100
AcDbLine
 62
7
  6
BYLAYER
 10
34.927967802
 20
32.6549019608
 11
34.927967802
 21
34.4549019608
  0
LINE
  5
261
100
AcDbEntity
  8
0
100
AcDbLine
 62
7
  6
BYLAYER
 10
34.9733561101
 20
32.3049019608
 11
34.9733561101
 21
32.4549019608
  0
LINE
  5
262
100
AcDbEntity
  8
0
100
AcDbLine
 62
7
  6
BYLAYER
 10
35.3233561101
 20
28.0549019608
 11
35.3233561101
 21
28.6549019608
  0
LINE
  5
263
100
AcDbEntity
  8
0
100
AcDbLine
 62
7
  6
BYLAYER
 10
35.3233561101
 20
29.8549019608
 11
35.3233561101
 21
31.0049019608
  0
LINE
  5
264
100
AcDbEntity
  8
0
100
AcDbLine
 62
7
  6
BYLAYER
 10
35.7220487674
 20
34.4549019608
 11
35.7220487674
 21
32.4549019608
  0
LINE
  5
265
100
AcDbEntity
  8
0
100
AcDbLine
 62
7
  6
BYLAYER
 10
35.9233561101
 20
26.1049019608
 11
35.9233561101
 21
24.7049019608
  0
LINE
  5
266
100
AcDbEntity
  8
0
100
AcDbLine
 62
7
  6
BYLAYER
 10
36.1733561101
 20
31.0049019608
 11
36.1733561101
 21
32.3049019608
  0
LINE
  5
267
100
AcDbEntity
  8
0
100
AcDbLine
 62
7
  6
BYLAYER
 10
8.3233561101
 20
47.4549019608
 11
9.0233561101
 21
47.4549019608
  0
LINE
  5
268
100
AcDbEntity
  8
0
100
AcDbLine
 62
7
  6
BYLAYER
 10
36.9862962728
 20
27.8049109742
 11
36.9862962728
 21
26.604901969
  0
LINE
  5
269
100
AcDbEntity
  8
0
100
AcDbLine
 62
7
  6
BYLAYER
 10
37.0346117353
 20
27.8049019373
 11
37.0346117353
 21
26.604901972
  0
LWPOLYLINE
  5
26A
100
AcDbEntity
  8
0
100
AcDbPolyline
 62
7
  6
BYLAYER
 90
4
 70
0
 10
36.9863021884
 20
26.6049019884
 10
36.976913417
 20
26.5156332375
 10
36.930907175
 20
26.399465827
 10
36.8984207263
 20
26.3595712087
  0
LINE
  5
26B
100
AcDbEntity
  8
0
100
AcDbLine
 62
7
  6
BYLAYER
 10
9.3233561101
 20
47.9549019608
 11
17.2233561101
 21
47.9549019608
  0
LINE
  5
26C
100
AcDbEntity
  8
0
100
AcDbLine
 62
7
  6
BYLAYER
 10
38.5957042596
 20
32.4549019608
 11
38.5957042596
 21
34.4549019608
  0
LINE
  5
26D
100
AcDbEntity
  8
0
100
AcDbLine
 62
7
  6
BYLAYER
 10
38.6303745833
 20
34.4549019608
 11
38.6303745833
 21
32.6549019608
  0
LINE
  5
26E
100
AcDbEntity
  8
0
100
AcDbLine
 62
7
  6
BYLAYER
 10
39.0553591683
 20
32.6549019608
 11
39.0553591683
 21
34.4549019608
  0
LINE
  5
26F
100
AcDbEntity
  8
0
100
AcDbLine
 62
7
  6
BYLAYER
 10
39.6413748248
 20
34.4549019608
 11
39.6413748248
 21
32.4549019608
  0
LINE
  5
270
100
AcDbEntity
  8
0
100
AcDbLine
 62
7
  6
BYLAYER
 10
40.240884387
 20
32.4549019608
 11
40.240884387
 21
34.4549019608
  0
LINE
  5
271
100
AcDbEntity
  8
0
100
AcDbLine
 62
7
  6
BYLAYER
 10
19.0233561101
 20
50.342528196
 11
41.6733561101
 21
50.342528196
  0
LINE
  5
272
100
AcDbEntity
  8
0
100
AcDbLine
 62
7
  6
BYLAYER
 10
40.4798966252
 20
34.4549019608
 11
40.4798966252
 21
32.6549019608
  0
LINE
  5
273
100
AcDbEntity
  8
0
100
AcDbLine
 62
7
  6
BYLAYER
 10
40.6056482849
 20
24.7049019608
 11
40.6056482849
 21
28.0549019608
  0
LINE
  5
274
100
AcDbEntity
  8
0
100
AcDbLine
 62
7
  6
BYLAYER
 10
40.9359612615
 20
32.6549019608
 11
40.9359612615
 21
34.4549019608
  0
LINE
  5
275
100
AcDbEntity
  8
0
100
AcDbLine
 62
7
  6
BYLAYER
 10
41.3630271253
 20
34.4549019608
 11
41.3630271253
 21
32.4549019608
  0
LINE
  5
276
100
AcDbEntity
  8
0
100
AcDbLine
 62
7
  6
BYLAYER
 10
41.6733561101
 20
52.3012909054
 11
41.6733561101
 21
40.3493506853
  0
LINE
  5
277
100
AcDbEntity
  8
0
100
AcDbLine
 62
7
  6
BYLAYER
 10
18.7733561101
 20
51.8549019608
 11
18.3233561101
 21
51.8549019608
  0
LINE
  5
278
100
AcDbEntity
  8
0
100
AcDbLine
 62
7
  6
BYLAYER
 10
19.0233561101
 20
52.3012909054
 11
41.6733561101
 21
52.3012909054
  0
LINE
  5
279
100
AcDbEntity
  8
0
100
AcDbLine
 62
7
  6
BYLAYER
 10
41.983685095
 20
32.4549019608
 11
41.983685095
 21
34.4549019608
  0
LINE
  5
27A
100
AcDbEntity
  8
0
100
AcDbLine
 62
7
  6
BYLAYER
 10
42.4107509588
 20
34.4549019608
 11
42.4107509588
 21
32.6549019608
  0
LINE
  5
27B
100
AcDbEntity
  8
0
100
AcDbLine
 62
7
  6
BYLAYER
 10
42.7410639353
 20
28.0549019608
 11
42.7410639353
 21
24.7049019608
  0
LINE
  5
27C
100
AcDbEntity
  8
0
100
AcDbLine
 62
7
  6
BYLAYER
 10
42.866815595
 20
32.6549019608
 11
42.866815595
 21
34.4549019608
  0
LINE
  5
27D
100
AcDbEntity
  8
0
100
AcDbLine
 62
7
  6
BYLAYER
 10
43.1058278333
 20
34.4549019608
 11
43.1058278333
 21
32.4549019608
  0
LINE
  5
27E
100
AcDbEntity
  8
0
100
AcDbLine
 62
7
  6
BYLAYER
 10
43.7053373955
 20
32.4549019608
 11
43.7053373955
 21
34.4549019608
  0
LINE
  5
27F
100
AcDbEntity
  8
0
100
AcDbLine
 62
7
  6
BYLAYER
 10
47.6733537286
 20
52.9549019608
 11
19.0233561101
 21
52.9549019608
  0
LINE
  5
280
100
AcDbEntity
  8
0
100
AcDbLine
 62
7
  6
BYLAYER
 10
46.3963984871
 20
26.435140435
 11
46.3879356921
 21
26.471697808
  0
LINE
  5
281
100
AcDbEntity
  8
0
100
AcDbLine
 62
7
  6
BYLAYER
 10
44.2913530519
 20
34.4549019608
 11
44.2913530519
 21
32.6549019608
  0
LINE
  5
282
100
AcDbEntity
  8
0
100
AcDbLine
 62
7
  6
BYLAYER
 10
44.7163376369
 20
32.6549019608
 11
44.7163376369
 21
34.4549019608
  0
LINE
  5
283
100
AcDbEntity
  8
0
100
AcDbLine
 62
7
  6
BYLAYER
 10
44.7510079606
 20
34.4549019608
 11
44.7510079606
 21
32.4549019608
  0
LINE
  5
284
100
AcDbEntity
  8
0
100
AcDbLine
 62
7
  6
BYLAYER
 10
46.312100485
 20
26.6049019713
 11
46.312100485
 21
27.8049019516
  0
LINE
  5
285
100
AcDbEntity
  8
0
100
AcDbLine
 62
7
  6
BYLAYER
 10
46.3604159474
 20
26.6048979358
 11
46.3604159474
 21
27.8049019525
  0
LINE
  5
286
100
AcDbEntity
  8
0
100
AcDbLine
 62
7
  6
BYLAYER
 10
47.1733561101
 20
31.0049019608
 11
47.1733561101
 21
32.3049019608
  0
LINE
  5
287
100
AcDbEntity
  8
0
100
AcDbLine
 62
7
  6
BYLAYER
 10
47.4233561101
 20
24.7049019608
 11
47.4233561101
 21
26.1049019608
  0
LINE
  5
288
100
AcDbEntity
  8
0
100
AcDbLine
 62
7
  6
BYLAYER
 10
47.6246634528
 20
32.4549019608
 11
47.6246634528
 21
34.4549019608
  0
LINE
  5
289
100
AcDbEntity
  8
0
100
AcDbLine
 62
7
  6
BYLAYER
 10
48.0233561101
 20
28.0549019608
 11
48.0233561101
 21
28.6549019608
  0
LINE
  5
28A
100
AcDbEntity
  8
0
100
AcDbLine
 62
7
  6
BYLAYER
 10
48.0233561101
 20
29.8549019608
 11
48.0233561101
 21
31.0049019608
  0
LINE
  5
28B
100
AcDbEntity
  8
0
100
AcDbLine
 62
7
  6
BYLAYER
 10
48.3733561101
 20
32.3049019608
 11
48.3733561101
 21
32.4549019608
  0
LINE
  5
28C
100
AcDbEntity
  8
0
100
AcDbLine
 62
7
  6
BYLAYER
 10
48.4187444183
 20
34.4549019608
 11
48.4187444183
 21
32.6549019608
  0
LINE
  5
28D
100
AcDbEntity
  8
0
100
AcDbLine
 62
7
  6
BYLAYER
 10
48.5947787972
 20
32.6549019608
 11
48.5947787972
 21
34.4549019608
  0
LWPOLYLINE
  5
28E
100
AcDbEntity
  8
0
100
AcDbPolyline
 62
7
  6
BYLAYER
 90
4
 70
0
 10
46.3604095727
 20
27.8049019344
 10
46.3698140189
 20
27.8942417824
 10
46.4158367456
 20
28.0103877667
 10
46.4483055011
 20
28.0502453804
  0
LINE
  5
28F
100
AcDbEntity
  8
0
100
AcDbLine
 62
7
  6
BYLAYER
 10
48.9764824583
 20
34.4549019608
 11
48.9764824583
 21
32.6549019608
  0
LINE
  5
290
100
AcDbEntity
  8
0
100
AcDbLine
 62
7
  6
BYLAYER
 10
49.0365245068
 20
32.6549019608
 11
49.0365245068
 21
34.4549019608
  0
LINE
  5
291
100
AcDbEntity
  8
0
100
AcDbLine
 62
7
  6
BYLAYER
 10
49.6733561101
 20
34.4549019608
 11
49.6733561101
 21
50.9549019608
  0
ARC
  5
292
100
AcDbEntity
  8
0
100
AcDbCircle
 62
7
  6
BYLAYER
 10
68.9254176175
 20
-38.9124716485
 40
102.9964473043
100
AcDbArc
 50
119.4260032362
 51
119.8360251272
  0
ARC
  5
293
100
AcDbEntity
  8
0
100
AcDbCircle
 62
7
  6
BYLAYER
 10
68.9241151188
 20
126.8199834856
 40
102.9938142689
100
AcDbArc
 50
240.1639806754
 51
240.5740024424
  0
ARC
  5
294
100
AcDbEntity
  8
0
100
AcDbCircle
 62
7
  6
BYLAYER
 10
33.074760467
 20
-20.4811807551
 40
72.7881321824
100
AcDbArc
 50
101.692681671
 51
102.2081563768
  0
ARC
  5
295
100
AcDbEntity
  8
0
100
AcDbCircle
 62
7
  6
BYLAYER
 10
32.8524894535
 20
107.3408145581
 40
71.7147050086
100
AcDbArc
 50
257.7879717289
 51
258.3111756423
  0
ARC
  5
296
100
AcDbEntity
  8
0
100
AcDbCircle
 62
7
  6
BYLAYER
 10
9.0233561101
 20
43.9549019608
 40
3.0
100
AcDbArc
 50
109.6272784236
 51
248.1499955243
  0
ARC
  5
297
100
AcDbEntity
  8
0
100
AcDbCircle
 62
7
  6
BYLAYER
 10
47.6733535972
 20
50.9549008709
 40
2.000000393
100
AcDbArc
 50
0.0000312281
 51
89.9998643948
  0
ARC
  5
298
100
AcDbEntity
  8
0
100
AcDbCircle
 62
7
  6
BYLAYER
 10
46.9665792156
 20
27.8047454954
 40
0.6544787493
100
AcDbArc
 50
172.6189104596
 51
179.9863031682
  0
ARC
  5
299
100
AcDbEntity
  8
0
100
AcDbCircle
 62
7
  6
BYLAYER
 10
36.3802796581
 20
27.8047577816
 40
0.6543320931
100
AcDbArc
 50
0.0126228141
 51
7.3280047099
  0
ARC
  5
29A
100
AcDbEntity
  8
0
100
AcDbCircle
 62
7
  6
BYLAYER
 10
46.9633563179
 20
26.6049511661
 40
0.6512558347
100
AcDbArc
 50
180.0043280247
 51
180.4321782665
  0
ARC
  5
29B
100
AcDbEntity
  8
0
100
AcDbCircle
 62
7
  6
BYLAYER
 10
36.3833595669
 20
26.6049516275
 40
0.6512521703
100
AcDbArc
 50
359.5678132192
 51
359.9956314173
  0
ARC
  5
29C
100
AcDbEntity
  8
0
100
AcDbCircle
 62
7
  6
BYLAYER
 10
36.4512272505
 20
26.5828562134
 40
0.5795902218
100
AcDbArc
 50
332.5652072336
 51
335.4720702761
  0
ARC
  5
29D
100
AcDbEntity
  8
0
100
AcDbCircle
 62
7
  6
BYLAYER
 10
46.8918272796
 20
26.581131473
 40
0.5755466054
100
AcDbArc
 50
204.5236861239
 51
208.7754395729
  0
ARC
  5
29E
100
AcDbEntity
  8
0
100
AcDbCircle
 62
7
  6
BYLAYER
 10
47.6733561101
 20
29.2549019608
 40
0.5
100
AcDbArc
 50
270.0
 51
90.0
  0
ARC
  5
29F
100
AcDbEntity
  8
0
100
AcDbCircle
 62
7
  6
BYLAYER
 10
35.6733561101
 20
29.2549019608
 40
0.5
100
AcDbArc
 50
90.0
 51
270.0
  0
ARC
  5
2A0
100
AcDbEntity
  8
0
100
AcDbCircle
 62
7
  6
BYLAYER
 10
9.3233561101
 20
40.2549019608
 40
0.3
100
AcDbArc
 50
179.9998891065
 51
270.0
  0
ARC
  5
2A1
100
AcDbEntity
  8
0
100
AcDbCircle
 62
7
  6
BYLAYER
 10
9.3233561101
 20
47.6549019608
 40
0.3
100
AcDbArc
 50
90.0
 51
180.0001108935
  0
ARC
  5
2A2
100
AcDbEntity
  8
0
100
AcDbCircle
 62
7
  6
BYLAYER
 10
8.3233561101
 20
40.7549019608
 40
0.3
100
AcDbArc
 50
179.9998541429
 51
270.0
  0
ARC
  5
2A3
100
AcDbEntity
  8
0
100
AcDbCircle
 62
7
  6
BYLAYER
 10
8.3233561101
 20
47.1549019608
 40
0.3
100
AcDbArc
 50
90.0
 51
180.0001458571
  0
ARC
  5
2A4
100
AcDbEntity
  8
0
100
AcDbCircle
 62
7
  6
BYLAYER
 10
36.1733561101
 20
26.1049019608
 40
0.25
100
AcDbArc
 50
90.0
 51
180.0
  0
ARC
  5
2A5
100
AcDbEntity
  8
0
100
AcDbCircle
 62
7
  6
BYLAYER
 10
47.1733561101
 20
26.1049019608
 40
0.25
100
AcDbArc
 50
0.0
 51
90.0
  0
ARC
  5
2A6
100
AcDbEntity
  8
0
100
AcDbCircle
 62
7
  6
BYLAYER
 10
35.8233561101
 20
28.9049019608
 40
0.25
100
AcDbArc
 50
270.000036775
 51
328.3436263358
  0
ARC
  5
2A7
100
AcDbEntity
  8
0
100
AcDbCircle
 62
7
  6
BYLAYER
 10
47.5233561101
 20
28.9049019608
 40
0.25
100
AcDbArc
 50
211.6563736642
 51
269.999963225
  0
ARC
  5
2A8
100
AcDbEntity
  8
0
100
AcDbCircle
 62
7
  6
BYLAYER
 10
47.5233561101
 20
29.6049019608
 40
0.25
100
AcDbArc
 50
90.0000126816
 51
148.3436210357
  0
ARC
  5
2A9
100
AcDbEntity
  8
0
100
AcDbCircle
 62
7
  6
BYLAYER
 10
36.1733561101
 20
24.7049019608
 40
0.25
100
AcDbArc
 50
180.0
 51
270.0000345253
  0
ARC
  5
2AA
100
AcDbEntity
  8
0
100
AcDbCircle
 62
7
  6
BYLAYER
 10
47.1733561101
 20
24.7049019608
 40
0.25
100
AcDbArc
 50
269.9999654747
 51
360.0
  0
ARC
  5
2AB
100
AcDbEntity
  8
0
100
AcDbCircle
 62
7
  6
BYLAYER
 10
35.8233561101
 20
29.6049019608
 40
0.25
100
AcDbArc
 50
31.6563789643
 51
89.9999873184
  0
ARC
  5
2AC
100
AcDbEntity
  8
0
100
AcDbCircle
 62
7
  6
BYLAYER
 10
17.7233561101
 20
36.4315027998
 40
0.1
100
AcDbArc
 50
180.0
 51
245.9999999989
  0
ARC
  5
2AD
100
AcDbEntity
  8
0
100
AcDbCircle
 62
7
  6
BYLAYER
 10
17.7233561101
 20
51.4783011217
 40
0.1
100
AcDbArc
 50
114.0000000011
 51
180.0
  0
SPLINE
  5
2AE
100
AcDbEntity
  8
0
100
AcDbSpline
 62
7
  6
BYLAYER
 70
0
 71
3
 72
13
 73
9
 74
0
 42
0.0000001
 43
0.0000001
 44
0.0000000001
 40
0.0
 40
0.0
 40
0.0
 40
0.0
 40
0.2394773833
 40
0.3684528628
 40
0.5000038636
 40
0.631554277
 40
0.7605281619
 40
1.0
 40
1.0
 40
1.0
 40
1.0
 10
33.6733606865
 20
34.7049019607
 30
0.0
 10
33.6733611957
 20
34.7361305296
 30
0.0
 10
33.6641340648
 20
34.7848259676
 30
0.0
 10
33.6337561139
 20
34.8428719531
 30
0.0
 10
33.6014470902
 20
34.8829949213
 30
0.0
 10
33.5613238639
 20
34.9153032854
 30
0.0
 10
33.5032784232
 20
34.9456800797
 30
0.0
 10
33.4545839562
 20
34.9549067565
 30
0.0
 10
33.4233561104
 20
34.9549062252
 30
0.0
  0
SPLINE
  5
2AF
100
AcDbEntity
  8
0
100
AcDbSpline
 62
7
  6
BYLAYER
 70
0
 71
3
 72
11
 73
7
 74
0
 42
0.0000001
 43
0.0000001
 44
0.0000000001
 40
0.0
 40
0.0
 40
0.0
 40
0.0
 40
0.2333426736
 40
0.4810194242
 40
0.7388432976
 40
1.0
 40
1.0
 40
1.0
 40
1.0
 10
17.6233561101
 20
50.3417585472
 30
0.0
 10
17.6233561101
 20
50.3505199836
 30
0.0
 10
17.6265925077
 20
50.3686549477
 30
0.0
 10
17.6391895618
 20
50.3937219142
 30
0.0
 10
17.6582836976
 20
50.4156146644
 30
0.0
 10
17.6741733277
 20
50.4272064742
 30
0.0
 10
17.6826790803
 20
50.4320855697
 30
0.0
  0
SPLINE
  5
2B0
100
AcDbEntity
  8
0
100
AcDbSpline
 62
7
  6
BYLAYER
 70
0
 71
3
 72
11
 73
7
 74
0
 42
0.0000001
 43
0.0000001
 44
0.0000000001
 40
0.0
 40
0.0
 40
0.0
 40
0.0
 40
0.2611362341
 40
0.5189824116
 40
0.7666787818
 40
1.0
 40
1.0
 40
1.0
 40
1.0
 10
17.6826956162
 20
37.4777051119
 30
0.0
 10
17.6741888341
 20
37.4825847979
 30
0.0
 10
17.6582935347
 20
37.4941756436
 30
0.0
 10
17.6391951631
 20
37.5160733015
 30
0.0
 10
17.6265898456
 20
37.5411436764
 30
0.0
 10
17.6233561101
 20
37.5592829965
 30
0.0
 10
17.6233561101
 20
37.5680453744
 30
0.0
  0
SPLINE
  5
2B1
100
AcDbEntity
  8
0
100
AcDbSpline
 62
7
  6
BYLAYER
 70
0
 71
3
 72
11
 73
7
 74
0
 42
0.0000001
 43
0.0000001
 44
0.0000000001
 40
0.0
 40
0.0
 40
0.0
 40
0.0
 40
0.2703185467
 40
0.5272762569
 40
0.7684602118
 40
1.0
 40
1.0
 40
1.0
 40
1.0
 10
34.3101877135
 20
32.6549019608
 30
0.0
 10
34.3101877135
 20
32.6274934879
 30
0.0
 10
34.3207895515
 20
32.5734195928
 30
0.0
 10
34.364952765
 20
32.5068576965
 30
0.0
 10
34.427893861
 20
32.4645060344
 30
0.0
 10
34.476330192
 20
32.4549019608
 30
0.0
 10
34.499806761
 20
32.4549019608
 30
0.0
  0
SPLINE
  5
2B2
100
AcDbEntity
  8
0
100
AcDbSpline
 62
7
  6
BYLAYER
 70
0
 71
3
 72
13
 73
9
 74
0
 42
0.0000001
 43
0.0000001
 44
0.0000000001
 40
0.0
 40
0.0
 40
0.0
 40
0.0
 40
0.2951415808
 40
0.4335022353
 40
0.5625842907
 40
0.7924994926
 40
0.8980275033
 40
1.0
 40
1.0
 40
1.0
 40
1.0
 10
34.7519334231
 20
32.6549019608
 30
0.0
 10
34.7519334231
 20
32.6276811967
 30
0.0
 10
34.7581104881
 20
32.5872559957
 30
0.0
 10
34.7785698618
 20
32.5393350366
 30
0.0
 10
34.8036669776
 20
32.5007632145
 30
0.0
 10
34.8371795079
 20
32.4717026173
 30
0.0
 10
34.8752067397
 20
32.4572935011
 30
0.0
 10
34.8944209742
 20
32.4549019608
 30
0.0
 10
34.9038258478
 20
32.4549019608
 30
0.0
  0
SPLINE
  5
2B3
100
AcDbEntity
  8
0
100
AcDbSpline
 62
7
  6
BYLAYER
 70
0
 71
3
 72
13
 73
9
 74
0
 42
0.0000001
 43
0.0000001
 44
0.0000000001
 40
0.0
 40
0.0
 40
0.0
 40
0.0
 40
0.1019540816
 40
0.207456634
 40
0.4374095596
 40
0.5665604731
 40
0.7049583223
 40
1.0
 40
1.0
 40
1.0
 40
1.0
 10
48.4428865531
 20
32.4549019608
 30
0.0
 10
48.4522897383
 20
32.4549019608
 30
0.0
 10
48.4715003857
 20
32.4572897537
 30
0.0
 10
48.5095267384
 20
32.4716990572
 30
0.0
 10
48.5430510447
 20
32.5007598093
 30
0.0
 10
48.5681444477
 20
32.5393502659
 30
0.0
 10
48.5886072683
 20
32.587269883
 30
0.0
 10
48.5947787972
 20
32.6276903819
 30
0.0
 10
48.5947787972
 20
32.6549019608
 30
0.0
  0
SPLINE
  5
2B4
100
AcDbEntity
  8
0
100
AcDbSpline
 62
7
  6
BYLAYER
 70
0
 71
3
 72
11
 73
7
 74
0
 42
0.0000001
 43
0.0000001
 44
0.0000000001
 40
0.0
 40
0.0
 40
0.0
 40
0.0
 40
0.2314914985
 40
0.4727175824
 40
0.7297742334
 40
1.0
 40
1.0
 40
1.0
 40
1.0
 10
48.8469056848
 20
32.4549019608
 30
0.0
 10
48.8703773964
 20
32.4549019608
 30
0.0
 10
48.9188129178
 20
32.4645025467
 30
0.0
 10
48.9817659012
 20
32.5068565946
 30
0.0
 10
49.0259246863
 20
32.5734296273
 30
0.0
 10
49.0365245068
 20
32.6275028497
 30
0.0
 10
49.0365245068
 20
32.6549019608
 30
0.0
  0
SPLINE
  5
2B5
100
AcDbEntity
  8
0
100
AcDbSpline
 62
7
  6
BYLAYER
 70
0
 71
3
 72
14
 73
10
 74
0
 42
0.0000001
 43
0.0000001
 44
0.0000000001
 40
0.0
 40
0.0
 40
0.0
 40
0.0
 40
0.1391861137
 40
0.2805805218
 40
0.420183901
 40
0.5545075048
 40
0.7957917953
 40
0.9024921199
 40
1.0
 40
1.0
 40
1.0
 40
1.0
 10
36.6937140077
 20
26.1049019609
 30
0.0
 10
36.693713618
 20
26.1214623636
 30
0.0
 10
36.6966895567
 20
26.1549026994
 30
0.0
 10
36.7095392803
 20
26.2034872875
 30
0.0
 10
36.7311861827
 20
26.2482658822
 30
0.0
 10
36.7676542917
 20
26.297866792
 30
0.0
 10
36.8151245325
 20
26.3333513683
 30
0.0
 10
36.8654839187
 20
26.3507327728
 30
0.0
 10
36.8897126265
 20
26.354142125
 30
0.0
 10
36.9013010475
 20
26.3546931657
 30
0.0
  0
SPLINE
  5
2B6
100
AcDbEntity
  8
0
100
AcDbSpline
 62
7
  6
BYLAYER
 70
0
 71
3
 72
11
 73
7
 74
0
 42
0.0000001
 43
0.0000001
 44
0.0000000001
 40
0.0
 40
0.0
 40
0.0
 40
0.0
 40
0.257453835
 40
0.5044264579
 40
0.7484980978
 40
1.0
 40
1.0
 40
1.0
 40
1.0
 10
17.6826956166
 20
50.6609061291
 30
0.0
 10
17.6744345757
 20
50.6591177777
 30
0.0
 10
17.6586043895
 20
50.6533703218
 30
0.0
 10
17.6389227573
 20
50.6378675074
 30
0.0
 10
17.6261420449
 20
50.6164620828
 30
0.0
 10
17.6233561101
 20
50.6000155369
 30
0.0
 10
17.6233561101
 20
50.5917585472
 30
0.0
  0
SPLINE
  5
2B7
100
AcDbEntity
  8
0
100
AcDbSpline
 62
7
  6
BYLAYER
 70
0
 71
3
 72
9
 73
5
 74
0
 42
0.0000001
 43
0.0000001
 44
0.0000000001
 40
0.0
 40
0.0
 40
0.0
 40
0.0
 40
0.5190891053
 40
1.0
 40
1.0
 40
1.0
 40
1.0
 10
46.31211901
 20
26.6000388331
 30
0.0
 10
46.3124651564
 20
26.5541391668
 30
0.0
 10
46.3224740695
 20
26.4655233078
 30
0.0
 10
46.3505437879
 20
26.380925678
 30
0.0
 10
46.3682008725
 20
26.3422396969
 30
0.0
  0
SPLINE
  5
2B8
100
AcDbEntity
  8
0
100
AcDbSpline
 62
7
  6
BYLAYER
 70
0
 71
3
 72
11
 73
7
 74
0
 42
0.0000001
 43
0.0000001
 44
0.0000000001
 40
0.0
 40
0.0
 40
0.0
 40
0.0
 40
0.3038757773
 40
0.5673953081
 40
0.7960829776
 40
1.0
 40
1.0
 40
1.0
 40
1.0
 10
46.3873531356
 20
26.3040760038
 30
0.0
 10
46.404254834
 20
26.2733378608
 30
0.0
 10
46.4413294703
 20
26.2186864191
 30
0.0
 10
46.5084529508
 20
26.1547994174
 30
0.0
 10
46.5792970413
 20
26.114869896
 30
0.0
 10
46.6294626229
 20
26.1048933832
 30
0.0
 10
46.6530021822
 20
26.1049019608
 30
0.0
  0
SPLINE
  5
2B9
100
AcDbEntity
  8
0
100
AcDbSpline
 62
7
  6
BYLAYER
 70
0
 71
3
 72
15
 73
11
 74
0
 42
0.0000001
 43
0.0000001
 44
0.0000000001
 40
0.0
 40
0.0
 40
0.0
 40
0.0
 40
0.1372991475
 40
0.2768732118
 40
0.4150622456
 40
0.5487670853
 40
0.674878874
 40
0.7924038101
 40
0.9007084735
 40
1.0
 40
1.0
 40
1.0
 40
1.0
 10
46.6529996023
 20
26.1049019609
 30
0.0
 10
46.6529999406
 20
26.1206838739
 30
0.0
 10
46.6502920227
 20
26.1525574675
 30
0.0
 10
46.6386025869
 20
26.1990479008
 30
0.0
 10
46.6188746193
 20
26.2423198966
 30
0.0
 10
46.5927195411
 20
26.2801644711
 30
0.0
 10
46.5615529913
 20
26.3107253878
 30
0.0
 10
46.5275396781
 20
26.3330811677
 30
0.0
 10
46.492826964
 20
26.3474947395
 30
0.0
 10
46.4693103615
 20
26.3523731749
 30
0.0
 10
46.4579716949
 20
26.3536746025
 30
0.0
  0
SPLINE
  5
2BA
100
AcDbEntity
  8
0
100
AcDbSpline
 62
7
  6
BYLAYER
 70
0
 71
3
 72
11
 73
7
 74
0
 42
0.0000001
 43
0.0000001
 44
0.0000000001
 40
0.0
 40
0.0
 40
0.0
 40
0.0
 40
0.2515201901
 40
0.4955792554
 40
0.7425312788
 40
1.0
 40
1.0
 40
1.0
 40
1.0
 10
17.6233561101
 20
37.3180453744
 30
0.0
 10
17.6233561101
 20
37.309789465
 30
0.0
 10
17.6261450799
 20
37.293347123
 30
0.0
 10
17.6389171344
 20
37.2719435237
 30
0.0
 10
17.6585940507
 20
37.2564437841
 30
0.0
 10
17.6744192433
 20
37.2506932178
 30
0.0
 10
17.6826790803
 20
37.2489051269
 30
0.0
  0
SPLINE
  5
2BB
100
AcDbEntity
  8
0
100
AcDbSpline
 62
7
  6
BYLAYER
 70
0
 71
3
 72
9
 73
5
 74
0
 42
0.0000001
 43
0.0000001
 44
0.0000000001
 40
0.0
 40
0.0
 40
0.0
 40
0.0
 40
0.2609424042
 40
1.0
 40
1.0
 40
1.0
 40
1.0
 10
46.3175237277
 20
27.8888252603
 30
0.0
 10
46.3194531384
 20
27.9036960046
 30
0.0
 10
46.3288254517
 20
27.9604089884
 30
0.0
 10
46.3458873655
 20
28.0158622967
 30
0.0
 10
46.3626110282
 20
28.0549019608
 30
0.0
  0
SPLINE
  5
2BC
100
AcDbEntity
  8
0
100
AcDbSpline
 62
7
  6
BYLAYER
 70
0
 71
3
 72
39
 73
35
 74
0
 42
0.0000001
 43
0.0000001
 44
0.0000000001
 40
0.0
 40
0.0
 40
0.0
 40
0.0
 40
0.0078005152
 40
0.0156126775
 40
0.0234278182
 40
0.0312428467
 40
0.0468607901
 40
0.0624848312
 40
0.0781104281
 40
0.0937365066
 40
0.1249847866
 40
0.156235499
 40
0.1874871083
 40
0.218739137
 40
0.2499913549
 40
0.3124938385
 40
0.3749974141
 40
0.4999996811
 40
0.6250021727
 40
0.687505851
 40
0.7500083961
 40
0.7812606376
 40
0.8125126807
 40
0.8437642953
 40
0.8750150157
 40
0.9062633038
 40
0.9218893895
 40
0.9375149973
 40
0.9531390454
 40
0.9687570225
 40
0.9765720573
 40
0.9843872521
 40
0.992199356
 40
1.0
 40
1.0
 40
1.0
 40
1.0
 10
40.6056482849
 20
24.7049019608
 30
0.0
 10
40.6056482849
 20
24.6990717176
 30
0.0
 10
40.6079669155
 20
24.6873237069
 30
0.0
 10
40.6167052254
 20
24.671933944
 30
0.0
 10
40.6284067541
 20
24.6587802167
 30
0.0
 10
40.6462863492
 20
24.6436747032
 30
0.0
 10
40.6712055991
 20
24.6282260055
 30
0.0
 10
40.7028652389
 20
24.6131590696
 30
0.0
 10
40.7355538307
 20
24.6004802708
 30
0.0
 10
40.7799641322
 20
24.5859453814
 30
0.0
 10
40.8365118941
 20
24.5711868636
 30
0.0
 10
40.9051757383
 20
24.5571189317
 30
0.0
 10
40.9743332343
 20
24.545736959
 30
0.0
 10
41.0437954226
 20
24.5364307878
 30
0.0
 10
41.1366785201
 20
24.5262526019
 30
0.0
 10
41.2531230127
 20
24.5169514589
 30
0.0
 10
41.439755682
 20
24.5073969547
 30
0.0
 10
41.6733555682
 20
24.5032382627
 30
0.0
 10
41.9069555245
 20
24.5073969817
 30
0.0
 10
42.0935884978
 20
24.5169512727
 30
0.0
 10
42.2100331207
 20
24.5262525512
 30
0.0
 10
42.3029162966
 20
24.5364306972
 30
0.0
 10
42.372378519
 20
24.5457368645
 30
0.0
 10
42.4415360278
 20
24.5571188812
 30
0.0
 10
42.510199904
 20
24.5711867346
 30
0.0
 10
42.5667476844
 20
24.5859452545
 30
0.0
 10
42.6111580129
 20
24.60048012
 30
0.0
 10
42.6438466404
 20
24.6131588837
 30
0.0
 10
42.6755063017
 20
24.6282258589
 30
0.0
 10
42.7004256287
 20
24.6436744979
 30
0.0
 10
42.718305285
 20
24.6587800531
 30
0.0
 10
42.7300068182
 20
24.6719337703
 30
0.0
 10
42.7387452971
 20
24.6873235429
 30
0.0
 10
42.7410639353
 20
24.6990716214
 30
0.0
 10
42.7410639353
 20
24.7049019608
 30
0.0
  0
SPLINE
  5
2BD
100
AcDbEntity
  8
0
100
AcDbSpline
 62
7
  6
BYLAYER
 70
0
 71
3
 72
9
 73
5
 74
0
 42
0.0000001
 43
0.0000001
 44
0.0000000001
 40
0.0
 40
0.0
 40
0.0
 40
0.0
 40
0.2383026063
 40
1.0
 40
1.0
 40
1.0
 40
1.0
 10
36.9841011799
 20
28.0549019608
 30
0.0
 10
36.9895123348
 20
28.0422701761
 30
0.0
 10
37.0103872407
 20
27.9884948433
 30
0.0
 10
37.0236567885
 20
27.9317818344
 30
0.0
 10
37.0292673094
 20
27.8882174514
 30
0.0
  0
SPLINE
  5
2BE
100
AcDbEntity
  8
0
100
AcDbSpline
 62
7
  6
BYLAYER
 70
0
 71
3
 72
9
 73
5
 74
0
 42
0.0000001
 43
0.0000001
 44
0.0000000001
 40
0.0
 40
0.0
 40
0.0
 40
0.0
 40
0.5190888634
 40
1.0
 40
1.0
 40
1.0
 40
1.0
 10
37.0345932097
 20
26.6000392253
 30
0.0
 10
37.0342470667
 20
26.5541408942
 30
0.0
 10
37.0242388165
 20
26.4655275795
 30
0.0
 10
36.9961707442
 20
26.3809321338
 30
0.0
 10
36.9785146792
 20
26.3422470018
 30
0.0
  0
SPLINE
  5
2BF
100
AcDbEntity
  8
0
100
AcDbSpline
 62
7
  6
BYLAYER
 70
0
 71
3
 72
11
 73
7
 74
0
 42
0.0000001
 43
0.0000001
 44
0.0000000001
 40
0.0
 40
0.0
 40
0.0
 40
0.0
 40
0.3055099782
 40
0.569536559
 40
0.7975917414
 40
1.0
 40
1.0
 40
1.0
 40
1.0
 10
36.9656343019
 20
26.315816496
 30
0.0
 10
36.948757211
 20
26.2833238569
 30
0.0
 10
36.9113323598
 20
26.2255356266
 30
0.0
 10
36.8426478812
 20
26.1578721252
 30
0.0
 10
36.7697929668
 20
26.1155296699
 30
0.0
 10
36.7179679645
 20
26.1048931298
 30
0.0
 10
36.6937100383
 20
26.1049019608
 30
0.0
  0
SPLINE
  5
2C0
100
AcDbEntity
  8
0
100
AcDbSpline
 62
7
  6
BYLAYER
 70
0
 71
3
 72
40
 73
36
 74
0
 42
0.0000001
 43
0.0000001
 44
0.0000000001
 40
0.0
 40
0.0
 40
0.0
 40
0.0
 40
0.1946194177
 40
0.2895774414
 40
0.381753515
 40
0.4702775177
 40
0.5543030465
 40
0.6330407724
 40
0.7057485135
 40
0.7717285288
 40
0.801995542
 40
0.8303441461
 40
0.8567055788
 40
0.8810144801
 40
0.9032059204
 40
0.9232233902
 40
0.9410167237
 40
0.9565359961
 40
0.9697387659
 40
0.9754613001
 40
0.9805926487
 40
0.9851288453
 40
0.9890659442
 40
0.9924010591
 40
0.9951327875
 40
0.9962719782
 40
0.9972598379
 40
0.9980962051
 40
0.9987809183
 40
0.9993138159
 40
0.9996947363
 40
0.9998281547
 40
0.9999235182
 40
0.9999808066
 40
1.0
 40
1.0
 40
1.0
 40
1.0
 10
41.6733561101
 20
50.342528196
 30
0.0
 10
42.1943472048
 20
50.3425297791
 30
0.0
 10
42.9696057429
 20
50.3542617226
 30
0.0
 10
43.9908541343
 20
50.3926073337
 30
0.0
 10
44.7278144763
 20
50.4309402
 30
0.0
 10
45.4349672818
 20
50.47750769
 30
0.0
 10
46.1055824715
 20
50.5305262578
 30
0.0
 10
46.7333305892
 20
50.5878978675
 30
0.0
 10
47.3123324667
 20
50.6474215722
 30
0.0
 10
47.7617584226
 20
50.6982864517
 30
0.0
 10
48.0929097229
 20
50.7381339914
 30
0.0
 10
48.3186447925
 20
50.7662720187
 30
0.0
 10
48.5284467161
 20
50.7932720383
 30
0.0
 10
48.7218076432
 20
50.8188815405
 30
0.0
 10
48.8982543216
 20
50.8428467713
 30
0.0
 10
49.0573516956
 20
50.864944467
 30
0.0
 10
49.1987028087
 20
50.8849755651
 30
0.0
 10
49.3219499684
 20
50.9027379412
 30
0.0
 10
49.4131882022
 20
50.9160709433
 30
0.0
 10
49.4768972465
 20
50.9254727306
 30
0.0
 10
49.5176498049
 20
50.9315203591
 30
0.0
 10
49.5536707884
 20
50.9368918122
 30
0.0
 10
49.5849334127
 20
50.9415706786
 30
0.0
 10
49.6114172
 20
50.945544621
 30
0.0
 10
49.6304928969
 20
50.9484147251
 30
0.0
 10
49.6433542098
 20
50.9503544248
 30
0.0
 10
49.6511984636
 20
50.9515386583
 30
0.0
 10
49.6578386768
 20
50.9525442813
 30
0.0
 10
49.6632768043
 20
50.9533646435
 30
0.0
 10
49.6675031753
 20
50.9540150977
 30
0.0
 10
49.6702838615
 20
50.9544193542
 30
0.0
 10
49.6718850766
 20
50.9546886649
 30
0.0
 10
49.6726622985
 20
50.9547661661
 30
0.0
 10
49.673081236
 20
50.9549036164
 30
0.0
 10
49.6733207039
 20
50.9548647274
 30
0.0
 10
49.6733561101
 20
50.9549019608
 30
0.0
  0
SPLINE
  5
2C1
100
AcDbEntity
  8
0
100
AcDbSpline
 62
7
  6
BYLAYER
 70
0
 71
3
 72
33
 73
29
 74
0
 42
0.0000001
 43
0.0000001
 44
0.0000000001
 40
0.0
 40
0.0
 40
0.0
 40
0.0
 40
0.1957024888
 40
0.2910999411
 40
0.383603307
 40
0.4723096218
 40
0.5563915678
 40
0.6350551715
 40
0.7075870702
 40
0.7733088181
 40
0.831622336
 40
0.8819677295
 40
0.9040037292
 40
0.9238733434
 40
0.9415232264
 40
0.9569133746
 40
0.9700070418
 40
0.9807673689
 40
0.9852615007
 40
0.9891615322
 40
0.9924659359
 40
0.9951731829
 40
0.9972817437
 40
0.9987900878
 40
0.9993187002
 40
0.999696684
 40
0.9999238478
 40
1.0
 40
1.0
 40
1.0
 40
1.0
 10
41.6733561101
 20
52.3012900525
 30
0.0
 10
42.0678141596
 20
52.30129035
 30
0.0
 10
42.6546617129
 20
52.314030354
 30
0.0
 10
43.4267638431
 20
52.3557313484
 30
0.0
 10
43.9827926794
 20
52.3971763949
 30
0.0
 10
44.5151729992
 20
52.4475053451
 30
0.0
 10
45.0188099791
 20
52.5045206004
 30
0.0
 10
45.4890478322
 20
52.5660584798
 30
0.0
 10
45.9216330706
 20
52.6296552435
 30
0.0
 10
46.3127661411
 20
52.6928991719
 30
0.0
 10
46.6590054161
 20
52.7534256176
 30
0.0
 10
46.917994413
 20
52.8016121834
 30
0.0
 10
47.1005439871
 20
52.8369670241
 30
0.0
 10
47.2182975936
 20
52.8602862891
 30
0.0
 10
47.32283651
 20
52.8813754374
 30
0.0
 10
47.4139264107
 20
52.9000639774
 30
0.0
 10
47.4913657984
 20
52.9161899838
 30
0.0
 10
47.5472756931
 20
52.9279754492
 30
0.0
 10
47.5850437625
 20
52.935983838
 30
0.0
 10
47.6081072429
 20
52.9408906624
 30
0.0
 10
47.6276445436
 20
52.9450632108
 30
0.0
 10
47.6436493303
 20
52.948489265
 30
0.0
 10
47.6561092502
 20
52.9511758693
 30
0.0
 10
47.6642817592
 20
52.9529229108
 30
0.0
 10
47.6690328491
 20
52.953972692
 30
0.0
 10
47.6712766187
 20
52.9544235232
 30
0.0
 10
47.6726000223
 20
52.9547742524
 30
0.0
 10
47.6732165931
 20
52.9548430119
 30
0.0
 10
47.6733585668
 20
52.9549013504
 30
0.0
  0
SPLINE
  5
2C2
100
AcDbEntity
  8
0
100
AcDbSpline
 62
7
  6
BYLAYER
 70
0
 71
3
 72
12
 73
8
 74
0
 42
0.0000001
 43
0.0000001
 44
0.0000000001
 40
0.0
 40
0.0
 40
0.0
 40
0.0
 40
0.2447562181
 40
0.4921242496
 40
0.6179288584
 40
0.7449531596
 40
1.0
 40
1.0
 40
1.0
 40
1.0
 10
34.5846530696
 20
32.4549019608
 30
0.0
 10
34.5582203749
 20
32.4549019608
 30
0.0
 10
34.5046366075
 20
32.4641168914
 30
0.0
 10
34.4455928944
 20
32.4985998406
 30
0.0
 10
34.4085445142
 20
32.5383879557
 30
0.0
 10
34.3797773828
 20
32.5854119227
 30
0.0
 10
34.3702297619
 20
32.62735792
 30
0.0
 10
34.3702297619
 20
32.6549019608
 30
0.0
  0
SPLINE
  5
2C3
100
AcDbEntity
  8
0
100
AcDbSpline
 62
7
  6
BYLAYER
 70
0
 71
3
 72
11
 73
7
 74
0
 42
0.0000001
 43
0.0000001
 44
0.0000000001
 40
0.0
 40
0.0
 40
0.0
 40
0.0
 40
0.2501069283
 40
0.500306341
 40
0.7502908388
 40
1.0
 40
1.0
 40
1.0
 40
1.0
 10
35.1525828977
 20
32.4549019608
 30
0.0
 10
35.1249303913
 20
32.4549019608
 30
0.0
 10
35.0691664682
 20
32.4640268555
 30
0.0
 10
34.9950462981
 20
32.5050536379
 30
0.0
 10
34.9414006528
 20
32.5712905965
 30
0.0
 10
34.927967802
 20
32.6272934326
 30
0.0
 10
34.927967802
 20
32.6549019608
 30
0.0
  0
SPLINE
  5
2C4
100
AcDbEntity
  8
0
100
AcDbSpline
 62
7
  6
BYLAYER
 70
0
 71
3
 72
11
 73
7
 74
0
 42
0.0000001
 43
0.0000001
 44
0.0000000001
 40
0.0
 40
0.0
 40
0.0
 40
0.0
 40
0.2163650653
 40
0.4509224646
 40
0.7140410422
 40
1.0
 40
1.0
 40
1.0
 40
1.0
 10
39.2211205561
 20
32.4549019608
 30
0.0
 10
39.2004828767
 20
32.4549019608
 30
0.0
 10
39.1569533906
 20
32.4650196509
 30
0.0
 10
39.1019728666
 20
32.5083470321
 30
0.0
 10
39.0642529585
 20
32.5747708389
 30
0.0
 10
39.0553591683
 20
32.6276261653
 30
0.0
 10
39.0553591683
 20
32.6549019608
 30
0.0
  0
SPLINE
  5
2C5
100
AcDbEntity
  8
0
100
AcDbSpline
 62
7
  6
BYLAYER
 70
0
 71
3
 72
18
 73
14
 74
0
 42
0.0000001
 43
0.0000001
 44
0.0000000001
 40
0.0
 40
0.0
 40
0.0
 40
0.0
 40
0.2057385363
 40
0.4014917238
 40
0.5766300492
 40
0.7251732949
 40
0.8430308369
 40
0.8898658902
 40
0.9283836258
 40
0.9584957043
 40
0.9802467551
 40
0.993795259
 40
1.0
 40
1.0
 40
1.0
 40
1.0
 10
38.6303745833
 20
32.6549019608
 30
0.0
 10
38.6303745833
 20
32.6411260812
 30
0.0
 10
38.630236078
 20
32.6142426722
 30
0.0
 10
38.6296475531
 20
32.5756366219
 30
0.0
 10
38.628705457
 20
32.5408671076
 30
0.0
 10
38.6274883761
 20
32.5113289145
 30
0.0
 10
38.6262246887
 20
32.490385261
 30
0.0
 10
38.625076214
 20
32.4768349821
 30
0.0
 10
38.6242387693
 20
32.4691299514
 30
0.0
 10
38.6234284881
 20
32.4631797434
 30
0.0
 10
38.6225203225
 20
32.4587750578
 30
0.0
 10
38.6218494524
 20
32.4562992645
 30
0.0
 10
38.6209831284
 20
32.4549019608
 30
0.0
 10
38.6205676702
 20
32.4549019608
 30
0.0
  0
SPLINE
  5
2C6
100
AcDbEntity
  8
0
100
AcDbSpline
 62
7
  6
BYLAYER
 70
0
 71
3
 72
9
 73
5
 74
0
 42
0.0000001
 43
0.0000001
 44
0.0000000001
 40
0.0
 40
0.0
 40
0.0
 40
0.0
 40
0.2535648504
 40
1.0
 40
1.0
 40
1.0
 40
1.0
 10
39.4620441227
 20
39.1904394698
 30
0.0
 10
39.3470159468
 20
39.1337049042
 30
0.0
 10
38.8985504212
 20
38.8994029329
 30
0.0
 10
38.4693911221
 20
38.629732174
 30
0.0
 10
38.1565118611
 20
38.4184014921
 30
0.0
  0
SPLINE
  5
2C7
100
AcDbEntity
  8
0
100
AcDbSpline
 62
7
  6
BYLAYER
 70
0
 71
3
 72
26
 73
22
 74
0
 42
0.0000001
 43
0.0000001
 44
0.0000000001
 40
0.0
 40
0.0
 40
0.0
 40
0.0
 40
0.1906283595
 40
0.3713370188
 40
0.538902667
 40
0.6164908096
 40
0.6891526218
 40
0.7561682037
 40
0.8167842288
 40
0.870154868
 40
0.9154125521
 40
0.9347386866
 40
0.9517293949
 40
0.9662845622
 40
0.9783067701
 40
0.9877316183
 40
0.9945167469
 40
0.9969063037
 40
0.9986201951
 40
0.9996531757
 40
1.0
 40
1.0
 40
1.0
 40
1.0
 10
38.1565118611
 20
38.4184014921
 30
0.0
 10
37.8497279429
 20
38.211187839
 30
0.0
 10
37.2658790731
 20
37.7871129522
 30
0.0
 10
36.4455493128
 20
37.1369990867
 30
0.0
 10
35.8114944177
 20
36.6058631083
 30
0.0
 10
35.3439566831
 20
36.202923013
 30
0.0
 10
35.0263796419
 20
35.9251098797
 30
0.0
 10
34.7352243507
 20
35.6671684855
 30
0.0
 10
34.4732654153
 20
35.4327752782
 30
0.0
 10
34.2436578786
 20
35.2255993695
 30
0.0
 10
34.0740777505
 20
35.0715966795
 30
0.0
 10
33.957011535
 20
34.9648600059
 30
0.0
 10
33.8840819037
 20
34.8982130262
 30
0.0
 10
33.8216794643
 20
34.8410733135
 30
0.0
 10
33.7701423277
 20
34.793824764
 30
0.0
 10
33.7297537797
 20
34.7567456591
 30
0.0
 10
33.70314421
 20
34.732318526
 30
0.0
 10
33.6875936127
 20
34.7179896789
 30
0.0
 10
33.6802285809
 20
34.7112609512
 30
0.0
 10
33.6758514266
 20
34.7071468288
 30
0.0
 10
33.6738355517
 20
34.7053782186
 30
0.0
 10
33.6733588818
 20
34.7049023502
 30
0.0
  0
SPLINE
  5
2C8
100
AcDbEntity
  8
0
100
AcDbSpline
 62
7
  6
BYLAYER
 70
0
 71
3
 72
9
 73
5
 74
0
 42
0.0000001
 43
0.0000001
 44
0.0000000001
 40
0.0
 40
0.0
 40
0.0
 40
0.0
 40
0.5039293207
 40
1.0
 40
1.0
 40
1.0
 40
1.0
 10
41.6733549321
 20
40.3493528726
 30
0.0
 10
41.3041176977
 20
40.150488308
 30
0.0
 10
40.571409048
 20
39.7558751473
 30
0.0
 10
39.8322596523
 20
39.3731448516
 30
0.0
 10
39.4620521515
 20
39.1904244989
 30
0.0
  0
SPLINE
  5
2C9
100
AcDbEntity
  8
0
100
AcDbSpline
 62
7
  6
BYLAYER
 70
0
 71
3
 72
14
 73
10
 74
0
 42
0.0000001
 43
0.0000001
 44
0.0000000001
 40
0.0
 40
0.0
 40
0.0
 40
0.0
 40
0.0882500907
 40
0.182389866
 40
0.2867434705
 40
0.4041423943
 40
0.5360847876
 40
0.6817074571
 40
1.0
 40
1.0
 40
1.0
 40
1.0
 10
41.0567618399
 20
32.4549019608
 30
0.0
 10
41.0492515576
 20
32.4549019608
 30
0.0
 10
41.0336431738
 20
32.4573776719
 30
0.0
 10
41.0114212345
 20
32.4681530169
 30
0.0
 10
40.9907914979
 20
32.4857715964
 30
0.0
 10
40.9723911481
 20
32.5098226865
 30
0.0
 10
40.9569306817
 20
32.5398435554
 30
0.0
 10
40.94069424
 20
32.5880201916
 30
0.0
 10
40.9359612615
 20
32.6278145454
 30
0.0
 10
40.9359612615
 20
32.6549019608
 30
0.0
  0
SPLINE
  5
2CA
100
AcDbEntity
  8
0
100
AcDbSpline
 62
7
  6
BYLAYER
 70
0
 71
3
 72
15
 73
11
 74
0
 42
0.0000001
 43
0.0000001
 44
0.0000000001
 40
0.0
 40
0.0
 40
0.0
 40
0.0
 40
0.1854817856
 40
0.3628589373
 40
0.5234599941
 40
0.6628203835
 40
0.7784541257
 40
0.8706239647
 40
0.9420176292
 40
1.0
 40
1.0
 40
1.0
 40
1.0
 10
40.4798966252
 20
32.6549019608
 30
0.0
 10
40.4798966252
 20
32.6411175568
 30
0.0
 10
40.4789366175
 20
32.6141425039
 30
0.0
 10
40.4748563571
 20
32.5754208289
 30
0.0
 10
40.4683106799
 20
32.5405109107
 30
0.0
 10
40.4598184334
 20
32.5107599405
 30
0.0
 10
40.4497761689
 20
32.4868997524
 30
0.0
 10
40.438553043
 20
32.4692933595
 30
0.0
 10
40.4262513477
 20
32.4579040122
 30
0.0
 10
40.4165982341
 20
32.4549019608
 30
0.0
 10
40.4122891726
 20
32.4549019608
 30
0.0
  0
SPLINE
  5
2CB
100
AcDbEntity
  8
0
100
AcDbSpline
 62
7
  6
BYLAYER
 70
0
 71
3
 72
15
 73
11
 74
0
 42
0.0000001
 43
0.0000001
 44
0.0000000001
 40
0.0
 40
0.0
 40
0.0
 40
0.0
 40
0.0579695135
 40
0.1293425285
 40
0.2215119821
 40
0.3371711634
 40
0.4766180935
 40
0.6372629688
 40
0.8145563996
 40
1.0
 40
1.0
 40
1.0
 40
1.0
 10
42.9344230043
 20
32.4549019608
 30
0.0
 10
42.9301148782
 20
32.4549019608
 30
0.0
 10
42.9204633941
 20
32.4578998863
 30
0.0
 10
42.9081629645
 20
32.4692879564
 30
0.0
 10
42.8969389493
 20
32.4868938347
 30
0.0
 10
42.8868912803
 20
32.5107612091
 30
0.0
 10
42.8784011861
 20
32.5405250873
 30
0.0
 10
42.8718537843
 20
32.5754381071
 30
0.0
 10
42.8677711494
 20
32.6141540596
 30
0.0
 10
42.866815595
 20
32.6411203304
 30
0.0
 10
42.866815595
 20
32.6549019608
 30
0.0
  0
SPLINE
  5
2CC
100
AcDbEntity
  8
0
100
AcDbSpline
 62
7
  6
BYLAYER
 70
0
 71
3
 72
15
 73
11
 74
0
 42
0.0000001
 43
0.0000001
 44
0.0000000001
 40
0.0
 40
0.0
 40
0.0
 40
0.0
 40
0.1620941452
 40
0.3188412761
 40
0.4643300675
 40
0.5961115058
 40
0.7134052726
 40
0.8176879627
 40
0.9117906052
 40
1.0
 40
1.0
 40
1.0
 40
1.0
 10
42.4107509588
 20
32.6549019608
 30
0.0
 10
42.4107509588
 20
32.6410984832
 30
0.0
 10
42.409015225
 20
32.6139197737
 30
0.0
 10
42.4016353637
 20
32.5749641108
 30
0.0
 10
42.3897751484
 20
32.5398238356
 30
0.0
 10
42.3743187286
 20
32.5098242567
 30
0.0
 10
42.3559259588
 20
32.4857772496
 30
0.0
 10
42.3352976326
 20
32.4681584128
 30
0.0
 10
42.3130733272
 20
32.4573814485
 30
0.0
 10
42.2974619647
 20
32.4549019608
 30
0.0
 10
42.2899503028
 20
32.4549019608
 30
0.0
  0
SPLINE
  5
2CD
100
AcDbEntity
  8
0
100
AcDbSpline
 62
7
  6
BYLAYER
 70
0
 71
3
 72
18
 73
14
 74
0
 42
0.0000001
 43
0.0000001
 44
0.0000000001
 40
0.0
 40
0.0
 40
0.0
 40
0.0
 40
0.0062012691
 40
0.0197395841
 40
0.0414792068
 40
0.0715836878
 40
0.1100997164
 40
0.1569332179
 40
0.2748148218
 40
0.4234549837
 40
0.5986418779
 40
0.7943027245
 40
1.0
 40
1.0
 40
1.0
 40
1.0
 10
44.7261445438
 20
32.4549019608
 30
0.0
 10
44.7257293174
 20
32.4549019608
 30
0.0
 10
44.7248628115
 20
32.4562974422
 30
0.0
 10
44.7241921989
 20
32.4587721784
 30
0.0
 10
44.7232841589
 20
32.4631746059
 30
0.0
 10
44.722474111
 20
32.4691235704
 30
0.0
 10
44.7216367249
 20
32.4768278461
 30
0.0
 10
44.7204878163
 20
32.490379523
 30
0.0
 10
44.7192234714
 20
32.5113311771
 30
0.0
 10
44.718006729
 20
32.5408807943
 30
0.0
 10
44.7170643604
 20
32.5756539053
 30
0.0
 10
44.716475497
 20
32.6142543176
 30
0.0
 10
44.7163376369
 20
32.6411288236
 30
0.0
 10
44.7163376369
 20
32.6549019608
 30
0.0
  0
SPLINE
  5
2CE
100
AcDbEntity
  8
0
100
AcDbSpline
 62
7
  6
BYLAYER
 70
0
 71
3
 72
11
 73
7
 74
0
 42
0.0000001
 43
0.0000001
 44
0.0000000001
 40
0.0
 40
0.0
 40
0.0
 40
0.0
 40
0.2860570519
 40
0.5490697178
 40
0.7835890621
 40
1.0
 40
1.0
 40
1.0
 40
1.0
 10
44.2913530519
 20
32.6549019608
 30
0.0
 10
44.2913530519
 20
32.6276168661
 30
0.0
 10
44.2824574134
 20
32.5747613743
 30
0.0
 10
44.2447335739
 20
32.5083465884
 30
0.0
 10
44.1897636155
 20
32.4650238612
 30
0.0
 10
44.1462335692
 20
32.4549019608
 30
0.0
 10
44.1255915578
 20
32.4549019608
 30
0.0
  0
SPLINE
  5
2CF
100
AcDbEntity
  8
0
100
AcDbSpline
 62
7
  6
BYLAYER
 70
0
 71
3
 72
40
 73
36
 74
0
 42
0.0000001
 43
0.0000001
 44
0.0000000001
 40
0.0
 40
0.0
 40
0.0
 40
0.0
 40
0.0000434734
 40
0.0000851524
 40
0.0001644527
 40
0.0002886646
 40
0.0004590851
 40
0.0006759243
 40
0.0012482581
 40
0.0020036332
 40
0.0029393319
 40
0.004052445
 40
0.0053399904
 40
0.0084263296
 40
0.0121742343
 40
0.0165608169
 40
0.0215749916
 40
0.0334696127
 40
0.0478251279
 40
0.0646074829
 40
0.0837478667
 40
0.1051332231
 40
0.1286476048
 40
0.1541767212
 40
0.1816203914
 40
0.2418781124
 40
0.308638911
 40
0.3811011003
 40
0.4585972974
 40
0.5405384801
 40
0.6264043502
 40
0.7157026034
 40
0.8079666657
 40
0.9028156135
 40
1.0
 40
1.0
 40
1.0
 40
1.0
 10
33.4233561101
 20
34.9549019608
 30
0.0
 10
33.4232759082
 20
34.9549019608
 30
0.0
 10
33.4230727524
 20
34.9549380116
 30
0.0
 10
33.423122418
 20
34.9553047233
 30
0.0
 10
33.4233768935
 20
34.9556571096
 30
0.0
 10
33.4238105471
 20
34.9562059702
 30
0.0
 10
33.4244612106
 20
34.9568853931
 30
0.0
 10
33.4257243016
 20
34.9581283426
 30
0.0
 10
33.4278349452
 20
34.9600422836
 30
0.0
 10
33.4309824895
 20
34.962786788
 30
0.0
 10
33.4349228051
 20
34.9661389143
 30
0.0
 10
33.4396346063
 20
34.9700992761
 30
0.0
 10
33.4474031712
 20
34.9765891212
 30
0.0
 10
33.45891181
 20
34.9861837135
 30
0.0
 10
33.4747638231
 20
34.9994968247
 30
0.0
 10
33.4932350154
 20
35.015220707
 30
0.0
 10
33.523021429
 20
35.0408376503
 30
0.0
 10
33.5665926073
 20
35.078630707
 30
0.0
 10
33.6265245923
 20
35.1306949493
 30
0.0
 10
33.6966650564
 20
35.1913907822
 30
0.0
 10
33.7767884452
 20
35.2603690722
 30
0.0
 10
33.8664505605
 20
35.3373029518
 30
0.0
 10
33.9651708866
 20
35.4217795089
 30
0.0
 10
34.0724713509
 20
35.5134196207
 30
0.0
 10
34.2315113164
 20
35.6488550132
 30
0.0
 10
34.4490802773
 20
35.8328833609
 30
0.0
 10
34.7312718829
 20
36.0691073863
 30
0.0
 10
35.0390510727
 20
36.324303518
 30
0.0
 10
35.3701232432
 20
36.5952726475
 30
0.0
 10
35.7226629458
 20
36.8790354321
 30
0.0
 10
36.0954204045
 20
37.172367346
 30
0.0
 10
36.4870786567
 20
37.4724111985
 30
0.0
 10
36.8959014152
 20
37.7772346367
 30
0.0
 10
37.3213692255
 20
38.0839784595
 30
0.0
 10
37.6134110549
 20
38.2846167986
 30
0.0
 10
37.7626506975
 20
38.383978076
 30
0.0
  0
SPLINE
  5
2D0
100
AcDbEntity
  8
0
100
AcDbSpline
 62
7
  6
BYLAYER
 70
0
 71
3
 72
10
 73
6
 74
0
 42
0.0000001
 43
0.0000001
 44
0.0000000001
 40
0.0
 40
0.0
 40
0.0
 40
0.0
 40
0.2446070957
 40
0.4931559641
 40
1.0
 40
1.0
 40
1.0
 40
1.0
 10
37.7626506975
 20
38.383978076
 30
0.0
 10
37.8903028466
 20
38.4689667585
 30
0.0
 10
38.1498682421
 20
38.6370620629
 30
0.0
 10
38.6868259838
 20
38.9608339181
 30
0.0
 10
39.1061518817
 20
39.1823641432
 30
0.0
 10
39.3929493263
 20
39.3191931781
 30
0.0
  0
SPLINE
  5
2D1
100
AcDbEntity
  8
0
100
AcDbSpline
 62
7
  6
BYLAYER
 70
0
 71
3
 72
9
 73
5
 74
0
 42
0.0000001
 43
0.0000001
 44
0.0000000001
 40
0.0
 40
0.0
 40
0.0
 40
0.0
 40
0.4948684162
 40
1.0
 40
1.0
 40
1.0
 40
1.0
 10
39.4620519925
 20
39.1904237814
 30
0.0
 10
39.4522981354
 20
39.2124892035
 30
0.0
 10
39.430861307
 20
39.2563188509
 30
0.0
 10
39.4063905713
 20
39.2985636585
 30
0.0
 10
39.3929492018
 20
39.3191971694
 30
0.0
  0
SPLINE
  5
2D2
100
AcDbEntity
  8
0
100
AcDbSpline
 62
7
  6
BYLAYER
 70
0
 71
3
 72
11
 73
7
 74
0
 42
0.0000001
 43
0.0000001
 44
0.0000000001
 40
0.0
 40
0.0
 40
0.0
 40
0.0
 40
0.2497984991
 40
0.4996860173
 40
0.7498425247
 40
1.0
 40
1.0
 40
1.0
 40
1.0
 10
48.4187444183
 20
32.6549019608
 30
0.0
 10
48.4187444183
 20
32.6272836179
 30
0.0
 10
48.4053071585
 20
32.5712809145
 30
0.0
 10
48.3516611385
 20
32.5050546041
 30
0.0
 10
48.2775520626
 20
32.4640310531
 30
0.0
 10
48.2217874896
 20
32.4549019608
 30
0.0
 10
48.1941294574
 20
32.4549019608
 30
0.0
  0
SPLINE
  5
2D3
100
AcDbEntity
  8
0
100
AcDbSpline
 62
7
  6
BYLAYER
 70
0
 71
3
 72
10
 73
6
 74
0
 42
0.0000001
 43
0.0000001
 44
0.0000000001
 40
0.0
 40
0.0
 40
0.0
 40
0.0
 40
0.2470747386
 40
0.4967016757
 40
1.0
 40
1.0
 40
1.0
 40
1.0
 10
39.3929493263
 20
39.3191931781
 30
0.0
 10
39.5825934859
 20
39.3998740162
 30
0.0
 10
39.9623997682
 20
39.5654624113
 30
0.0
 10
40.7229295061
 20
39.9080835266
 30
0.0
 10
41.2925696574
 20
40.1725790774
 30
0.0
 10
41.6733561101
 20
40.3493506853
 30
0.0
  0
SPLINE
  5
2D4
100
AcDbEntity
  8
0
100
AcDbSpline
 62
7
  6
BYLAYER
 70
0
 71
3
 72
12
 73
8
 74
0
 42
0.0000001
 43
0.0000001
 44
0.0000000001
 40
0.0
 40
0.0
 40
0.0
 40
0.0
 40
0.2551372527
 40
0.3821267726
 40
0.5078690133
 40
0.755194542
 40
1.0
 40
1.0
 40
1.0
 40
1.0
 10
48.9764824583
 20
32.6549019608
 30
0.0
 10
48.9764824583
 20
32.6273481706
 30
0.0
 10
48.9669259386
 20
32.5853982798
 30
0.0
 10
48.9381646236
 20
32.5383713461
 30
0.0
 10
48.9011145129
 20
32.4986052809
 30
0.0
 10
48.8420829752
 20
32.4641200662
 30
0.0
 10
48.7884972775
 20
32.4549019608
 30
0.0
 10
48.7620592794
 20
32.4549019608
 30
0.0
  0
ELLIPSE
  5
2D5
100
AcDbEntity
  8
0
100
AcDbEllipse
 62
7
  6
BYLAYER
 10
18.3233561101
 20
43.9549019608
 30
0.0
 11
20.4047686873
 21
4.0147354537
 31
0.0
 40
0.2987966333
 41
4.6194136361
 42
4.6203850136
  0
ELLIPSE
  5
2D6
100
AcDbEntity
  8
0
100
AcDbEllipse
 62
7
  6
BYLAYER
 10
18.3233561101
 20
43.9549019608
 30
0.0
 11
20.4047686873
 21
-4.0147354537
 31
0.0
 40
0.2987966333
 41
7.9459875797
 42
7.9469569783
  0
ENDSEC
  0
SECTION
  2
OBJECTS
  0
DICTIONARY
  5
C
100
AcDbDictionary
280
0
281
1
  3
ACAD_GROUP
350
D
  3
ACAD_MLINESTYLE
350
17
  3
ACAD_LAYOUT
350
1A
  3
ACAD_PLOTSETTINGS
350
19
  3
ACAD_PLOTSTYLENAME
350
E
  0
DICTIONARY
  5
D
102
{ACAD_REACTORS
330
C
102
}
100
AcDbDictionary
280
0
281
1
  0
ACDBDICTIONARYWDFLT
  5
E
102
{ACAD_REACTORS
330
C
102
}
100
AcDbDictionary
281
1
  3
Normal
350
F
100
AcDbDictionaryWithDefault
340
F
  0
DICTIONARY
  5
17
102
{ACAD_REACTORS
330
C
102
}
100
AcDbDictionary
280
0
281
1
  3
Standard
350
18
  0
DICTIONARY
  5
19
102
{ACAD_REACTORS
330
C
102
}
100
AcDbDictionary
281
1
  0
DICTIONARY
  5
1A
102
{ACAD_REACTORS
330
C
102
}
100
AcDbDictionary
281
1
  3
Model
350
2D7
  3
Layout1
350
2D8
  0
ACDBPLACEHOLDER
  5
F
102
{ACAD_REACTORS
330
E
102
}
  0
MLINESTYLE
  5
18
102
{ACAD_REACTORS
330
17
102
}
100
AcDbMlineStyle
  2
STANDARD
 70
0
  3

 62
256
 51
90.0
 52
90.0
 71
2
 49
0.5
 62
256
  6
BYLAYER
 49
-0.5
 62
256
  6
BYLAYER
  0
LAYOUT
  5
2D7
102
{ACAD_REACTORS
330
1A
102
}
100
AcDbPlotSettings
  1

  2
none_device
  4

  6

 40
0.0
 41
0.0
 42
0.0
 43
0.0
 44
210.0
 45
297.0
 46
0.0
 47
0.0
 48
0.0
 49
0.0
140
0.0
141
0.0
142
1.0
143
1.0
 70
1024
 72
1
 73
0
 74
0
  7

 75
0
147
1.0
148
0.0
149
0.0
100
AcDbLayout
  1
Model
 70
0
 71
0
 10
0.0
 20
0.0
 11
210.0
 21
297.0
 12
0.0
 22
0.0
 32
0.0
 14
0.0
 24
0.0
 34
0.0
 15
0.0
 25
0.0
 35
0.0
146
0.0
 13
0.0
 23
0.0
 33
0.0
 16
1.0
 26
0.0
 36
0.0
 17
0.0
 27
1.0
 37
0.0
 76
0
330
210
345
0
346
0
  0
LAYOUT
  5
2D8
102
{ACAD_REACTORS
330
1A
102
}
100
AcDbPlotSettings
  1

  2
none_device
  4

  6

 40
0.0
 41
0.0
 42
0.0
 43
0.0
 44
210.0
 45
297.0
 46
0.0
 47
0.0
 48
0.0
 49
0.0
140
0.0
141
0.0
142
1.0
143
1.0
 70
0
 72
1
 73
0
 74
0
  7

 75
0
147
1.0
148
0.0
149
0.0
100
AcDbLayout
  1
Layout1
 70
0
 71
1
 10
0.0
 20
0.0
 11
210.0
 21
297.0
 12
0.0
 22
0.0
 32
0.0
 14
0.0
 24
0.0
 34
0.0
 15
0.0
 25
0.0
 35
0.0
146
0.0
 13
0.0
 23
0.0
 33
0.0
 16
1.0
 26
0.0
 36
0.0
 17
0.0
 27
1.0
 37
0.0
 76
0
330
211
345
0
346
0
  0
ENDSEC
  0
EOF
