999
DXF file: C:\Users\sesa63760\Dev\_Creo\CAD\MCADID0004750_3D-CAD\drw0001_6.dxf
999
Pro/ENGINEER 2019471 by Parametric Technology Corporation
  0
SECTION
  2
HEADER
  9
$ACADVER
  1
AC1024
  9
$DWGCODEPAGE
  3
ANSI_1252
  9
$EXTMAX
 10
24.1404514352
 20
34.1414956012
 30
0.0
  9
$EXTMIN
 10
0.0
 20
0.0
 30
0.0
  9
$LIMMIN
 10
0.0
 20
0.0
  9
$LIMMAX
 10
24.1404514352
 20
34.1414956012
  9
$VIEWCTR
 10
12.0702257176
 20
17.0707478006
  9
$VIEWSIZE
 40
34.1414956012
  9
$CLAYER
  8
0
  9
$LTSCALE
 40
2.2255197133
  9
$CELTYPE
  6
BYLAYER
  9
$DIMSCALE
 40
1.0
  9
$DIMASZ
 40
0.2873863266
  9
$DIMEXO
 40
1.0
  9
$DIMDLI
 40
1.5376318019
  9
$DIMEXE
 40
1.0
  9
$DIMCEN
 40
0.3641759531
  9
$DIMLFAC
 40
1.0
  9
$DIMBLK
  1
_FILLED
  9
$DIMALT
 70
0
  9
$DIMALTF
 40
0.0393700787
  9
$DIMTXT
 40
0.4023408573
  9
$DIMTOL
 70
1
  9
$DIMLIM
 70
0
  9
$DIMTFAC
 40
1.0
  9
$DIMTP
 40
0.01
  9
$DIMTM
 40
0.01
  9
$DIMGAP
 40
0.625
  9
$DIMDSEP
 70
46
  9
$AUNITS
 70
0
  9
$PDMODE
 70
3
  9
$PDSIZE
 40
0.3125
  9
$HANDSEED
  5
2EF
  9
$TILEMODE
 70
1
  9
$MEASUREMENT
 70
1
  9
$INSUNITS
 70
4
  0
ENDSEC
  0
SECTION
  2
CLASSES
  0
CLASS
  1
ACDBDICTIONARYWDFLT
  2
AcDbDictionaryWithDefault
  3
AutoCAD 2000
 90
0
 91
1
280
0
281
0
  0
CLASS
  1
ACDBPLACEHOLDER
  2
AcDbPlaceHolder
  3
AutoCAD 2000
 90
0
 91
1
280
0
281
0
  0
CLASS
  1
LAYOUT
  2
AcDbLayout
  3
AutoCAD 2000
 90
0
 91
0
280
0
281
0
  0
ENDSEC
  0
SECTION
  2
TABLES
  0
TABLE
  2
VPORT
  5
8
100
AcDbSymbolTable
 70
2
  0
VPORT
  5
1F4
100
AcDbSymbolTableRecord
100
AcDbViewportTableRecord
  2
*ACTIVE
 70
0
 10
0.0
 20
0.0
 11
1.0
 21
1.0
 12
12.0702257176
 22
17.0707478006
 13
0.0
 23
0.0
 14
1.0
 24
1.0
 15
0.0
 25
0.0
 16
0.0
 26
0.0
 36
1.0
 17
0.0
 27
0.0
 37
0.0
 40
34.1414956012
 41
0.7070707071
 42
50.0
 43
0.0
 44
0.0
 50
0.0
 51
0.0
 71
0
 72
100
 73
1
 74
1
 75
0
 76
0
 77
0
 78
0
  0
ENDTAB
  0
TABLE
  2
LTYPE
  5
5
100
AcDbSymbolTable
 70
6
  0
LTYPE
  5
14
100
AcDbSymbolTableRecord
100
AcDbLinetypeTableRecord
  2
BYBLOCK
 70
0
  3

 72
65
 73
0
 40
0.0
  0
LTYPE
  5
15
100
AcDbSymbolTableRecord
100
AcDbLinetypeTableRecord
  2
BYLAYER
 70
0
  3

 72
65
 73
0
 40
0.0
  0
LTYPE
  5
16
100
AcDbSymbolTableRecord
100
AcDbLinetypeTableRecord
  2
CONTINUOUS
 70
64
  3
Solid line
 72
65
 73
0
 40
0.0
  0
LTYPE
  5
1F5
100
AcDbSymbolTableRecord
100
AcDbLinetypeTableRecord
  2
CENTER
 70
64
  3
____ _ ____ _ ____ _ ____ _ ____ _ ____ _ ____
 72
65
 73
4
 40
0.6
 49
0.375
 74
0
 49
-0.075
 74
0
 49
0.075
 74
0
 49
-0.075
 74
0
  0
LTYPE
  5
1F6
100
AcDbSymbolTableRecord
100
AcDbLinetypeTableRecord
  2
HIDDEN
 70
64
  3
- - - - - - - - - - - - - - - - - - - -
 72
65
 73
2
 40
0.2
 49
0.1
 74
0
 49
-0.1
 74
0
  0
LTYPE
  5
1F7
100
AcDbSymbolTableRecord
100
AcDbLinetypeTableRecord
  2
PHANTOM
 70
64
  3
_____ _ _ _____ _ _ _____ _ _ _____
 72
65
 73
6
 40
0.8
 49
0.45
 74
0
 49
-0.05
 74
0
 49
0.1
 74
0
 49
-0.05
 74
0
 49
0.1
 74
0
 49
-0.05
 74
0
  0
LTYPE
  5
1F8
100
AcDbSymbolTableRecord
100
AcDbLinetypeTableRecord
  2
DOT
 70
64
  3
. . . . . . . . . . . . . . . . . . . .
 72
65
 73
2
 40
0.2
 49
0.1
 74
0
 49
-0.1
 74
0
  0
LTYPE
  5
1F9
100
AcDbSymbolTableRecord
100
AcDbLinetypeTableRecord
  2
DASHED
 70
64
  3
- - - - - - - - - - - - - - - - - - - -
 72
65
 73
2
 40
0.2
 49
0.1
 74
0
 49
-0.1
 74
0
  0
ENDTAB
  0
TABLE
  2
LAYER
  5
2
100
AcDbSymbolTable
 70
36
  0
LAYER
  5
10
100
AcDbSymbolTableRecord
100
AcDbLayerTableRecord
  2
0
 70
0
 62
7
  6
CONTINUOUS
370
-3
390
F
  0
LAYER
  5
1FA
100
AcDbSymbolTableRecord
100
AcDbLayerTableRecord
  2
DEFAULT_1
 70
0
 62
7
  6
CENTER
370
-3
390
F
  0
LAYER
  5
1FB
100
AcDbSymbolTableRecord
100
AcDbLayerTableRecord
  2
DEFAULT_2
 70
0
 62
7
  6
HIDDEN
370
-3
390
F
  0
LAYER
  5
1FC
100
AcDbSymbolTableRecord
100
AcDbLayerTableRecord
  2
DEFAULT_3
 70
0
 62
7
  6
PHANTOM
370
-3
390
F
  0
LAYER
  5
1FD
100
AcDbSymbolTableRecord
100
AcDbLayerTableRecord
  2
00_COMPONENTS
 70
0
 62
7
  6
CONTINUOUS
370
-3
390
F
  0
LAYER
  5
1FE
100
AcDbSymbolTableRecord
100
AcDbLayerTableRecord
  2
01_1_DEFAULT_DATUMS
 70
0
 62
7
  6
CONTINUOUS
370
-3
390
F
  0
LAYER
  5
1FF
100
AcDbSymbolTableRecord
100
AcDbLayerTableRecord
  2
01_PLANES
 70
0
 62
7
  6
CONTINUOUS
370
-3
390
F
  0
LAYER
  5
200
100
AcDbSymbolTableRecord
100
AcDbLayerTableRecord
  2
02_COORD_SYS
 70
0
 62
7
  6
CONTINUOUS
370
-3
390
F
  0
LAYER
  5
201
100
AcDbSymbolTableRecord
100
AcDbLayerTableRecord
  2
03_AXES
 70
0
 62
7
  6
CONTINUOUS
370
-3
390
F
  0
LAYER
  5
202
100
AcDbSymbolTableRecord
100
AcDbLayerTableRecord
  2
04_POINTS
 70
0
 62
7
  6
CONTINUOUS
370
-3
390
F
  0
LAYER
  5
203
100
AcDbSymbolTableRecord
100
AcDbLayerTableRecord
  2
05_CURVES
 70
0
 62
7
  6
CONTINUOUS
370
-3
390
F
  0
LAYER
  5
204
100
AcDbSymbolTableRecord
100
AcDbLayerTableRecord
  2
06_SURFS
 70
0
 62
7
  6
CONTINUOUS
370
-3
390
F
  0
LAYER
  5
205
100
AcDbSymbolTableRecord
100
AcDbLayerTableRecord
  2
07_COSMETICS
 70
0
 62
7
  6
CONTINUOUS
370
-3
390
F
  0
LAYER
  5
206
100
AcDbSymbolTableRecord
100
AcDbLayerTableRecord
  2
10_NOTES
 70
0
 62
7
  6
CONTINUOUS
370
-3
390
F
  0
LAYER
  5
207
100
AcDbSymbolTableRecord
100
AcDbLayerTableRecord
  2
11_NOTES_PUB
 70
0
 62
7
  6
CONTINUOUS
370
-3
390
F
  0
LAYER
  5
208
100
AcDbSymbolTableRecord
100
AcDbLayerTableRecord
  2
13_REF_GTOL
 70
0
 62
7
  6
CONTINUOUS
370
-3
390
F
  0
LAYER
  5
209
100
AcDbSymbolTableRecord
100
AcDbLayerTableRecord
  2
16_MISC
 70
0
 62
7
  6
CONTINUOUS
370
-3
390
F
  0
LAYER
  5
20A
100
AcDbSymbolTableRecord
100
AcDbLayerTableRecord
  2
17_NO_PRINT
 70
0
 62
7
  6
CONTINUOUS
370
-3
390
F
  0
LAYER
  5
20B
100
AcDbSymbolTableRecord
100
AcDbLayerTableRecord
  2
18_DATUM_CAMS_JOINTS
 70
0
 62
7
  6
CONTINUOUS
370
-3
390
F
  0
LAYER
  5
20C
100
AcDbSymbolTableRecord
100
AcDbLayerTableRecord
  2
19_DATUM_FUNCTIONAL
 70
0
 62
7
  6
CONTINUOUS
370
-3
390
F
  0
LAYER
  5
20D
100
AcDbSymbolTableRecord
100
AcDbLayerTableRecord
  2
20_DATUM_KINEMATIC_SCHEME
 70
0
 62
7
  6
CONTINUOUS
370
-3
390
F
  0
ENDTAB
  0
TABLE
  2
STYLE
  5
3
100
AcDbSymbolTable
 70
1
  0
STYLE
  5
11
100
AcDbSymbolTableRecord
100
AcDbTextStyleTableRecord
  2
STANDARD
 70
0
 40
0.0
 41
1.0
 50
0.0
 71
0
 42
0.2
  3
ARIAL.TTF
  4

  0
STYLE
  5
20E
100
AcDbSymbolTableRecord
100
AcDbTextStyleTableRecord
  2
TEXTSTYLE_1
 70
0
 40
0.0
 41
0.8
 50
0.0
 71
0
 42
0.2
  3
gdt
  4

  0
ENDTAB
  0
TABLE
  2
VIEW
  5
6
100
AcDbSymbolTable
 70
0
  0
ENDTAB
  0
TABLE
  2
UCS
  5
7
100
AcDbSymbolTable
 70
0
  0
ENDTAB
  0
TABLE
  2
APPID
  5
9
100
AcDbSymbolTable
 70
1
  0
APPID
  5
20F
100
AcDbSymbolTableRecord
100
AcDbRegAppTableRecord
  2
ACAD
 70
0
  0
ENDTAB
  0
TABLE
  2
BLOCK_RECORD
  5
1
100
AcDbSymbolTable
 70
0
  0
BLOCK_RECORD
  5
210
100
AcDbSymbolTableRecord
100
AcDbBlockTableRecord
  2
*Model_Space
  0
BLOCK_RECORD
  5
211
100
AcDbSymbolTableRecord
100
AcDbBlockTableRecord
  2
*Paper_Space
  0
BLOCK_RECORD
  5
212
100
AcDbSymbolTableRecord
100
AcDbBlockTableRecord
  2
_FILLED
  0
ENDTAB
  0
TABLE
  2
DIMSTYLE
  5
A
100
AcDbSymbolTable
 70
1
100
AcDbDimStyleTable
 71
0
  0
DIMSTYLE
105
213
100
AcDbSymbolTableRecord
100
AcDbDimStyleTableRecord
  2
STANDARD
 70
0
  3

  4

 40
1.0
 41
0.2873863266
 42
1.0
 43
0.38
 44
1.0
 45
0.0
 46
0.0
 47
0.01
 48
0.01
140
0.4023408573
141
0.09
142
0.0
143
25.4
144
1.0
145
0.0
146
1.0
147
0.625
 71
1
 72
0
 73
0
 74
0
 75
0
 76
0
 77
1
 78
8
 79
2
170
0
171
1
172
0
173
0
174
0
175
0
176
0
177
0
178
0
270
2
179
2
271
2
272
2
273
2
274
2
275
0
280
0
281
0
282
0
283
1
284
8
285
0
286
0
287
3
288
0
340
11
278
46
341
212
342
212
343
212
344
212
  0
ENDTAB
  0
ENDSEC
  0
SECTION
  2
BLOCKS
  0
BLOCK
  5
20
100
AcDbEntity
  8
0
100
AcDbBlockBegin
  2
*Model_Space
 70
0
 10
0.0
 20
0.0
 30
0.0
  3
*Model_Space
  1

  0
ENDBLK
  5
21
100
AcDbEntity
  8
0
100
AcDbBlockEnd
  0
BLOCK
  5
1C
100
AcDbEntity
  8
0
100
AcDbBlockBegin
  2
*Paper_Space
 70
0
 10
0.0
 20
0.0
 30
0.0
  3
*Paper_Space
  1

  0
ENDBLK
  5
1D
100
AcDbEntity
  8
0
100
AcDbBlockEnd
  0
BLOCK
  5
214
100
AcDbEntity
  8
0
100
AcDbBlockBegin
  2
_FILLED
 70
64
 10
0.0
 20
0.0
  3
_FILLED
  1

  0
SOLID
  5
215
100
AcDbEntity
  8
0
  6
BYBLOCK
 62
0
100
AcDbTrace
 10
0.0
 20
0.0
 11
-1.0
 21
0.25
 12
-1.0
 22
-0.25
 13
-1.0
 23
-0.25
  0
ENDBLK
  5
216
100
AcDbEntity
  8
0
  6
BYBLOCK
 62
0
100
AcDbBlockEnd
  0
ENDSEC
  0
SECTION
  2
ENTITIES
  0
LINE
  5
217
100
AcDbEntity
  8
0
100
AcDbLine
 62
7
  6
BYLAYER
 10
6.7791757217
 20
2.8207478006
 11
17.7791642758
 21
2.8207478006
  0
LINE
  5
218
100
AcDbEntity
  8
0
100
AcDbLine
 62
7
  6
BYLAYER
 10
17.9291699988
 20
3.0707478006
 11
6.6291699988
 21
3.0707478006
  0
LINE
  5
219
100
AcDbEntity
  8
0
100
AcDbLine
 62
7
  6
BYLAYER
 10
9.4041699993
 20
4.4707478006
 11
15.1541699986
 21
4.4707478006
  0
LINE
  5
21A
100
AcDbEntity
  8
0
100
AcDbLine
 62
7
  6
BYLAYER
 10
9.5291699987
 20
4.7207478006
 11
15.0291699989
 21
4.7207478006
  0
LINE
  5
21B
100
AcDbEntity
  8
0
100
AcDbLine
 62
7
  6
BYLAYER
 10
8.8814427254
 20
4.9707488324
 11
9.2791699988
 21
4.9707432424
  0
LINE
  5
21C
100
AcDbEntity
  8
0
100
AcDbLine
 62
7
  6
BYLAYER
 10
15.6768972722
 20
4.9707478088
 11
15.2791699988
 21
4.9707478088
  0
LINE
  5
21D
100
AcDbEntity
  8
0
100
AcDbLine
 62
7
  6
BYLAYER
 10
8.8814427254
 20
6.1707477923
 11
9.2791699988
 21
6.1707477923
  0
LINE
  5
21E
100
AcDbEntity
  8
0
100
AcDbLine
 62
7
  6
BYLAYER
 10
15.6768972722
 20
6.1707548309
 11
15.2791699988
 21
6.1707562551
  0
LINE
  5
21F
100
AcDbEntity
  8
0
100
AcDbLine
 62
7
  6
BYLAYER
 10
18.6290679479
 20
6.4207478006
 11
5.9292720497
 21
6.4207478006
  0
LINE
  5
220
100
AcDbEntity
  8
0
100
AcDbLine
 62
7
  6
BYLAYER
 10
5.9292720497
 20
7.0207478006
 11
18.6290679479
 21
7.0207478006
  0
LINE
  5
221
100
AcDbEntity
  8
0
100
AcDbLine
 62
7
  6
BYLAYER
 10
18.2791699988
 20
7.1207478006
 11
6.2791699988
 21
7.1207478006
  0
LINE
  5
222
100
AcDbEntity
  8
0
100
AcDbLine
 62
7
  6
BYLAYER
 10
18.2791699988
 20
8.1207478006
 11
6.2791699988
 21
8.1207478006
  0
LINE
  5
223
100
AcDbEntity
  8
0
100
AcDbLine
 62
7
  6
BYLAYER
 10
18.6290679479
 20
8.2207478006
 11
5.9292720497
 21
8.2207478006
  0
LINE
  5
224
100
AcDbEntity
  8
0
100
AcDbLine
 62
7
  6
BYLAYER
 10
4.2791699988
 20
28.7083740358
 11
4.2791699988
 21
12.8207478006
  0
LINE
  5
225
100
AcDbEntity
  8
0
100
AcDbLine
 62
7
  6
BYLAYER
 10
5.9292720497
 20
9.3707478006
 11
18.6290679479
 21
9.3707478006
  0
LINE
  5
226
100
AcDbEntity
  8
0
100
AcDbLine
 62
7
  6
BYLAYER
 10
4.9160016021
 20
12.8207478006
 11
4.9160016021
 21
11.0207478006
  0
LINE
  5
227
100
AcDbEntity
  8
0
100
AcDbLine
 62
7
  6
BYLAYER
 10
4.9760436506
 20
11.0207478006
 11
4.9760436506
 21
12.8207478006
  0
LINE
  5
228
100
AcDbEntity
  8
0
100
AcDbLine
 62
7
  6
BYLAYER
 10
5.3577473117
 20
12.8207478006
 11
5.3577473117
 21
11.0207478006
  0
LINE
  5
229
100
AcDbEntity
  8
0
100
AcDbLine
 62
7
  6
BYLAYER
 10
5.5337816906
 20
11.0207478006
 11
5.5337816906
 21
12.8207478006
  0
LINE
  5
22A
100
AcDbEntity
  8
0
100
AcDbLine
 62
7
  6
BYLAYER
 10
5.5791699988
 20
10.8207478006
 11
5.5791699988
 21
10.6707478006
  0
LINE
  5
22B
100
AcDbEntity
  8
0
100
AcDbLine
 62
7
  6
BYLAYER
 10
9.969768922
 20
26.3207478006
 11
7.6603678453
 21
22.3207478006
  0
LINE
  5
22C
100
AcDbEntity
  8
0
100
AcDbLine
 62
7
  6
BYLAYER
 10
18.9790619766
 20
10.6707478006
 11
5.579278021
 21
10.6707478006
  0
LINE
  5
22D
100
AcDbEntity
  8
0
100
AcDbLine
 62
7
  6
BYLAYER
 10
5.9291699988
 20
9.3707478006
 11
5.9291699988
 21
8.2207478006
  0
LINE
  5
22E
100
AcDbEntity
  8
0
100
AcDbLine
 62
7
  6
BYLAYER
 10
5.9291699988
 20
7.0207478006
 11
5.9291699988
 21
6.4207478006
  0
LINE
  5
22F
100
AcDbEntity
  8
0
100
AcDbLine
 62
7
  6
BYLAYER
 10
6.3278626561
 20
12.8207478006
 11
6.3278626561
 21
10.8207478006
  0
LINE
  5
230
100
AcDbEntity
  8
0
100
AcDbLine
 62
7
  6
BYLAYER
 10
6.6291699988
 20
2.8707614027
 11
6.6291699988
 21
6.4207478006
  0
LINE
  5
231
100
AcDbEntity
  8
0
100
AcDbLine
 62
7
  6
BYLAYER
 10
6.7791699988
 20
10.6707478006
 11
6.7791699988
 21
9.3707478006
  0
LINE
  5
232
100
AcDbEntity
  8
0
100
AcDbLine
 62
7
  6
BYLAYER
 10
19.4527194371
 20
10.8207478006
 11
18.2304773415
 21
10.8207478006
  0
LINE
  5
233
100
AcDbEntity
  8
0
100
AcDbLine
 62
7
  6
BYLAYER
 10
15.3568218493
 20
10.8207478006
 11
14.3111512841
 21
10.8207478006
  0
LINE
  5
234
100
AcDbEntity
  8
0
100
AcDbLine
 62
7
  6
BYLAYER
 10
13.7116417219
 20
10.8207478006
 11
12.5894989836
 21
10.8207478006
  0
LINE
  5
235
100
AcDbEntity
  8
0
100
AcDbLine
 62
7
  6
BYLAYER
 10
11.9688410139
 20
10.8207478006
 11
10.8466982756
 21
10.8207478006
  0
LINE
  5
236
100
AcDbEntity
  8
0
100
AcDbLine
 62
7
  6
BYLAYER
 10
10.2471887134
 20
10.8207478006
 11
9.2015181483
 21
10.8207478006
  0
LINE
  5
237
100
AcDbEntity
  8
0
100
AcDbLine
 62
7
  6
BYLAYER
 10
6.3278626561
 20
10.8207478006
 11
5.1904669926
 21
10.8207478006
  0
LINE
  5
238
100
AcDbEntity
  8
0
100
AcDbLine
 62
7
  6
BYLAYER
 10
19.6423383954
 20
11.0207478006
 11
19.582296347
 21
11.0207478006
  0
LINE
  5
239
100
AcDbEntity
  8
0
100
AcDbLine
 62
7
  6
BYLAYER
 10
19.2005926858
 20
11.0207478006
 11
19.0245583069
 21
11.0207478006
  0
LINE
  5
23A
100
AcDbEntity
  8
0
100
AcDbLine
 62
7
  6
BYLAYER
 10
15.3221515256
 20
11.0207478006
 11
14.8971669406
 21
11.0207478006
  0
LINE
  5
23B
100
AcDbEntity
  8
0
100
AcDbLine
 62
7
  6
BYLAYER
 10
13.4726294837
 20
11.0207478006
 11
13.0165648474
 21
11.0207478006
  0
LINE
  5
23C
100
AcDbEntity
  8
0
100
AcDbLine
 62
7
  6
BYLAYER
 10
11.5417751501
 20
11.0207478006
 11
11.0857105139
 21
11.0207478006
  0
LINE
  5
23D
100
AcDbEntity
  8
0
100
AcDbLine
 62
7
  6
BYLAYER
 10
9.661173057
 20
11.0207478006
 11
9.236188472
 21
11.0207478006
  0
LINE
  5
23E
100
AcDbEntity
  8
0
100
AcDbLine
 62
7
  6
BYLAYER
 10
5.5337816906
 20
11.0207478006
 11
5.3577473117
 21
11.0207478006
  0
LINE
  5
23F
100
AcDbEntity
  8
0
100
AcDbLine
 62
7
  6
BYLAYER
 10
4.9760436506
 20
11.0207478006
 11
4.9160016021
 21
11.0207478006
  0
LINE
  5
240
100
AcDbEntity
  8
0
100
AcDbLine
 62
7
  6
BYLAYER
 10
20.2791616543
 20
12.8207478006
 11
4.2791783433
 21
12.8207478006
  0
LINE
  5
241
100
AcDbEntity
  8
0
100
AcDbLine
 62
7
  6
BYLAYER
 10
8.8814427254
 20
4.9707478111
 11
8.8814427254
 21
6.1707477914
  0
LINE
  5
242
100
AcDbEntity
  8
0
100
AcDbLine
 62
7
  6
BYLAYER
 10
10.6428631816
 20
13.4707478006
 11
13.915476816
 21
13.4707478006
  0
LINE
  5
243
100
AcDbEntity
  8
0
100
AcDbLine
 62
7
  6
BYLAYER
 10
9.2015181483
 20
10.8207478006
 11
9.2015181483
 21
12.8207478006
  0
LINE
  5
244
100
AcDbEntity
  8
0
100
AcDbLine
 62
7
  6
BYLAYER
 10
9.236188472
 20
12.8207478006
 11
9.236188472
 21
11.0207478006
  0
LINE
  5
245
100
AcDbEntity
  8
0
100
AcDbLine
 62
7
  6
BYLAYER
 10
9.2791699988
 20
4.9707478013
 11
9.2791699988
 21
6.1707477999
  0
LINE
  5
246
100
AcDbEntity
  8
0
100
AcDbLine
 62
7
  6
BYLAYER
 10
9.661173057
 20
11.0207478006
 11
9.661173057
 21
12.8207478006
  0
LINE
  5
247
100
AcDbEntity
  8
0
100
AcDbLine
 62
7
  6
BYLAYER
 10
8.4148046867
 20
16.1274707411
 11
8.3030414948
 21
15.9338912142
  0
LINE
  5
248
100
AcDbEntity
  8
0
100
AcDbLine
 62
7
  6
BYLAYER
 10
15.7105226089
 20
28.76402486
 11
15.8222858009
 21
28.957604387
  0
LINE
  5
249
100
AcDbEntity
  8
0
100
AcDbLine
 62
7
  6
BYLAYER
 10
8.3291717406
 20
15.4791501277
 11
8.6291699988
 21
15.998762353
  0
LINE
  5
24A
100
AcDbEntity
  8
0
100
AcDbLine
 62
7
  6
BYLAYER
 10
15.9291699988
 20
28.6427332482
 11
16.2291704216
 21
29.1623492229
  0
LINE
  5
24B
100
AcDbEntity
  8
0
100
AcDbLine
 62
7
  6
BYLAYER
 10
16.2552985028
 20
28.707604387
 11
16.1435353108
 21
28.51402486
  0
LINE
  5
24C
100
AcDbEntity
  8
0
100
AcDbLine
 62
7
  6
BYLAYER
 10
8.8478173886
 20
15.8774707411
 11
8.7360541967
 21
15.6838912142
  0
LINE
  5
24D
100
AcDbEntity
  8
0
100
AcDbLine
 62
7
  6
BYLAYER
 10
10.2471887134
 20
12.8207478006
 11
10.2471887134
 21
10.8207478006
  0
LINE
  5
24E
100
AcDbEntity
  8
0
100
AcDbLine
 62
7
  6
BYLAYER
 10
10.8466982756
 20
10.8207478006
 11
10.8466982756
 21
12.8207478006
  0
LINE
  5
24F
100
AcDbEntity
  8
0
100
AcDbLine
 62
7
  6
BYLAYER
 10
11.0857105139
 20
12.8207478006
 11
11.0857105139
 21
11.0207478006
  0
LINE
  5
250
100
AcDbEntity
  8
0
100
AcDbLine
 62
7
  6
BYLAYER
 10
7.6603678453
 20
22.3207478006
 11
9.969768922
 21
18.3207478006
  0
LINE
  5
251
100
AcDbEntity
  8
0
100
AcDbLine
 62
7
  6
BYLAYER
 10
11.5417751501
 20
11.0207478006
 11
11.5417751501
 21
12.8207478006
  0
LINE
  5
252
100
AcDbEntity
  8
0
100
AcDbLine
 62
7
  6
BYLAYER
 10
11.9688410139
 20
12.8207478006
 11
11.9688410139
 21
10.8207478006
  0
LINE
  5
253
100
AcDbEntity
  8
0
100
AcDbLine
 62
7
  6
BYLAYER
 10
12.2791699868
 20
13.0707478005
 11
12.2791698972
 21
13.320752065
  0
LINE
  5
254
100
AcDbEntity
  8
0
100
AcDbLine
 62
7
  6
BYLAYER
 10
12.5894989836
 20
10.8207478006
 11
12.5894989836
 21
12.8207478006
  0
LINE
  5
255
100
AcDbEntity
  8
0
100
AcDbLine
 62
7
  6
BYLAYER
 10
13.0165648474
 20
12.8207478006
 11
13.0165648474
 21
11.0207478006
  0
LINE
  5
256
100
AcDbEntity
  8
0
100
AcDbLine
 62
7
  6
BYLAYER
 10
13.4726294837
 20
11.0207478006
 11
13.4726294837
 21
12.8207478006
  0
LINE
  5
257
100
AcDbEntity
  8
0
100
AcDbLine
 62
7
  6
BYLAYER
 10
13.7116417219
 20
12.8207478006
 11
13.7116417219
 21
10.8207478006
  0
LINE
  5
258
100
AcDbEntity
  8
0
100
AcDbLine
 62
7
  6
BYLAYER
 10
14.3111512841
 20
10.8207478006
 11
14.3111512841
 21
12.8207478006
  0
LINE
  5
259
100
AcDbEntity
  8
0
100
AcDbLine
 62
7
  6
BYLAYER
 10
14.5885710755
 20
18.3207478006
 11
16.8979721523
 21
22.3207478006
  0
LINE
  5
25A
100
AcDbEntity
  8
0
100
AcDbLine
 62
7
  6
BYLAYER
 10
9.969768922
 20
18.3207478006
 11
14.5885710755
 21
18.3207478006
  0
LINE
  5
25B
100
AcDbEntity
  8
0
100
AcDbLine
 62
7
  6
BYLAYER
 10
14.8971669406
 20
12.8207478006
 11
14.8971669406
 21
11.0207478006
  0
LINE
  5
25C
100
AcDbEntity
  8
0
100
AcDbLine
 62
7
  6
BYLAYER
 10
15.2791699988
 20
6.1707477989
 11
15.2791699988
 21
4.9707478013
  0
LINE
  5
25D
100
AcDbEntity
  8
0
100
AcDbLine
 62
7
  6
BYLAYER
 10
15.3221515256
 20
11.0207478006
 11
15.3221515256
 21
12.8207478006
  0
LINE
  5
25E
100
AcDbEntity
  8
0
100
AcDbLine
 62
7
  6
BYLAYER
 10
15.3568218493
 20
12.8207478006
 11
15.3568218493
 21
10.8207478006
  0
LINE
  5
25F
100
AcDbEntity
  8
0
100
AcDbLine
 62
7
  6
BYLAYER
 10
15.6768972722
 20
6.1707477771
 11
15.6768972722
 21
4.9707478118
  0
LINE
  5
260
100
AcDbEntity
  8
0
100
AcDbLine
 62
7
  6
BYLAYER
 10
15.7105226089
 20
15.8774707411
 11
15.8222858009
 21
15.6838912142
  0
LINE
  5
261
100
AcDbEntity
  8
0
100
AcDbLine
 62
7
  6
BYLAYER
 10
8.4148046867
 20
28.51402486
 11
8.3030414948
 21
28.707604387
  0
LINE
  5
262
100
AcDbEntity
  8
0
100
AcDbLine
 62
7
  6
BYLAYER
 10
8.3291717406
 20
29.1623454735
 11
8.6291699988
 21
28.6427332482
  0
LINE
  5
263
100
AcDbEntity
  8
0
100
AcDbLine
 62
7
  6
BYLAYER
 10
16.2291682569
 20
15.4791501277
 11
15.9291699988
 21
15.998762353
  0
LINE
  5
264
100
AcDbEntity
  8
0
100
AcDbLine
 62
7
  6
BYLAYER
 10
16.1435353108
 20
16.1274707411
 11
16.2552985028
 21
15.9338912142
  0
LINE
  5
265
100
AcDbEntity
  8
0
100
AcDbLine
 62
7
  6
BYLAYER
 10
8.8478173886
 20
28.76402486
 11
8.7360541967
 21
28.957604387
  0
LINE
  5
266
100
AcDbEntity
  8
0
100
AcDbLine
 62
7
  6
BYLAYER
 10
17.7791699988
 20
10.6707478006
 11
17.7791699988
 21
9.3707478006
  0
LINE
  5
267
100
AcDbEntity
  8
0
100
AcDbLine
 62
7
  6
BYLAYER
 10
4.9834520766
 20
22.0707478006
 11
4.7599256927
 21
22.0707478006
  0
LINE
  5
268
100
AcDbEntity
  8
0
100
AcDbLine
 62
7
  6
BYLAYER
 10
19.574887921
 20
22.0707478006
 11
19.7984143049
 21
22.0707478006
  0
LINE
  5
269
100
AcDbEntity
  8
0
100
AcDbLine
 62
7
  6
BYLAYER
 10
20.1791665151
 20
22.3207478006
 11
19.5791699988
 21
22.3207478006
  0
LINE
  5
26A
100
AcDbEntity
  8
0
100
AcDbLine
 62
7
  6
BYLAYER
 10
4.3791734825
 20
22.3207478006
 11
4.9791699988
 21
22.3207478006
  0
LINE
  5
26B
100
AcDbEntity
  8
0
100
AcDbLine
 62
7
  6
BYLAYER
 10
4.9834520766
 20
22.5707478006
 11
4.7599256927
 21
22.5707478006
  0
LINE
  5
26C
100
AcDbEntity
  8
0
100
AcDbLine
 62
7
  6
BYLAYER
 10
19.574887921
 20
22.5707478006
 11
19.7984143049
 21
22.5707478006
  0
LINE
  5
26D
100
AcDbEntity
  8
0
100
AcDbLine
 62
7
  6
BYLAYER
 10
17.9291699988
 20
2.8707614027
 11
17.9291699988
 21
6.4207478006
  0
LINE
  5
26E
100
AcDbEntity
  8
0
100
AcDbLine
 62
7
  6
BYLAYER
 10
18.2304773415
 20
10.8207478006
 11
18.2304773415
 21
12.8207478006
  0
LINE
  5
26F
100
AcDbEntity
  8
0
100
AcDbLine
 62
7
  6
BYLAYER
 10
18.6291699988
 20
9.3707478006
 11
18.6291699988
 21
8.2207478006
  0
LINE
  5
270
100
AcDbEntity
  8
0
100
AcDbLine
 62
7
  6
BYLAYER
 10
18.6291699988
 20
7.0207478006
 11
18.6291699988
 21
6.4207478006
  0
LINE
  5
271
100
AcDbEntity
  8
0
100
AcDbLine
 62
7
  6
BYLAYER
 10
16.8979721523
 20
22.3207478006
 11
14.5885710755
 21
26.3207478006
  0
LINE
  5
272
100
AcDbEntity
  8
0
100
AcDbLine
 62
7
  6
BYLAYER
 10
18.9791699988
 20
10.8207478006
 11
18.9791699988
 21
10.6707478006
  0
LINE
  5
273
100
AcDbEntity
  8
0
100
AcDbLine
 62
7
  6
BYLAYER
 10
19.0245583069
 20
12.8207478006
 11
19.0245583069
 21
11.0207478006
  0
LINE
  5
274
100
AcDbEntity
  8
0
100
AcDbLine
 62
7
  6
BYLAYER
 10
19.2005926858
 20
11.0207478006
 11
19.2005926858
 21
12.8207478006
  0
LINE
  5
275
100
AcDbEntity
  8
0
100
AcDbLine
 62
7
  6
BYLAYER
 10
19.582296347
 20
12.8207478006
 11
19.582296347
 21
11.0207478006
  0
LINE
  5
276
100
AcDbEntity
  8
0
100
AcDbLine
 62
7
  6
BYLAYER
 10
19.6423383954
 20
11.0207478006
 11
19.6423383954
 21
12.8207478006
  0
LINE
  5
277
100
AcDbEntity
  8
0
100
AcDbLine
 62
7
  6
BYLAYER
 10
20.2791699988
 20
28.7083740358
 11
20.2791699988
 21
12.8207478006
  0
LINE
  5
278
100
AcDbEntity
  8
0
100
AcDbLine
 62
7
  6
BYLAYER
 10
14.5885710755
 20
26.3207478006
 11
9.969768922
 21
26.3207478006
  0
ARC
  5
279
100
AcDbEntity
  8
0
100
AcDbCircle
 62
7
  6
BYLAYER
 10
12.2791699988
 20
-0.3792521994
 40
31.7
100
AcDbArc
 50
78.3448801337
 51
101.6551198663
  0
ARC
  5
27A
100
AcDbEntity
  8
0
100
AcDbCircle
 62
7
  6
BYLAYER
 10
0.5850286234
 20
-2.1038159346
 40
31.3127725224
100
AcDbArc
 50
51.2623332599
 51
51.9363525169
  0
ARC
  5
27B
100
AcDbEntity
  8
0
100
AcDbCircle
 62
7
  6
BYLAYER
 10
-14.7201932811
 20
20.2358894236
 40
31.3127724421
100
AcDbArc
 50
351.2623332668
 51
351.9363525258
  0
ARC
  5
27C
100
AcDbEntity
  8
0
100
AcDbCircle
 62
7
  6
BYLAYER
 10
-2.9300464307
 20
0.2235246312
 40
31.0519781266
100
AcDbArc
 50
68.0607986988
 51
68.7404965526
  0
ARC
  5
27D
100
AcDbEntity
  8
0
100
AcDbCircle
 62
7
  6
BYLAYER
 10
6.5858562845
 20
18.713685302
 40
2.3066660994
100
AcDbArc
 50
179.9624257951
 51
206.9203471217
  0
ARC
  5
27E
100
AcDbEntity
  8
0
100
AcDbCircle
 62
7
  6
BYLAYER
 10
6.5547781823
 20
18.7007488452
 40
2.2730621021
100
AcDbArc
 50
206.9842714643
 51
210.2315891137
  0
ARC
  5
27F
100
AcDbEntity
  8
0
100
AcDbCircle
 62
7
  6
BYLAYER
 10
6.2791699988
 20
18.7151965251
 40
2.0
100
AcDbArc
 50
180.0
 51
211.0027191339
  0
ARC
  5
280
100
AcDbEntity
  8
0
100
AcDbCircle
 62
7
  6
BYLAYER
 10
6.2791699988
 20
7.6207478006
 40
0.5
100
AcDbArc
 50
90.0
 51
270.0
  0
ARC
  5
281
100
AcDbEntity
  8
0
100
AcDbCircle
 62
7
  6
BYLAYER
 10
6.7791699988
 20
3.0707478006
 40
0.25
100
AcDbArc
 50
233.1301023542
 51
270.0
  0
ARC
  5
282
100
AcDbEntity
  8
0
100
AcDbCircle
 62
7
  6
BYLAYER
 10
6.4291699988
 20
7.9707478006
 40
0.25
100
AcDbArc
 50
31.6563789643
 51
89.9999873184
  0
ARC
  5
283
100
AcDbEntity
  8
0
100
AcDbCircle
 62
7
  6
BYLAYER
 10
6.4291699988
 20
7.2707478006
 40
0.25
100
AcDbArc
 50
270.000036775
 51
328.3436109657
  0
ARC
  5
284
100
AcDbEntity
  8
0
100
AcDbCircle
 62
7
  6
BYLAYER
 10
9.5291699988
 20
6.1707478006
 40
0.25
100
AcDbArc
 50
89.9993524231
 51
180.0
  0
ARC
  5
285
100
AcDbEntity
  8
0
100
AcDbCircle
 62
7
  6
BYLAYER
 10
9.5291699988
 20
4.9707478006
 40
0.25
100
AcDbArc
 50
180.0
 51
269.9999999851
  0
ARC
  5
286
100
AcDbEntity
  8
0
100
AcDbCircle
 62
7
  6
BYLAYER
 10
-14.4621948173
 20
24.4437040179
 40
31.0519781099
100
AcDbArc
 50
8.0607986986
 51
8.7404965527
  0
ARC
  5
287
100
AcDbEntity
  8
0
100
AcDbCircle
 62
7
  6
BYLAYER
 10
-3.0260519948
 20
44.6604532037
 40
31.3127725531
100
AcDbArc
 50
291.2623332582
 51
291.9363525145
  0
ARC
  5
288
100
AcDbEntity
  8
0
100
AcDbCircle
 62
7
  6
BYLAYER
 10
6.2791699988
 20
28.7083740358
 40
2.0
100
AcDbArc
 50
101.6551198662
 51
180.0
  0
ARC
  5
289
100
AcDbEntity
  8
0
100
AcDbCircle
 62
7
  6
BYLAYER
 10
12.2791699988
 20
22.3207478006
 40
9.0
100
AcDbArc
 50
211.0027191339
 51
328.9972808661
  0
CIRCLE
  5
28A
100
AcDbEntity
  8
0
100
AcDbCircle
 62
7
  6
BYLAYER
 10
12.2791699988
 20
22.3207478006
 40
8.0
  0
CIRCLE
  5
28B
100
AcDbEntity
  8
0
100
AcDbCircle
 62
7
  6
BYLAYER
 10
12.2791699988
 20
22.3207478006
 40
7.9
  0
ARC
  5
28C
100
AcDbEntity
  8
0
100
AcDbCircle
 62
7
  6
BYLAYER
 10
12.2791699988
 20
22.3207478006
 40
7.6147537067
100
AcDbArc
 50
1.7219149552
 51
58.2780885795
  0
ARC
  5
28D
100
AcDbEntity
  8
0
100
AcDbCircle
 62
7
  6
BYLAYER
 10
12.2791699988
 20
22.3207478006
 40
7.6147537067
100
AcDbArc
 50
61.7219149553
 51
118.2780885795
  0
ARC
  5
28E
100
AcDbEntity
  8
0
100
AcDbCircle
 62
7
  6
BYLAYER
 10
12.2791699988
 20
22.3207478006
 40
7.6147537067
100
AcDbArc
 50
121.7219149552
 51
178.2780885795
  0
ARC
  5
28F
100
AcDbEntity
  8
0
100
AcDbCircle
 62
7
  6
BYLAYER
 10
12.2791699988
 20
22.3207478006
 40
7.6147537067
100
AcDbArc
 50
301.7219149552
 51
358.2780885795
  0
ARC
  5
290
100
AcDbEntity
  8
0
100
AcDbCircle
 62
7
  6
BYLAYER
 10
12.2791699988
 20
22.3207478006
 40
7.6147537067
100
AcDbArc
 50
181.7219149552
 51
238.2780885795
  0
ARC
  5
291
100
AcDbEntity
  8
0
100
AcDbCircle
 62
7
  6
BYLAYER
 10
12.2791699988
 20
22.3207478006
 40
7.6147537067
100
AcDbArc
 50
241.7219149552
 51
298.2780885795
  0
ARC
  5
292
100
AcDbEntity
  8
0
100
AcDbCircle
 62
7
  6
BYLAYER
 10
12.2791699988
 20
22.3207478006
 40
7.523399161
100
AcDbArc
 50
1.904269864
 51
58.095730136
  0
ARC
  5
293
100
AcDbEntity
  8
0
100
AcDbCircle
 62
7
  6
BYLAYER
 10
12.2791699988
 20
22.3207478006
 40
7.523399161
100
AcDbArc
 50
61.904269864
 51
118.095730136
  0
ARC
  5
294
100
AcDbEntity
  8
0
100
AcDbCircle
 62
7
  6
BYLAYER
 10
12.2791699988
 20
22.3207478006
 40
7.523399161
100
AcDbArc
 50
121.904269864
 51
178.095730136
  0
ARC
  5
295
100
AcDbEntity
  8
0
100
AcDbCircle
 62
7
  6
BYLAYER
 10
12.2791699988
 20
22.3207478006
 40
7.523399161
100
AcDbArc
 50
301.904269864
 51
358.095730136
  0
ARC
  5
296
100
AcDbEntity
  8
0
100
AcDbCircle
 62
7
  6
BYLAYER
 10
12.2791699988
 20
22.3207478006
 40
7.523399161
100
AcDbArc
 50
181.904269864
 51
238.095730136
  0
ARC
  5
297
100
AcDbEntity
  8
0
100
AcDbCircle
 62
7
  6
BYLAYER
 10
12.2791699988
 20
22.3207478006
 40
7.523399161
100
AcDbArc
 50
241.904269864
 51
298.095730136
  0
CIRCLE
  5
298
100
AcDbEntity
  8
0
100
AcDbCircle
 62
7
  6
BYLAYER
 10
12.2791699988
 20
22.3207478006
 40
7.3
  0
ARC
  5
299
100
AcDbEntity
  8
0
100
AcDbCircle
 62
7
  6
BYLAYER
 10
12.2791699988
 20
22.3207478006
 40
7.2
100
AcDbArc
 50
234.0937845823
 51
244.7968507259
  0
ARC
  5
29A
100
AcDbEntity
  8
0
100
AcDbCircle
 62
7
  6
BYLAYER
 10
12.2791699988
 20
22.3207478006
 40
7.2
100
AcDbArc
 50
192.768443375
 51
231.0276894934
  0
ARC
  5
29B
100
AcDbEntity
  8
0
100
AcDbCircle
 62
7
  6
BYLAYER
 10
12.2791699988
 20
22.3207478006
 40
7.2
100
AcDbArc
 50
169.0568330008
 51
190.9431669992
  0
ARC
  5
29C
100
AcDbEntity
  8
0
100
AcDbCircle
 62
7
  6
BYLAYER
 10
12.2791699988
 20
22.3207478006
 40
7.2
100
AcDbArc
 50
128.9723105066
 51
167.231556625
  0
ARC
  5
29D
100
AcDbEntity
  8
0
100
AcDbCircle
 62
7
  6
BYLAYER
 10
12.2791699988
 20
22.3207478006
 40
7.2
100
AcDbArc
 50
115.2031492741
 51
125.9062154177
  0
ARC
  5
29E
100
AcDbEntity
  8
0
100
AcDbCircle
 62
7
  6
BYLAYER
 10
12.2791699988
 20
22.3207478006
 40
7.2
100
AcDbArc
 50
69.1660268947
 51
110.8339731053
  0
ARC
  5
29F
100
AcDbEntity
  8
0
100
AcDbCircle
 62
7
  6
BYLAYER
 10
12.2791699988
 20
22.3207478006
 40
7.2
100
AcDbArc
 50
54.0937845823
 51
64.7968507259
  0
ARC
  5
2A0
100
AcDbEntity
  8
0
100
AcDbCircle
 62
7
  6
BYLAYER
 10
12.2791699988
 20
22.3207478006
 40
7.2
100
AcDbArc
 50
12.768443375
 51
51.0276894934
  0
ARC
  5
2A1
100
AcDbEntity
  8
0
100
AcDbCircle
 62
7
  6
BYLAYER
 10
12.2791699988
 20
22.3207478006
 40
7.2
100
AcDbArc
 50
349.0568330008
 51
10.9431669992
  0
ARC
  5
2A2
100
AcDbEntity
  8
0
100
AcDbCircle
 62
7
  6
BYLAYER
 10
12.2791699988
 20
22.3207478006
 40
7.2
100
AcDbArc
 50
308.9723105066
 51
347.231556625
  0
ARC
  5
2A3
100
AcDbEntity
  8
0
100
AcDbCircle
 62
7
  6
BYLAYER
 10
12.2791699988
 20
22.3207478006
 40
7.2
100
AcDbArc
 50
295.2031492741
 51
305.9062154177
  0
ARC
  5
2A4
100
AcDbEntity
  8
0
100
AcDbCircle
 62
7
  6
BYLAYER
 10
12.2791699988
 20
22.3207478006
 40
7.2
100
AcDbArc
 50
249.1660268947
 51
290.8339731053
  0
CIRCLE
  5
2A5
100
AcDbEntity
  8
0
100
AcDbCircle
 62
7
  6
BYLAYER
 10
12.2791699988
 20
22.3207478006
 40
7.15
  0
CIRCLE
  5
2A6
100
AcDbEntity
  8
0
100
AcDbCircle
 62
7
  6
BYLAYER
 10
12.2791699988
 20
22.3207478006
 40
7.0345299462
  0
CIRCLE
  5
2A7
100
AcDbEntity
  8
0
100
AcDbCircle
 62
7
  6
BYLAYER
 10
12.2791699988
 20
22.3207478006
 40
5.5
  0
CIRCLE
  5
2A8
100
AcDbEntity
  8
0
100
AcDbCircle
 62
7
  6
BYLAYER
 10
12.2791699988
 20
22.3207478006
 40
5.0
  0
ARC
  5
2A9
100
AcDbEntity
  8
0
100
AcDbCircle
 62
7
  6
BYLAYER
 10
12.2791699988
 20
22.3207478006
 40
4.25
100
AcDbArc
 50
192.0371275544
 51
231.255398238
  0
ARC
  5
2AA
100
AcDbEntity
  8
0
100
AcDbCircle
 62
7
  6
BYLAYER
 10
12.2791699988
 20
22.3207478006
 40
4.25
100
AcDbArc
 50
132.1445009468
 51
167.9292408434
  0
ARC
  5
2AB
100
AcDbEntity
  8
0
100
AcDbCircle
 62
7
  6
BYLAYER
 10
12.2791699988
 20
22.3207478006
 40
4.25
100
AcDbArc
 50
70.7520037163
 51
109.2739891322
  0
ARC
  5
2AC
100
AcDbEntity
  8
0
100
AcDbCircle
 62
7
  6
BYLAYER
 10
12.2791699988
 20
22.3207478006
 40
4.25
100
AcDbArc
 50
12.0371275544
 51
51.255398238
  0
ARC
  5
2AD
100
AcDbEntity
  8
0
100
AcDbCircle
 62
7
  6
BYLAYER
 10
12.2791699988
 20
22.3207478006
 40
4.25
100
AcDbArc
 50
312.1445009468
 51
347.9292408434
  0
ARC
  5
2AE
100
AcDbEntity
  8
0
100
AcDbCircle
 62
7
  6
BYLAYER
 10
12.2791699988
 20
22.3207478006
 40
4.25
100
AcDbArc
 50
250.7520037163
 51
289.2739891322
  0
ARC
  5
2AF
100
AcDbEntity
  8
0
100
AcDbCircle
 62
7
  6
BYLAYER
 10
12.2791699988
 20
22.3207478006
 40
4.05
100
AcDbArc
 50
203.3988655027
 51
220.3774910253
  0
ARC
  5
2B0
100
AcDbEntity
  8
0
100
AcDbCircle
 62
7
  6
BYLAYER
 10
12.2791699988
 20
22.3207478006
 40
4.05
100
AcDbArc
 50
139.6225089747
 51
156.6011344973
  0
ARC
  5
2B1
100
AcDbEntity
  8
0
100
AcDbCircle
 62
7
  6
BYLAYER
 10
12.2791699988
 20
22.3207478006
 40
4.05
100
AcDbArc
 50
89.898989899
 51
104.8122806735
  0
ARC
  5
2B2
100
AcDbEntity
  8
0
100
AcDbCircle
 62
7
  6
BYLAYER
 10
12.2791699988
 20
22.3207478006
 40
4.05
100
AcDbArc
 50
23.3988655027
 51
40.3774910253
  0
ARC
  5
2B3
100
AcDbEntity
  8
0
100
AcDbCircle
 62
7
  6
BYLAYER
 10
12.2791699988
 20
22.3207478006
 40
4.05
100
AcDbArc
 50
319.6225089747
 51
336.6011344973
  0
ARC
  5
2B4
100
AcDbEntity
  8
0
100
AcDbCircle
 62
7
  6
BYLAYER
 10
12.2791699988
 20
22.3207478006
 40
4.05
100
AcDbArc
 50
269.898989899
 51
284.8122806735
  0
CIRCLE
  5
2B5
100
AcDbEntity
  8
0
100
AcDbCircle
 62
7
  6
BYLAYER
 10
12.2791699988
 20
22.3207478006
 40
4.0
  0
ARC
  5
2B6
100
AcDbEntity
  8
0
100
AcDbCircle
 62
7
  6
BYLAYER
 10
0.7470216119
 20
46.5409271645
 40
31.0519781006
100
AcDbArc
 50
308.0607986985
 51
308.7404965528
  0
ARC
  5
2B7
100
AcDbEntity
  8
0
100
AcDbCircle
 62
7
  6
BYLAYER
 10
27.5843920387
 20
-0.0189577402
 40
31.3127726982
100
AcDbArc
 50
111.2623332459
 51
111.9363524986
  0
ARC
  5
2B8
100
AcDbEntity
  8
0
100
AcDbCircle
 62
7
  6
BYLAYER
 10
23.811319489
 20
-1.8994329553
 40
31.0519798767
100
AcDbArc
 50
128.0607987179
 51
128.7404965333
  0
ARC
  5
2B9
100
AcDbEntity
  8
0
100
AcDbCircle
 62
7
  6
BYLAYER
 10
39.0205348149
 20
20.1977915833
 40
31.05197811
100
AcDbArc
 50
188.0607986986
 51
188.7404965527
  0
ARC
  5
2BA
100
AcDbEntity
  8
0
100
AcDbCircle
 62
7
  6
BYLAYER
 10
17.9724838947
 20
18.7136854532
 40
2.3066659735
100
AcDbArc
 50
333.0796135084
 51
0.037571458
  0
ARC
  5
2BB
100
AcDbEntity
  8
0
100
AcDbCircle
 62
7
  6
BYLAYER
 10
18.0033381724
 20
18.7008708854
 40
2.2733167308
100
AcDbArc
 50
329.7685913047
 51
333.0155106576
  0
ARC
  5
2BC
100
AcDbEntity
  8
0
100
AcDbCircle
 62
7
  6
BYLAYER
 10
18.2791699988
 20
18.7151965251
 40
2.0
100
AcDbArc
 50
328.9972808661
 51
360.0
  0
ARC
  5
2BD
100
AcDbEntity
  8
0
100
AcDbCircle
 62
7
  6
BYLAYER
 10
18.2791699988
 20
7.6207478006
 40
0.5
100
AcDbArc
 50
270.0
 51
90.0
  0
ARC
  5
2BE
100
AcDbEntity
  8
0
100
AcDbCircle
 62
7
  6
BYLAYER
 10
17.7791699988
 20
3.0707478006
 40
0.25
100
AcDbArc
 50
270.0
 51
306.8698976458
  0
ARC
  5
2BF
100
AcDbEntity
  8
0
100
AcDbCircle
 62
7
  6
BYLAYER
 10
18.1291699988
 20
7.9707478006
 40
0.25
100
AcDbArc
 50
90.0000126816
 51
148.3436210357
  0
ARC
  5
2C0
100
AcDbEntity
  8
0
100
AcDbCircle
 62
7
  6
BYLAYER
 10
18.1291699988
 20
7.2707478006
 40
0.25
100
AcDbArc
 50
211.6563890343
 51
269.999963225
  0
ARC
  5
2C1
100
AcDbEntity
  8
0
100
AcDbCircle
 62
7
  6
BYLAYER
 10
15.0291699988
 20
6.1707478006
 40
0.25
100
AcDbArc
 50
0.0
 51
90.0006491222
  0
ARC
  5
2C2
100
AcDbEntity
  8
0
100
AcDbCircle
 62
7
  6
BYLAYER
 10
15.0291699988
 20
4.9707478006
 40
0.25
100
AcDbArc
 50
270.0000000148
 51
360.0
  0
ARC
  5
2C3
100
AcDbEntity
  8
0
100
AcDbCircle
 62
7
  6
BYLAYER
 10
39.2785334244
 20
24.4056061483
 40
31.3127725905
100
AcDbArc
 50
171.2623332544
 51
171.9363525097
  0
ARC
  5
2C4
100
AcDbEntity
  8
0
100
AcDbCircle
 62
7
  6
BYLAYER
 10
23.9733113882
 20
46.7453115517
 40
31.3127725436
100
AcDbArc
 50
231.2623332581
 51
231.9363525146
  0
ARC
  5
2C5
100
AcDbEntity
  8
0
100
AcDbCircle
 62
7
  6
BYLAYER
 10
27.4883864255
 20
44.417970963
 40
31.051978119
100
AcDbArc
 50
248.0607986987
 51
248.7404965526
  0
ARC
  5
2C6
100
AcDbEntity
  8
0
100
AcDbCircle
 62
7
  6
BYLAYER
 10
18.2791699988
 20
28.7083740358
 40
2.0
100
AcDbArc
 50
0.0
 51
78.3448801338
  0
SPLINE
  5
2C7
100
AcDbEntity
  8
0
100
AcDbSpline
 62
7
  6
BYLAYER
 70
0
 71
3
 72
11
 73
7
 74
0
 42
0.0000001
 43
0.0000001
 44
0.0000000001
 40
0.0
 40
0.0
 40
0.0
 40
0.0
 40
0.2314915547
 40
0.4727161258
 40
0.7297748289
 40
1.0
 40
1.0
 40
1.0
 40
1.0
 10
19.4527194698
 20
10.8207478006
 30
0.0
 10
19.4761911905
 20
10.8207478006
 30
0.0
 10
19.5246267876
 20
10.830347909
 30
0.0
 10
19.5875790448
 20
10.8727029747
 30
0.0
 10
19.6317390841
 20
10.9392751129
 30
0.0
 10
19.6423383954
 20
10.993348746
 30
0.0
 10
19.6423383954
 20
11.0207478006
 30
0.0
  0
SPLINE
  5
2C8
100
AcDbEntity
  8
0
100
AcDbSpline
 62
7
  6
BYLAYER
 70
0
 71
3
 72
15
 73
11
 74
0
 42
0.0000001
 43
0.0000001
 44
0.0000000001
 40
0.0
 40
0.0
 40
0.0
 40
0.0
 40
0.1017306869
 40
0.2070017148
 40
0.3183321287
 40
0.4377114487
 40
0.56658036
 40
0.7046751339
 40
0.8505209825
 40
1.0
 40
1.0
 40
1.0
 40
1.0
 10
19.0487003587
 20
10.8207478006
 30
0.0
 10
19.058103561
 20
10.8207478006
 30
0.0
 10
19.0773111969
 20
10.8231303951
 30
0.0
 10
19.1050606137
 20
10.8336641491
 30
0.0
 10
19.1310562688
 20
10.8511110041
 30
0.0
 10
19.1543618631
 20
10.8751188523
 30
0.0
 10
19.1739723361
 20
10.9052008633
 30
0.0
 10
19.1890247994
 20
10.94046817
 30
0.0
 10
19.1983983382
 20
10.9795900392
 30
0.0
 10
19.2005926858
 20
11.0069311099
 30
0.0
 10
19.2005926858
 20
11.0207478006
 30
0.0
  0
SPLINE
  5
2C9
100
AcDbEntity
  8
0
100
AcDbSpline
 62
7
  6
BYLAYER
 70
0
 71
3
 72
15
 73
11
 74
0
 42
0.0000001
 43
0.0000001
 44
0.0000000001
 40
0.0
 40
0.0
 40
0.0
 40
0.0
 40
0.1495112939
 40
0.2954257215
 40
0.4334830058
 40
0.5622809389
 40
0.6816287774
 40
0.7929546014
 40
0.8982512401
 40
1.0
 40
1.0
 40
1.0
 40
1.0
 10
5.3577473117
 20
11.0207478006
 30
0.0
 10
5.3577473117
 20
11.0069281788
 30
0.0
 10
5.3599520935
 20
10.979578731
 30
0.0
 10
5.369319945
 20
10.9404504348
 30
0.0
 10
5.3843694891
 20
10.9051849572
 30
0.0
 10
5.4039814909
 20
10.8751200247
 30
0.0
 10
5.427276645
 20
10.8511168147
 30
0.0
 10
5.4532712252
 20
10.8336696624
 30
0.0
 10
5.4810233977
 20
10.8231341657
 30
0.0
 10
5.5002347105
 20
10.8207478006
 30
0.0
 10
5.5096395477
 20
10.8207478006
 30
0.0
  0
SPLINE
  5
2CA
100
AcDbEntity
  8
0
100
AcDbSpline
 62
7
  6
BYLAYER
 70
0
 71
3
 72
12
 73
8
 74
0
 42
0.0000001
 43
0.0000001
 44
0.0000000001
 40
0.0
 40
0.0
 40
0.0
 40
0.0
 40
0.136362496
 40
0.2712615288
 40
0.5278859097
 40
0.768759438
 40
1.0
 40
1.0
 40
1.0
 40
1.0
 10
4.9160016021
 20
11.0207478006
 30
0.0
 10
4.9160016021
 20
11.0069037213
 30
0.0
 10
4.9188027969
 20
10.9792872567
 30
0.0
 10
4.9343111609
 20
10.9277190844
 30
0.0
 10
4.9707867153
 20
10.8726497452
 30
0.0
 10
5.033702385
 20
10.8303664592
 30
0.0
 10
5.0821439248
 20
10.8207478006
 30
0.0
 10
5.1056204141
 20
10.8207478006
 30
0.0
  0
SPLINE
  5
2CB
100
AcDbEntity
  8
0
100
AcDbSpline
 62
7
  6
BYLAYER
 70
0
 71
3
 72
12
 73
8
 74
0
 42
0.0000001
 43
0.0000001
 44
0.0000000001
 40
0.0
 40
0.0
 40
0.0
 40
0.0
 40
0.083792399
 40
0.1816816007
 40
0.4169825932
 40
0.6962112951
 40
1.0
 40
1.0
 40
1.0
 40
1.0
 10
4.6678453427
 20
22.0919404814
 30
0.0
 10
4.6699517117
 20
22.0902913577
 30
0.0
 10
4.6748620487
 20
22.0871526963
 30
0.0
 10
4.6869144008
 20
22.0814476763
 30
0.0
 10
4.7057537858
 20
22.0758383522
 30
0.0
 10
4.7315951026
 20
22.0717068292
 30
0.0
 10
4.7502269757
 20
22.0707478006
 30
0.0
 10
4.7599256927
 20
22.0707478006
 30
0.0
  0
SPLINE
  5
2CC
100
AcDbEntity
  8
0
100
AcDbSpline
 62
7
  6
BYLAYER
 70
0
 71
3
 72
12
 73
8
 74
0
 42
0.0000001
 43
0.0000001
 44
0.0000000001
 40
0.0
 40
0.0
 40
0.0
 40
0.0
 40
0.3037927791
 40
0.5830027945
 40
0.8182869633
 40
0.9161977518
 40
1.0
 40
1.0
 40
1.0
 40
1.0
 10
4.7599256927
 20
22.5707478006
 30
0.0
 10
4.7502282319
 20
22.5707478006
 30
0.0
 10
4.7315996268
 20
22.5697875358
 30
0.0
 10
4.7057626099
 20
22.5656591274
 30
0.0
 10
4.6869264311
 20
22.5600506441
 30
0.0
 10
4.6748746012
 20
22.554348061
 30
0.0
 10
4.6699635369
 20
22.5512101073
 30
0.0
 10
4.6678572214
 20
22.5495610255
 30
0.0
  0
SPLINE
  5
2CD
100
AcDbEntity
  8
0
100
AcDbSpline
 62
7
  6
BYLAYER
 70
0
 71
3
 72
15
 73
11
 74
0
 42
0.0000001
 43
0.0000001
 44
0.0000000001
 40
0.0
 40
0.0
 40
0.0
 40
0.0
 40
0.1695133547
 40
0.3378973905
 40
0.4960717769
 40
0.6368987811
 40
0.7555098985
 40
0.8528629157
 40
0.9322678161
 40
1.0
 40
1.0
 40
1.0
 40
1.0
 10
15.1541705025
 20
4.4707478007
 30
0.0
 10
15.1541706875
 20
4.4878298374
 30
0.0
 10
15.1523780854
 20
4.5219002693
 30
0.0
 10
15.1446396503
 20
4.5713943476
 30
0.0
 10
15.1316394828
 20
4.6167934763
 30
0.0
 10
15.1147080883
 20
4.6555049728
 30
0.0
 10
15.0946003913
 20
4.6855762105
 30
0.0
 10
15.072969416
 20
4.7064550429
 30
0.0
 10
15.0509159228
 20
4.7182419059
 30
0.0
 10
15.0359972538
 20
4.7207510213
 30
0.0
 10
15.0291718113
 20
4.7207511394
 30
0.0
  0
SPLINE
  5
2CE
100
AcDbEntity
  8
0
100
AcDbSpline
 62
7
  6
BYLAYER
 70
0
 71
3
 72
15
 73
11
 74
0
 42
0.0000001
 43
0.0000001
 44
0.0000000001
 40
0.0
 40
0.0
 40
0.0
 40
0.0
 40
0.1367833477
 40
0.2702987101
 40
0.3990509449
 40
0.5233273968
 40
0.6442707776
 40
0.7632186211
 40
0.8814276144
 40
1.0
 40
1.0
 40
1.0
 40
1.0
 10
8.8814427254
 20
4.9707478111
 30
0.0
 10
8.8814426929
 20
4.9341797505
 30
0.0
 10
8.8898251738
 20
4.8616444697
 30
0.0
 10
8.925779076
 20
4.76031799
 30
0.0
 10
8.9807385242
 20
4.6719052155
 30
0.0
 10
9.0499468163
 20
4.5988682539
 30
0.0
 10
9.1295786288
 20
4.5418832057
 30
0.0
 10
9.2167211491
 20
4.5010101108
 30
0.0
 10
9.3090263445
 20
4.4762566208
 30
0.0
 10
9.3724705113
 20
4.4707411328
 30
0.0
 10
9.4041699993
 20
4.4707478006
 30
0.0
  0
SPLINE
  5
2CF
100
AcDbEntity
  8
0
100
AcDbSpline
 62
7
  6
BYLAYER
 70
0
 71
3
 72
15
 73
11
 74
0
 42
0.0000001
 43
0.0000001
 44
0.0000000001
 40
0.0
 40
0.0
 40
0.0
 40
0.0
 40
0.1695136766
 40
0.3378979112
 40
0.4960723714
 40
0.6368993165
 40
0.7555102911
 40
0.8528631394
 40
0.9322678953
 40
1.0
 40
1.0
 40
1.0
 40
1.0
 10
9.4041719989
 20
4.4707478007
 30
0.0
 10
9.404171753
 20
4.4878298493
 30
0.0
 10
9.4059642301
 20
4.5219002993
 30
0.0
 10
9.4137024894
 20
4.5713944053
 30
0.0
 10
9.4267024926
 20
4.6167935446
 30
0.0
 10
9.4436337389
 20
4.6555050376
 30
0.0
 10
9.4637413156
 20
4.6855762597
 30
0.0
 10
9.485372193
 20
4.7064550783
 30
0.0
 10
9.5074256188
 20
4.7182419239
 30
0.0
 10
9.5223442478
 20
4.7207510325
 30
0.0
 10
9.5291696741
 20
4.7207511506
 30
0.0
  0
SPLINE
  5
2D0
100
AcDbEntity
  8
0
100
AcDbSpline
 62
7
  6
BYLAYER
 70
0
 71
3
 72
12
 73
8
 74
0
 42
0.0000001
 43
0.0000001
 44
0.0000000001
 40
0.0
 40
0.0
 40
0.0
 40
0.0
 40
0.3037927791
 40
0.5830027945
 40
0.8182869633
 40
0.9161977518
 40
1.0
 40
1.0
 40
1.0
 40
1.0
 10
19.7984143049
 20
22.0707478006
 30
0.0
 10
19.8081117656
 20
22.0707478006
 30
0.0
 10
19.8267403708
 20
22.0717080654
 30
0.0
 10
19.8525773877
 20
22.0758364738
 30
0.0
 10
19.8714135665
 20
22.0814449571
 30
0.0
 10
19.8834653963
 20
22.0871475402
 30
0.0
 10
19.8883764607
 20
22.0902854938
 30
0.0
 10
19.8904827762
 20
22.0919345757
 30
0.0
  0
SPLINE
  5
2D1
100
AcDbEntity
  8
0
100
AcDbSpline
 62
7
  6
BYLAYER
 70
0
 71
3
 72
12
 73
8
 74
0
 42
0.0000001
 43
0.0000001
 44
0.0000000001
 40
0.0
 40
0.0
 40
0.0
 40
0.0
 40
0.083792399
 40
0.1816816007
 40
0.4169825932
 40
0.6962112951
 40
1.0
 40
1.0
 40
1.0
 40
1.0
 10
19.8904946549
 20
22.5495551198
 30
0.0
 10
19.8883882859
 20
22.5512042435
 30
0.0
 10
19.8834779489
 20
22.5543429049
 30
0.0
 10
19.8714255967
 20
22.5600479249
 30
0.0
 10
19.8525862118
 20
22.5656572489
 30
0.0
 10
19.8267448949
 20
22.5697887719
 30
0.0
 10
19.8081130218
 20
22.5707478006
 30
0.0
 10
19.7984143049
 20
22.5707478006
 30
0.0
  0
SPLINE
  5
2D2
100
AcDbEntity
  8
0
100
AcDbSpline
 62
7
  6
BYLAYER
 70
0
 71
3
 72
12
 73
8
 74
0
 42
0.0000001
 43
0.0000001
 44
0.0000000001
 40
0.0
 40
0.0
 40
0.0
 40
0.0
 40
0.3037927791
 40
0.5830027945
 40
0.8182869633
 40
0.9161977518
 40
1.0
 40
1.0
 40
1.0
 40
1.0
 10
16.2552985028
 20
28.707604387
 30
0.0
 10
16.2601472331
 20
28.7160026343
 30
0.0
 10
16.268629922
 20
28.732615612
 30
0.0
 10
16.2779731239
 20
28.7570553292
 30
0.0
 10
16.2825341243
 20
28.7761721802
 30
0.0
 10
16.2836214574
 20
28.7894606625
 30
0.0
 10
16.283359442
 20
28.7952827459
 30
0.0
 10
16.282984453
 20
28.7979314095
 30
0.0
  0
SPLINE
  5
2D3
100
AcDbEntity
  8
0
100
AcDbSpline
 62
7
  6
BYLAYER
 70
0
 71
3
 72
12
 73
8
 74
0
 42
0.0000001
 43
0.0000001
 44
0.0000000001
 40
0.0
 40
0.0
 40
0.0
 40
0.0
 40
0.083792399
 40
0.1816816006
 40
0.416982593
 40
0.6962112949
 40
1.0
 40
1.0
 40
1.0
 40
1.0
 10
15.886679376
 20
29.0267519689
 30
0.0
 10
15.8841980085
 20
29.0257523617
 30
0.0
 10
15.8790246795
 20
29.0230692158
 30
0.0
 10
15.8680578111
 20
29.0154840827
 30
0.0
 10
15.8537803015
 20
29.0019733588
 30
0.0
 10
15.8372816391
 20
28.9816598834
 30
0.0
 10
15.8271351594
 20
28.9660037222
 30
0.0
 10
15.8222858009
 20
28.957604387
 30
0.0
  0
SPLINE
  5
2D4
100
AcDbEntity
  8
0
100
AcDbSpline
 62
7
  6
BYLAYER
 70
0
 71
3
 72
12
 73
8
 74
0
 42
0.0000001
 43
0.0000001
 44
0.0000000001
 40
0.0
 40
0.0
 40
0.0
 40
0.0
 40
0.3037927791
 40
0.5830027945
 40
0.8182869633
 40
0.9161977518
 40
1.0
 40
1.0
 40
1.0
 40
1.0
 10
8.7360541967
 20
28.957604387
 30
0.0
 10
8.7312054663
 20
28.9660026343
 30
0.0
 10
8.72105955
 20
28.9816553472
 30
0.0
 10
8.704565735
 20
29.001966656
 30
0.0
 10
8.6902905566
 20
29.0154750237
 30
0.0
 10
8.6793260599
 20
29.0230609229
 30
0.0
 10
8.6741529801
 20
29.0257450526
 30
0.0
 10
8.6716716756
 20
29.0267446344
 30
0.0
  0
SPLINE
  5
2D5
100
AcDbEntity
  8
0
100
AcDbSpline
 62
7
  6
BYLAYER
 70
0
 71
3
 72
12
 73
8
 74
0
 42
0.0000001
 43
0.0000001
 44
0.0000000001
 40
0.0
 40
0.0
 40
0.0
 40
0.0
 40
0.083792399
 40
0.1816816007
 40
0.4169825931
 40
0.696211295
 40
1.0
 40
1.0
 40
1.0
 40
1.0
 10
8.2753547197
 20
28.7979446497
 30
0.0
 10
8.2749797212
 20
28.7952959188
 30
0.0
 10
8.2747167292
 20
28.7894741115
 30
0.0
 10
8.275802213
 20
28.7761839583
 30
0.0
 10
8.2803640884
 20
28.7570639104
 30
0.0
 10
8.2897067429
 20
28.732618912
 30
0.0
 10
8.2981921363
 20
28.7160037222
 30
0.0
 10
8.3030414948
 20
28.707604387
 30
0.0
  0
SPLINE
  5
2D6
100
AcDbEntity
  8
0
100
AcDbSpline
 62
7
  6
BYLAYER
 70
0
 71
3
 72
12
 73
8
 74
0
 42
0.0000001
 43
0.0000001
 44
0.0000000001
 40
0.0
 40
0.0
 40
0.0
 40
0.0
 40
0.083792399
 40
0.1816816007
 40
0.4169825933
 40
0.6962112952
 40
1.0
 40
1.0
 40
1.0
 40
1.0
 10
16.2829852778
 20
15.8435509517
 30
0.0
 10
16.2833602764
 20
15.8461996826
 30
0.0
 10
16.2836232683
 20
15.8520214899
 30
0.0
 10
16.2825377845
 20
15.865311643
 30
0.0
 10
16.2779759092
 20
15.8844316909
 30
0.0
 10
16.2686332546
 20
15.9088766893
 30
0.0
 10
16.2601478612
 20
15.925491879
 30
0.0
 10
16.2552985028
 20
15.9338912142
 30
0.0
  0
SPLINE
  5
2D7
100
AcDbEntity
  8
0
100
AcDbSpline
 62
7
  6
BYLAYER
 70
0
 71
3
 72
12
 73
8
 74
0
 42
0.0000001
 43
0.0000001
 44
0.0000000001
 40
0.0
 40
0.0
 40
0.0
 40
0.0
 40
0.3037927791
 40
0.5830027945
 40
0.8182869633
 40
0.9161977518
 40
1.0
 40
1.0
 40
1.0
 40
1.0
 10
15.8222858009
 20
15.6838912142
 30
0.0
 10
15.8271345313
 20
15.6754929669
 30
0.0
 10
15.8372804475
 20
15.659840254
 30
0.0
 10
15.8537742626
 20
15.6395289452
 30
0.0
 10
15.8680494409
 20
15.6260205775
 30
0.0
 10
15.8790139377
 20
15.6184346782
 30
0.0
 10
15.8841870175
 20
15.6157505485
 30
0.0
 10
15.886668322
 20
15.6147509667
 30
0.0
  0
SPLINE
  5
2D8
100
AcDbEntity
  8
0
100
AcDbSpline
 62
7
  6
BYLAYER
 70
0
 71
3
 72
12
 73
8
 74
0
 42
0.0000001
 43
0.0000001
 44
0.0000000001
 40
0.0
 40
0.0
 40
0.0
 40
0.0
 40
0.083792399
 40
0.1816816007
 40
0.4169825932
 40
0.6962112951
 40
1.0
 40
1.0
 40
1.0
 40
1.0
 10
8.6716606217
 20
15.6147436324
 30
0.0
 10
8.6741419893
 20
15.6157432395
 30
0.0
 10
8.6793153182
 20
15.6184263855
 30
0.0
 10
8.6902821866
 20
15.6260115186
 30
0.0
 10
8.7045596962
 20
15.6395222425
 30
0.0
 10
8.7210583585
 20
15.6598357179
 30
0.0
 10
8.7312048382
 20
15.675491879
 30
0.0
 10
8.7360541967
 20
15.6838912142
 30
0.0
  0
SPLINE
  5
2D9
100
AcDbEntity
  8
0
100
AcDbSpline
 62
7
  6
BYLAYER
 70
0
 71
3
 72
12
 73
8
 74
0
 42
0.0000001
 43
0.0000001
 44
0.0000000001
 40
0.0
 40
0.0
 40
0.0
 40
0.0
 40
0.3037927791
 40
0.5830027945
 40
0.8182869633
 40
0.9161977518
 40
1.0
 40
1.0
 40
1.0
 40
1.0
 10
8.3030414948
 20
15.9338912142
 30
0.0
 10
8.2981927644
 20
15.9254929669
 30
0.0
 10
8.2897100756
 20
15.9088799892
 30
0.0
 10
8.2803668737
 20
15.884440272
 30
0.0
 10
8.2758058733
 20
15.865323421
 30
0.0
 10
8.2747185402
 20
15.8520349387
 30
0.0
 10
8.2749805555
 20
15.8462128553
 30
0.0
 10
8.2753555446
 20
15.8435641917
 30
0.0
  0
SPLINE
  5
2DA
100
AcDbEntity
  8
0
100
AcDbSpline
 62
7
  6
BYLAYER
 70
0
 71
3
 72
13
 73
9
 74
0
 42
0.0000001
 43
0.0000001
 44
0.0000000001
 40
0.0
 40
0.0
 40
0.0
 40
0.0
 40
0.1281707346
 40
0.2562695621
 40
0.3830663556
 40
0.5086184607
 40
0.7555666021
 40
1.0
 40
1.0
 40
1.0
 40
1.0
 10
19.582296347
 20
11.0207478006
 30
0.0
 10
19.582296347
 20
11.0068847625
 30
0.0
 10
19.5790988567
 20
10.9790829065
 30
0.0
 10
19.5655783043
 20
10.9395905369
 30
0.0
 10
19.5439728098
 20
10.9041941527
 30
0.0
 10
19.5069312434
 20
10.8644649414
 30
0.0
 10
19.4478957642
 20
10.8299606479
 30
0.0
 10
19.3943109923
 20
10.8207478006
 30
0.0
 10
19.3678729016
 20
10.8207478006
 30
0.0
  0
SPLINE
  5
2DB
100
AcDbEntity
  8
0
100
AcDbSpline
 62
7
  6
BYLAYER
 70
0
 71
3
 72
13
 73
9
 74
0
 42
0.0000001
 43
0.0000001
 44
0.0000000001
 40
0.0
 40
0.0
 40
0.0
 40
0.0
 40
0.1250925485
 40
0.250677017
 40
0.3759638593
 40
0.5011633921
 40
0.7505804183
 40
1.0
 40
1.0
 40
1.0
 40
1.0
 10
19.0245583069
 20
11.0207478006
 30
0.0
 10
19.0245583069
 20
11.0068762916
 30
0.0
 10
19.0211913152
 20
10.9789876253
 30
0.0
 10
19.0069730508
 20
10.9394391487
 30
0.0
 10
18.9842934423
 20
10.9040421541
 30
0.0
 10
18.9452899759
 20
10.864189235
 30
0.0
 10
18.8833310411
 20
10.8298449949
 30
0.0
 10
18.8276011969
 20
10.8207478006
 30
0.0
 10
18.799943067
 20
10.8207478006
 30
0.0
  0
SPLINE
  5
2DC
100
AcDbEntity
  8
0
100
AcDbSpline
 62
7
  6
BYLAYER
 70
0
 71
3
 72
15
 73
11
 74
0
 42
0.0000001
 43
0.0000001
 44
0.0000000001
 40
0.0
 40
0.0
 40
0.0
 40
0.0
 40
0.1442874044
 40
0.2857643905
 40
0.420888429
 40
0.5486591227
 40
0.6690358864
 40
0.7833046962
 40
0.8930310987
 40
1.0
 40
1.0
 40
1.0
 40
1.0
 10
14.8971669406
 20
11.0207478006
 30
0.0
 10
14.8971669406
 20
11.0069198411
 30
0.0
 10
14.8947487381
 20
10.9794825588
 30
0.0
 10
14.8844778189
 20
10.9402731351
 30
0.0
 10
14.8679877501
 20
10.9049628612
 30
0.0
 10
14.8465154564
 20
10.8748927503
 30
0.0
 10
14.8210493741
 20
10.8509334599
 30
0.0
 10
14.7926935476
 20
10.8335650124
 30
0.0
 10
14.7624927051
 20
10.8231086272
 30
0.0
 10
14.7416569415
 20
10.8207478006
 30
0.0
 10
14.7314054463
 20
10.8207478006
 30
0.0
  0
SPLINE
  5
2DD
100
AcDbEntity
  8
0
100
AcDbSpline
 62
7
  6
BYLAYER
 70
0
 71
3
 72
19
 73
15
 74
0
 42
0.0000001
 43
0.0000001
 44
0.0000000001
 40
0.0
 40
0.0
 40
0.0
 40
0.0
 40
0.0062012542
 40
0.0197395364
 40
0.0414791067
 40
0.0715835155
 40
0.1100994525
 40
0.1569328438
 40
0.2119016832
 40
0.2748165486
 40
0.4234563664
 40
0.598642844
 40
0.7943032158
 40
1.0
 40
1.0
 40
1.0
 40
1.0
 10
15.3319584324
 20
10.8207478006
 30
0.0
 10
15.3315432061
 20
10.8207478006
 30
0.0
 10
15.3306767002
 20
10.8221432819
 30
0.0
 10
15.330006087
 20
10.8246180175
 30
0.0
 10
15.3290980514
 20
10.8290204492
 30
0.0
 10
15.3282879768
 20
10.8349693875
 30
0.0
 10
15.3274507343
 20
10.8426738035
 30
0.0
 10
15.3266567673
 20
10.8520296956
 30
0.0
 10
15.3258937375
 20
10.8630350084
 30
0.0
 10
15.3248839335
 20
10.8808518609
 30
0.0
 10
15.3238214674
 20
10.9067276215
 30
0.0
 10
15.3228779732
 20
10.9414994273
 30
0.0
 10
15.3222894725
 20
10.9801002593
 30
0.0
 10
15.3221515256
 20
11.0069746636
 30
0.0
 10
15.3221515256
 20
11.0207478006
 30
0.0
  0
SPLINE
  5
2DE
100
AcDbEntity
  8
0
100
AcDbSpline
 62
7
  6
BYLAYER
 70
0
 71
3
 72
20
 73
16
 74
0
 42
0.0000001
 43
0.0000001
 44
0.0000000001
 40
0.0
 40
0.0
 40
0.0
 40
0.0
 40
0.040862658
 40
0.0868798682
 40
0.1367326259
 40
0.1897537059
 40
0.3037005127
 40
0.3642689089
 40
0.4270899656
 40
0.5592755766
 40
0.6999019626
 40
0.7731033918
 40
0.8478086991
 40
0.9236312501
 40
1.0
 40
1.0
 40
1.0
 40
1.0
 10
19.9674836256
 20
17.5562853096
 30
0.0
 10
19.9035801567
 20
17.4466705125
 30
0.0
 10
19.7628308
 20
17.216428973
 30
0.0
 10
19.5261807636
 20
16.8637633569
 30
0.0
 10
19.2499065007
 20
16.4928007067
 30
0.0
 10
18.8202057416
 20
15.9742185772
 30
0.0
 10
18.3234907712
 20
15.4690883999
 30
0.0
 10
17.7614737297
 20
14.9917939157
 30
0.0
 10
17.1246870868
 20
14.517389102
 30
0.0
 10
16.2272243253
 20
13.9807877802
 30
0.0
 10
15.2316839083
 20
13.5654621418
 30
0.0
 10
14.3702895986
 20
13.3164223584
 30
0.0
 10
13.689103513
 20
13.1761408962
 30
0.0
 10
12.9890839554
 20
13.0903381599
 30
0.0
 10
12.5163015202
 20
13.0707609404
 30
0.0
 10
12.2791699986
 20
13.07074819
 30
0.0
  0
SPLINE
  5
2DF
100
AcDbEntity
  8
0
100
AcDbSpline
 62
7
  6
BYLAYER
 70
0
 71
3
 72
15
 73
11
 74
0
 42
0.0000001
 43
0.0000001
 44
0.0000000001
 40
0.0
 40
0.0
 40
0.0
 40
0.0
 40
0.1620941447
 40
0.3188412719
 40
0.4643300652
 40
0.5961115114
 40
0.7134052785
 40
0.8176879642
 40
0.9117906048
 40
1.0
 40
1.0
 40
1.0
 40
1.0
 10
13.0165648474
 20
11.0207478006
 30
0.0
 10
13.0165648474
 20
11.006944323
 30
0.0
 10
13.0148291149
 20
10.9797656138
 30
0.0
 10
13.007449254
 20
10.9408099508
 30
0.0
 10
12.9955890357
 20
10.9056696761
 30
0.0
 10
12.9801326148
 20
10.8756700969
 30
0.0
 10
12.9617398463
 20
10.8516230885
 30
0.0
 10
12.941111521
 20
10.8340042512
 30
0.0
 10
12.9188872157
 20
10.8232272878
 30
0.0
 10
12.9032758533
 20
10.8207478006
 30
0.0
 10
12.8957641914
 20
10.8207478006
 30
0.0
  0
SPLINE
  5
2E0
100
AcDbEntity
  8
0
100
AcDbSpline
 62
7
  6
BYLAYER
 70
0
 71
3
 72
17
 73
13
 74
0
 42
0.0000001
 43
0.0000001
 44
0.0000000001
 40
0.0
 40
0.0
 40
0.0
 40
0.0
 40
0.0282436215
 40
0.0583999878
 40
0.0919519384
 40
0.1299915934
 40
0.2220923349
 40
0.3376652976
 40
0.4770082801
 40
0.6375333969
 40
0.8146946483
 40
1.0
 40
1.0
 40
1.0
 40
1.0
 10
13.5402368929
 20
10.8207478006
 30
0.0
 10
13.5381363429
 20
10.8207478006
 30
0.0
 10
13.5337735214
 20
10.8213669809
 30
0.0
 10
13.5274234751
 20
10.8240679225
 30
0.0
 10
13.5212199338
 20
10.8284849384
 30
0.0
 10
13.5126403454
 20
10.8371883603
 30
0.0
 10
13.5027517674
 20
10.8527603045
 30
0.0
 10
13.492705554
 20
10.8765996502
 30
0.0
 10
13.4842149459
 20
10.9063734208
 30
0.0
 10
13.477667713
 20
10.9412831577
 30
0.0
 10
13.4735850243
 20
10.9800001476
 30
0.0
 10
13.4726294837
 20
11.0069661704
 30
0.0
 10
13.4726294837
 20
11.0207478006
 30
0.0
  0
SPLINE
  5
2E1
100
AcDbEntity
  8
0
100
AcDbSpline
 62
7
  6
BYLAYER
 70
0
 71
3
 72
17
 73
13
 74
0
 42
0.0000001
 43
0.0000001
 44
0.0000000001
 40
0.0
 40
0.0
 40
0.0
 40
0.0
 40
0.1853434795
 40
0.3625883647
 40
0.5230696682
 40
0.6623261502
 40
0.7778736717
 40
0.8699747812
 40
0.9080229256
 40
0.9415867909
 40
0.9717528563
 40
1.0
 40
1.0
 40
1.0
 40
1.0
 10
11.0857105139
 20
11.0207478006
 30
0.0
 10
11.0857105139
 20
11.0069633966
 30
0.0
 10
11.0847505184
 20
10.9799885911
 30
0.0
 10
11.0806702096
 20
10.9412658781
 30
0.0
 10
11.0741246849
 20
10.9063592406
 30
0.0
 10
11.065631973
 20
10.876598388
 30
0.0
 10
11.0555910265
 20
10.8527662109
 30
0.0
 10
11.0457040654
 20
10.8371946334
 30
0.0
 10
11.0371234325
 20
10.8284901732
 30
0.0
 10
11.0309187089
 20
10.8240711118
 30
0.0
 10
11.0245676269
 20
10.8213679603
 30
0.0
 10
11.0202038637
 20
10.8207478006
 30
0.0
 10
11.0181030612
 20
10.8207478006
 30
0.0
  0
SPLINE
  5
2E2
100
AcDbEntity
  8
0
100
AcDbSpline
 62
7
  6
BYLAYER
 70
0
 71
3
 72
15
 73
11
 74
0
 42
0.0000001
 43
0.0000001
 44
0.0000000001
 40
0.0
 40
0.0
 40
0.0
 40
0.0
 40
0.0881928814
 40
0.1822716282
 40
0.2865575804
 40
0.4038803991
 40
0.535737266
 40
0.6812655344
 40
0.8379398266
 40
1.0
 40
1.0
 40
1.0
 40
1.0
 10
11.6625757285
 20
10.8207478006
 30
0.0
 10
11.6550654461
 20
10.8207478006
 30
0.0
 10
11.6394570775
 20
10.8232234974
 30
0.0
 10
11.6172350631
 20
10.8339989108
 30
0.0
 10
11.5966056483
 20
10.8516171956
 30
0.0
 10
11.578203872
 20
10.8756696012
 30
0.0
 10
11.5627497246
 20
10.9056846549
 30
0.0
 10
11.5508872021
 20
10.9408273048
 30
0.0
 10
11.5435028958
 20
10.9797769472
 30
0.0
 10
11.5417751501
 20
11.0069471667
 30
0.0
 10
11.5417751501
 20
11.0207478006
 30
0.0
  0
SPLINE
  5
2E3
100
AcDbEntity
  8
0
100
AcDbSpline
 62
7
  6
BYLAYER
 70
0
 71
3
 72
20
 73
16
 74
0
 42
0.0000001
 43
0.0000001
 44
0.0000000001
 40
0.0
 40
0.0
 40
0.0
 40
0.0
 40
0.0763727747
 40
0.1521987089
 40
0.2269052205
 40
0.3001063057
 40
0.44073061
 40
0.5729142977
 40
0.6357343976
 40
0.6963019174
 40
0.810247583
 40
0.8632682806
 40
0.9131206552
 40
0.9591374682
 40
1.0
 40
1.0
 40
1.0
 40
1.0
 10
12.2791699992
 20
13.0707500141
 30
0.0
 10
12.0420259346
 20
13.0707653764
 30
0.0
 10
11.5692206617
 20
13.0903460879
 30
0.0
 10
10.8691742767
 20
13.176151478
 30
0.0
 10
10.1879759418
 20
13.3164403531
 30
0.0
 10
9.3265880223
 20
13.565489038
 30
0.0
 10
8.3310625056
 20
13.9808151804
 30
0.0
 10
7.4336163447
 20
14.5174144818
 30
0.0
 10
6.7968404332
 20
14.9918143398
 30
0.0
 10
6.234831564
 20
15.4691044181
 30
0.0
 10
5.7381235292
 20
15.9742311019
 30
0.0
 10
5.308427435
 20
16.4928095544
 30
0.0
 10
5.0321560201
 20
16.8637699525
 30
0.0
 10
4.7955090567
 20
17.2164343474
 30
0.0
 10
4.6547604592
 20
17.4466744434
 30
0.0
 10
4.5908560615
 20
17.5562882736
 30
0.0
  0
SPLINE
  5
2E4
100
AcDbEntity
  8
0
100
AcDbSpline
 62
7
  6
BYLAYER
 70
0
 71
3
 72
19
 73
15
 74
0
 42
0.0000001
 43
0.0000001
 44
0.0000000001
 40
0.0
 40
0.0
 40
0.0
 40
0.0
 40
0.2057380484
 40
0.4014907675
 40
0.5766286767
 40
0.7251715778
 40
0.7880673077
 40
0.8430312147
 40
0.8898661569
 40
0.9283838005
 40
0.9584958061
 40
0.9802468037
 40
0.9937952741
 40
1.0
 40
1.0
 40
1.0
 40
1.0
 10
9.236188472
 20
11.0207478006
 30
0.0
 10
9.236188472
 20
11.006971921
 30
0.0
 10
9.2360498799
 20
10.9800886133
 30
0.0
 10
9.235461717
 20
10.9414821422
 30
0.0
 10
9.2345184986
 20
10.9067139341
 30
0.0
 10
9.2334557713
 20
10.8808492562
 30
0.0
 10
9.2324464821
 20
10.8630405179
 30
0.0
 10
9.2316837194
 20
10.8520367107
 30
0.0
 10
9.2308899822
 20
10.842680939
 30
0.0
 10
9.2300526807
 20
10.8349757678
 30
0.0
 10
9.2292423729
 20
10.8290255863
 30
0.0
 10
9.2283342117
 20
10.8246208967
 30
0.0
 10
9.227663341
 20
10.8221451041
 30
0.0
 10
9.226797017
 20
10.8207478006
 30
0.0
 10
9.2263815588
 20
10.8207478006
 30
0.0
  0
SPLINE
  5
2E5
100
AcDbEntity
  8
0
100
AcDbSpline
 62
7
  6
BYLAYER
 70
0
 71
3
 72
15
 73
11
 74
0
 42
0.0000001
 43
0.0000001
 44
0.0000000001
 40
0.0
 40
0.0
 40
0.0
 40
0.0
 40
0.1069497327
 40
0.2166495486
 40
0.3309239626
 40
0.4513328744
 40
0.5791708991
 40
0.7143312726
 40
0.8557436563
 40
1.0
 40
1.0
 40
1.0
 40
1.0
 10
9.8269344446
 20
10.8207478006
 30
0.0
 10
9.8166847542
 20
10.8207478006
 30
0.0
 10
9.7958530496
 20
10.8231049359
 30
0.0
 10
9.7656553181
 20
10.8335597196
 30
0.0
 10
9.7372983202
 20
10.8509277169
 30
0.0
 10
9.7118208992
 20
10.8748907316
 30
0.0
 10
9.6903498578
 20
10.9049784658
 30
0.0
 10
9.6738574913
 20
10.9402906881
 30
0.0
 10
9.6635802884
 20
10.9794935837
 30
0.0
 10
9.661173057
 20
11.0069227743
 30
0.0
 10
9.661173057
 20
11.0207478006
 30
0.0
  0
SPLINE
  5
2E6
100
AcDbEntity
  8
0
100
AcDbSpline
 62
7
  6
BYLAYER
 70
0
 71
3
 72
13
 73
9
 74
0
 42
0.0000001
 43
0.0000001
 44
0.0000000001
 40
0.0
 40
0.0
 40
0.0
 40
0.0
 40
0.2493679409
 40
0.4988300035
 40
0.62408747
 40
0.7494065776
 40
0.8749356412
 40
1.0
 40
1.0
 40
1.0
 40
1.0
 10
5.7583966635
 20
10.8207478006
 30
0.0
 10
5.7307441719
 20
10.8207478006
 30
0.0
 10
5.6750163266
 20
10.8298429148
 30
0.0
 10
5.613044975
 20
10.864182712
 30
0.0
 10
5.5740416052
 20
10.9040578992
 30
0.0
 10
5.5513611982
 20
10.9394573144
 30
0.0
 10
5.5371342182
 20
10.9789980426
 30
0.0
 10
5.5337816906
 20
11.0068793734
 30
0.0
 10
5.5337816906
 20
11.0207478006
 30
0.0
  0
SPLINE
  5
2E7
100
AcDbEntity
  8
0
100
AcDbSpline
 62
7
  6
BYLAYER
 70
0
 71
3
 72
9
 73
5
 74
0
 42
0.0000001
 43
0.0000001
 44
0.0000000001
 40
0.0
 40
0.0
 40
0.0
 40
0.0
 40
0.5083750597
 40
1.0
 40
1.0
 40
1.0
 40
1.0
 10
8.8814427254
 20
6.1707477914
 30
0.0
 10
8.8814428165
 20
6.2151545696
 30
0.0
 10
8.8937444018
 20
6.3029534229
 30
0.0
 10
8.9293071793
 20
6.3839831441
 30
0.0
 10
8.9514999021
 20
6.4207478006
 30
0.0
  0
SPLINE
  5
2E8
100
AcDbEntity
  8
0
100
AcDbSpline
 62
7
  6
BYLAYER
 70
0
 71
3
 72
13
 73
9
 74
0
 42
0.0000001
 43
0.0000001
 44
0.0000000001
 40
0.0
 40
0.0
 40
0.0
 40
0.0
 40
0.2443826346
 40
0.4913749206
 40
0.6169862178
 40
0.7438158433
 40
0.8718578758
 40
1.0
 40
1.0
 40
1.0
 40
1.0
 10
5.190466841
 20
10.8207478006
 30
0.0
 10
5.1640341596
 20
10.8207478006
 30
0.0
 10
5.1104513281
 20
10.8299584014
 30
0.0
 10
5.0514035711
 20
10.8644588436
 30
0.0
 10
5.0143625917
 20
10.9042098306
 30
0.0
 10
4.9927561958
 20
10.9396085973
 30
0.0
 10
4.9792273213
 20
10.9790934285
 30
0.0
 10
4.9760436506
 20
11.0068878144
 30
0.0
 10
4.9760436506
 20
11.0207478006
 30
0.0
  0
SPLINE
  5
2E9
100
AcDbEntity
  8
0
100
AcDbSpline
 62
7
  6
BYLAYER
 70
0
 71
3
 72
9
 73
5
 74
0
 42
0.0000001
 43
0.0000001
 44
0.0000000001
 40
0.0
 40
0.0
 40
0.0
 40
0.0
 40
0.4916357518
 40
1.0
 40
1.0
 40
1.0
 40
1.0
 10
15.6068400846
 20
6.4207478006
 30
0.0
 10
15.6290332966
 20
6.3839823366
 30
0.0
 10
15.6645960346
 20
6.3029523981
 30
0.0
 10
15.6768965317
 20
6.2151536105
 30
0.0
 10
15.6768972722
 20
6.1707477771
 30
0.0
  0
SPLINE
  5
2EA
100
AcDbEntity
  8
0
100
AcDbSpline
 62
7
  6
BYLAYER
 70
0
 71
3
 72
9
 73
5
 74
0
 42
0.0000001
 43
0.0000001
 44
0.0000000001
 40
0.0
 40
0.0
 40
0.0
 40
0.0
 40
0.4887890984
 40
1.0
 40
1.0
 40
1.0
 40
1.0
 10
19.9674858897
 20
17.5562696212
 30
0.0
 10
19.9647477855
 20
17.5777920959
 30
0.0
 10
19.9660934641
 20
17.622930551
 30
0.0
 10
19.9817630764
 20
17.6655922875
 30
0.0
 10
19.9934489394
 20
17.6850430092
 30
0.0
  0
SPLINE
  5
2EB
100
AcDbEntity
  8
0
100
AcDbSpline
 62
7
  6
BYLAYER
 70
0
 71
3
 72
15
 73
11
 74
0
 42
0.0000001
 43
0.0000001
 44
0.0000000001
 40
0.0
 40
0.0
 40
0.0
 40
0.0
 40
0.1367836507
 40
0.2702987971
 40
0.3990508979
 40
0.5233274663
 40
0.6442706091
 40
0.7632179783
 40
0.8814269224
 40
1.0
 40
1.0
 40
1.0
 40
1.0
 10
15.6768972722
 20
4.9707478118
 30
0.0
 10
15.6768972235
 20
4.93417967
 30
0.0
 10
15.6685148738
 20
4.8616443583
 30
0.0
 10
15.6325608568
 20
4.7603179161
 30
0.0
 10
15.5776014545
 20
4.6719052009
 30
0.0
 10
15.5083932187
 20
4.5988682739
 30
0.0
 10
15.4287615311
 20
4.5418833241
 30
0.0
 10
15.3416192149
 20
4.5010102982
 30
0.0
 10
15.2493140192
 20
4.4762566274
 30
0.0
 10
15.1858696718
 20
4.470741139
 30
0.0
 10
15.1541699986
 20
4.4707478006
 30
0.0
  0
SPLINE
  5
2EC
100
AcDbEntity
  8
0
100
AcDbSpline
 62
7
  6
BYLAYER
 70
0
 71
3
 72
9
 73
5
 74
0
 42
0.0000001
 43
0.0000001
 44
0.0000000001
 40
0.0
 40
0.0
 40
0.0
 40
0.0
 40
0.5062144109
 40
1.0
 40
1.0
 40
1.0
 40
1.0
 10
4.5908585558
 20
17.5562703522
 30
0.0
 10
4.5936920891
 20
17.5785581323
 30
0.0
 10
4.5920028585
 20
17.6237551652
 30
0.0
 10
4.5761721197
 20
17.6662539841
 30
0.0
 10
4.5648838011
 20
17.6850386931
 30
0.0
  0
ENDSEC
  0
SECTION
  2
OBJECTS
  0
DICTIONARY
  5
C
100
AcDbDictionary
280
0
281
1
  3
ACAD_GROUP
350
D
  3
ACAD_MLINESTYLE
350
17
  3
ACAD_LAYOUT
350
1A
  3
ACAD_PLOTSETTINGS
350
19
  3
ACAD_PLOTSTYLENAME
350
E
  0
DICTIONARY
  5
D
102
{ACAD_REACTORS
330
C
102
}
100
AcDbDictionary
280
0
281
1
  0
ACDBDICTIONARYWDFLT
  5
E
102
{ACAD_REACTORS
330
C
102
}
100
AcDbDictionary
281
1
  3
Normal
350
F
100
AcDbDictionaryWithDefault
340
F
  0
DICTIONARY
  5
17
102
{ACAD_REACTORS
330
C
102
}
100
AcDbDictionary
280
0
281
1
  3
Standard
350
18
  0
DICTIONARY
  5
19
102
{ACAD_REACTORS
330
C
102
}
100
AcDbDictionary
281
1
  0
DICTIONARY
  5
1A
102
{ACAD_REACTORS
330
C
102
}
100
AcDbDictionary
281
1
  3
Model
350
2ED
  3
Layout1
350
2EE
  0
ACDBPLACEHOLDER
  5
F
102
{ACAD_REACTORS
330
E
102
}
  0
MLINESTYLE
  5
18
102
{ACAD_REACTORS
330
17
102
}
100
AcDbMlineStyle
  2
STANDARD
 70
0
  3

 62
256
 51
90.0
 52
90.0
 71
2
 49
0.5
 62
256
  6
BYLAYER
 49
-0.5
 62
256
  6
BYLAYER
  0
LAYOUT
  5
2ED
102
{ACAD_REACTORS
330
1A
102
}
100
AcDbPlotSettings
  1

  2
none_device
  4

  6

 40
0.0
 41
0.0
 42
0.0
 43
0.0
 44
210.0
 45
297.0
 46
0.0
 47
0.0
 48
0.0
 49
0.0
140
0.0
141
0.0
142
1.0
143
1.0
 70
1024
 72
1
 73
0
 74
0
  7

 75
0
147
1.0
148
0.0
149
0.0
100
AcDbLayout
  1
Model
 70
0
 71
0
 10
0.0
 20
0.0
 11
210.0
 21
297.0
 12
0.0
 22
0.0
 32
0.0
 14
0.0
 24
0.0
 34
0.0
 15
0.0
 25
0.0
 35
0.0
146
0.0
 13
0.0
 23
0.0
 33
0.0
 16
1.0
 26
0.0
 36
0.0
 17
0.0
 27
1.0
 37
0.0
 76
0
330
210
345
0
346
0
  0
LAYOUT
  5
2EE
102
{ACAD_REACTORS
330
1A
102
}
100
AcDbPlotSettings
  1

  2
none_device
  4

  6

 40
0.0
 41
0.0
 42
0.0
 43
0.0
 44
210.0
 45
297.0
 46
0.0
 47
0.0
 48
0.0
 49
0.0
140
0.0
141
0.0
142
1.0
143
1.0
 70
0
 72
1
 73
0
 74
0
  7

 75
0
147
1.0
148
0.0
149
0.0
100
AcDbLayout
  1
Layout1
 70
0
 71
1
 10
0.0
 20
0.0
 11
210.0
 21
297.0
 12
0.0
 22
0.0
 32
0.0
 14
0.0
 24
0.0
 34
0.0
 15
0.0
 25
0.0
 35
0.0
146
0.0
 13
0.0
 23
0.0
 33
0.0
 16
1.0
 26
0.0
 36
0.0
 17
0.0
 27
1.0
 37
0.0
 76
0
330
211
345
0
346
0
  0
ENDSEC
  0
EOF
