999
DXF file: C:\Users\sesa63760\Dev\_Creo\CAD\MCADID0004760_3D-CAD\drw0001_6.dxf
999
Pro/ENGINEER 2019471 by Parametric Technology Corporation
  0
SECTION
  2
HEADER
  9
$ACADVER
  1
AC1024
  9
$DWGCODEPAGE
  3
ANSI_1252
  9
$EXTMAX
 10
68.2878406604
 20
96.5785175055
 30
0.0
  9
$EXTMIN
 10
0.0
 20
0.0
 30
0.0
  9
$LIMMIN
 10
0.0
 20
0.0
  9
$LIMMAX
 10
68.2878406604
 20
96.5785175055
  9
$VIEWCTR
 10
34.1439203302
 20
48.2892587527
  9
$VIEWSIZE
 40
96.5785175055
  9
$CLAYER
  8
0
  9
$LTSCALE
 40
6.2954885485
  9
$CELTYPE
  6
BYLAYER
  9
$DIMSCALE
 40
1.0
  9
$DIMASZ
 40
0.8129504841
  9
$DIMEXO
 40
1.0
  9
$DIMDLI
 40
4.3496102699
  9
$DIMEXE
 40
1.0
  9
$DIMCEN
 40
1.0301708534
  9
$DIMLFAC
 40
1.0
  9
$DIMBLK
  1
_FILLED
  9
$DIMALT
 70
0
  9
$DIMALTF
 40
0.0393700787
  9
$DIMTXT
 40
1.1381306777
  9
$DIMTOL
 70
1
  9
$DIMLIM
 70
0
  9
$DIMTFAC
 40
1.0
  9
$DIMTP
 40
0.01
  9
$DIMTM
 40
0.01
  9
$DIMGAP
 40
0.625
  9
$DIMDSEP
 70
46
  9
$AUNITS
 70
0
  9
$PDMODE
 70
3
  9
$PDSIZE
 40
0.3125
  9
$HANDSEED
  5
2F3
  9
$TILEMODE
 70
1
  9
$MEASUREMENT
 70
1
  9
$INSUNITS
 70
4
  0
ENDSEC
  0
SECTION
  2
CLASSES
  0
CLASS
  1
ACDBDICTIONARYWDFLT
  2
AcDbDictionaryWithDefault
  3
AutoCAD 2000
 90
0
 91
1
280
0
281
0
  0
CLASS
  1
ACDBPLACEHOLDER
  2
AcDbPlaceHolder
  3
AutoCAD 2000
 90
0
 91
1
280
0
281
0
  0
CLASS
  1
LAYOUT
  2
AcDbLayout
  3
AutoCAD 2000
 90
0
 91
0
280
0
281
0
  0
ENDSEC
  0
SECTION
  2
TABLES
  0
TABLE
  2
VPORT
  5
8
100
AcDbSymbolTable
 70
2
  0
VPORT
  5
1F4
100
AcDbSymbolTableRecord
100
AcDbViewportTableRecord
  2
*ACTIVE
 70
0
 10
0.0
 20
0.0
 11
1.0
 21
1.0
 12
34.1439203302
 22
48.2892587527
 13
0.0
 23
0.0
 14
1.0
 24
1.0
 15
0.0
 25
0.0
 16
0.0
 26
0.0
 36
1.0
 17
0.0
 27
0.0
 37
0.0
 40
96.5785175055
 41
0.7070707071
 42
50.0
 43
0.0
 44
0.0
 50
0.0
 51
0.0
 71
0
 72
100
 73
1
 74
1
 75
0
 76
0
 77
0
 78
0
  0
ENDTAB
  0
TABLE
  2
LTYPE
  5
5
100
AcDbSymbolTable
 70
6
  0
LTYPE
  5
14
100
AcDbSymbolTableRecord
100
AcDbLinetypeTableRecord
  2
BYBLOCK
 70
0
  3

 72
65
 73
0
 40
0.0
  0
LTYPE
  5
15
100
AcDbSymbolTableRecord
100
AcDbLinetypeTableRecord
  2
BYLAYER
 70
0
  3

 72
65
 73
0
 40
0.0
  0
LTYPE
  5
16
100
AcDbSymbolTableRecord
100
AcDbLinetypeTableRecord
  2
CONTINUOUS
 70
64
  3
Solid line
 72
65
 73
0
 40
0.0
  0
LTYPE
  5
1F5
100
AcDbSymbolTableRecord
100
AcDbLinetypeTableRecord
  2
CENTER
 70
64
  3
____ _ ____ _ ____ _ ____ _ ____ _ ____ _ ____
 72
65
 73
4
 40
0.6
 49
0.375
 74
0
 49
-0.075
 74
0
 49
0.075
 74
0
 49
-0.075
 74
0
  0
LTYPE
  5
1F6
100
AcDbSymbolTableRecord
100
AcDbLinetypeTableRecord
  2
HIDDEN
 70
64
  3
- - - - - - - - - - - - - - - - - - - -
 72
65
 73
2
 40
0.2
 49
0.1
 74
0
 49
-0.1
 74
0
  0
LTYPE
  5
1F7
100
AcDbSymbolTableRecord
100
AcDbLinetypeTableRecord
  2
PHANTOM
 70
64
  3
_____ _ _ _____ _ _ _____ _ _ _____
 72
65
 73
6
 40
0.8
 49
0.45
 74
0
 49
-0.05
 74
0
 49
0.1
 74
0
 49
-0.05
 74
0
 49
0.1
 74
0
 49
-0.05
 74
0
  0
LTYPE
  5
1F8
100
AcDbSymbolTableRecord
100
AcDbLinetypeTableRecord
  2
DOT
 70
64
  3
. . . . . . . . . . . . . . . . . . . .
 72
65
 73
2
 40
0.2
 49
0.1
 74
0
 49
-0.1
 74
0
  0
LTYPE
  5
1F9
100
AcDbSymbolTableRecord
100
AcDbLinetypeTableRecord
  2
DASHED
 70
64
  3
- - - - - - - - - - - - - - - - - - - -
 72
65
 73
2
 40
0.2
 49
0.1
 74
0
 49
-0.1
 74
0
  0
ENDTAB
  0
TABLE
  2
LAYER
  5
2
100
AcDbSymbolTable
 70
36
  0
LAYER
  5
10
100
AcDbSymbolTableRecord
100
AcDbLayerTableRecord
  2
0
 70
0
 62
7
  6
CONTINUOUS
370
-3
390
F
  0
LAYER
  5
1FA
100
AcDbSymbolTableRecord
100
AcDbLayerTableRecord
  2
DEFAULT_1
 70
0
 62
7
  6
CENTER
370
-3
390
F
  0
LAYER
  5
1FB
100
AcDbSymbolTableRecord
100
AcDbLayerTableRecord
  2
DEFAULT_2
 70
0
 62
7
  6
HIDDEN
370
-3
390
F
  0
LAYER
  5
1FC
100
AcDbSymbolTableRecord
100
AcDbLayerTableRecord
  2
DEFAULT_3
 70
0
 62
7
  6
PHANTOM
370
-3
390
F
  0
LAYER
  5
1FD
100
AcDbSymbolTableRecord
100
AcDbLayerTableRecord
  2
00_COMPONENTS
 70
0
 62
7
  6
CONTINUOUS
370
-3
390
F
  0
LAYER
  5
1FE
100
AcDbSymbolTableRecord
100
AcDbLayerTableRecord
  2
01_1_DEFAULT_DATUMS
 70
0
 62
7
  6
CONTINUOUS
370
-3
390
F
  0
LAYER
  5
1FF
100
AcDbSymbolTableRecord
100
AcDbLayerTableRecord
  2
01_PLANES
 70
0
 62
7
  6
CONTINUOUS
370
-3
390
F
  0
LAYER
  5
200
100
AcDbSymbolTableRecord
100
AcDbLayerTableRecord
  2
02_COORD_SYS
 70
0
 62
7
  6
CONTINUOUS
370
-3
390
F
  0
LAYER
  5
201
100
AcDbSymbolTableRecord
100
AcDbLayerTableRecord
  2
03_AXES
 70
0
 62
7
  6
CONTINUOUS
370
-3
390
F
  0
LAYER
  5
202
100
AcDbSymbolTableRecord
100
AcDbLayerTableRecord
  2
04_POINTS
 70
0
 62
7
  6
CONTINUOUS
370
-3
390
F
  0
LAYER
  5
203
100
AcDbSymbolTableRecord
100
AcDbLayerTableRecord
  2
05_CURVES
 70
0
 62
7
  6
CONTINUOUS
370
-3
390
F
  0
LAYER
  5
204
100
AcDbSymbolTableRecord
100
AcDbLayerTableRecord
  2
06_SURFS
 70
0
 62
7
  6
CONTINUOUS
370
-3
390
F
  0
LAYER
  5
205
100
AcDbSymbolTableRecord
100
AcDbLayerTableRecord
  2
07_COSMETICS
 70
0
 62
7
  6
CONTINUOUS
370
-3
390
F
  0
LAYER
  5
206
100
AcDbSymbolTableRecord
100
AcDbLayerTableRecord
  2
10_NOTES
 70
0
 62
7
  6
CONTINUOUS
370
-3
390
F
  0
LAYER
  5
207
100
AcDbSymbolTableRecord
100
AcDbLayerTableRecord
  2
11_NOTES_PUB
 70
0
 62
7
  6
CONTINUOUS
370
-3
390
F
  0
LAYER
  5
208
100
AcDbSymbolTableRecord
100
AcDbLayerTableRecord
  2
13_REF_GTOL
 70
0
 62
7
  6
CONTINUOUS
370
-3
390
F
  0
LAYER
  5
209
100
AcDbSymbolTableRecord
100
AcDbLayerTableRecord
  2
16_MISC
 70
0
 62
7
  6
CONTINUOUS
370
-3
390
F
  0
LAYER
  5
20A
100
AcDbSymbolTableRecord
100
AcDbLayerTableRecord
  2
17_NO_PRINT
 70
0
 62
7
  6
CONTINUOUS
370
-3
390
F
  0
LAYER
  5
20B
100
AcDbSymbolTableRecord
100
AcDbLayerTableRecord
  2
18_DATUM_CAMS_JOINTS
 70
0
 62
7
  6
CONTINUOUS
370
-3
390
F
  0
LAYER
  5
20C
100
AcDbSymbolTableRecord
100
AcDbLayerTableRecord
  2
19_DATUM_FUNCTIONAL
 70
0
 62
7
  6
CONTINUOUS
370
-3
390
F
  0
LAYER
  5
20D
100
AcDbSymbolTableRecord
100
AcDbLayerTableRecord
  2
20_DATUM_KINEMATIC_SCHEME
 70
0
 62
7
  6
CONTINUOUS
370
-3
390
F
  0
ENDTAB
  0
TABLE
  2
STYLE
  5
3
100
AcDbSymbolTable
 70
1
  0
STYLE
  5
11
100
AcDbSymbolTableRecord
100
AcDbTextStyleTableRecord
  2
STANDARD
 70
0
 40
0.0
 41
1.0
 50
0.0
 71
0
 42
0.2
  3
ARIAL.TTF
  4

  0
STYLE
  5
20E
100
AcDbSymbolTableRecord
100
AcDbTextStyleTableRecord
  2
TEXTSTYLE_1
 70
0
 40
0.0
 41
0.8
 50
0.0
 71
0
 42
0.2
  3
gdt
  4

  0
ENDTAB
  0
TABLE
  2
VIEW
  5
6
100
AcDbSymbolTable
 70
0
  0
ENDTAB
  0
TABLE
  2
UCS
  5
7
100
AcDbSymbolTable
 70
0
  0
ENDTAB
  0
TABLE
  2
APPID
  5
9
100
AcDbSymbolTable
 70
1
  0
APPID
  5
20F
100
AcDbSymbolTableRecord
100
AcDbRegAppTableRecord
  2
ACAD
 70
0
  0
ENDTAB
  0
TABLE
  2
BLOCK_RECORD
  5
1
100
AcDbSymbolTable
 70
0
  0
BLOCK_RECORD
  5
210
100
AcDbSymbolTableRecord
100
AcDbBlockTableRecord
  2
*Model_Space
  0
BLOCK_RECORD
  5
211
100
AcDbSymbolTableRecord
100
AcDbBlockTableRecord
  2
*Paper_Space
  0
BLOCK_RECORD
  5
212
100
AcDbSymbolTableRecord
100
AcDbBlockTableRecord
  2
_FILLED
  0
ENDTAB
  0
TABLE
  2
DIMSTYLE
  5
A
100
AcDbSymbolTable
 70
1
100
AcDbDimStyleTable
 71
0
  0
DIMSTYLE
105
213
100
AcDbSymbolTableRecord
100
AcDbDimStyleTableRecord
  2
STANDARD
 70
0
  3

  4

 40
1.0
 41
0.8129504841
 42
1.0
 43
0.38
 44
1.0
 45
0.0
 46
0.0
 47
0.01
 48
0.01
140
1.1381306777
141
0.09
142
0.0
143
25.4
144
1.0
145
0.0
146
1.0
147
0.625
 71
1
 72
0
 73
0
 74
0
 75
0
 76
0
 77
1
 78
8
 79
2
170
0
171
1
172
0
173
0
174
0
175
0
176
0
177
0
178
0
270
2
179
2
271
2
272
2
273
2
274
2
275
0
280
0
281
0
282
0
283
1
284
8
285
0
286
0
287
3
288
0
340
11
278
46
341
212
342
212
343
212
344
212
  0
ENDTAB
  0
ENDSEC
  0
SECTION
  2
BLOCKS
  0
BLOCK
  5
20
100
AcDbEntity
  8
0
100
AcDbBlockBegin
  2
*Model_Space
 70
0
 10
0.0
 20
0.0
 30
0.0
  3
*Model_Space
  1

  0
ENDBLK
  5
21
100
AcDbEntity
  8
0
100
AcDbBlockEnd
  0
BLOCK
  5
1C
100
AcDbEntity
  8
0
100
AcDbBlockBegin
  2
*Paper_Space
 70
0
 10
0.0
 20
0.0
 30
0.0
  3
*Paper_Space
  1

  0
ENDBLK
  5
1D
100
AcDbEntity
  8
0
100
AcDbBlockEnd
  0
BLOCK
  5
214
100
AcDbEntity
  8
0
100
AcDbBlockBegin
  2
_FILLED
 70
64
 10
0.0
 20
0.0
  3
_FILLED
  1

  0
SOLID
  5
215
100
AcDbEntity
  8
0
  6
BYBLOCK
 62
0
100
AcDbTrace
 10
0.0
 20
0.0
 11
-1.0
 21
0.25
 12
-1.0
 22
-0.25
 13
-1.0
 23
-0.25
  0
ENDBLK
  5
216
100
AcDbEntity
  8
0
  6
BYBLOCK
 62
0
100
AcDbBlockEnd
  0
ENDSEC
  0
SECTION
  2
ENTITIES
  0
LINE
  5
217
100
AcDbEntity
  8
0
100
AcDbLine
 62
7
  6
BYLAYER
 10
11.5829312337
 20
44.0088849373
 11
11.5829312337
 21
47.9884790995
  0
LINE
  5
218
100
AcDbEntity
  8
0
100
AcDbLine
 62
7
  6
BYLAYER
 10
11.5829312337
 20
48.5900384059
 11
11.5829312337
 21
52.5696325682
  0
LINE
  5
219
100
AcDbEntity
  8
0
100
AcDbLine
 62
7
  6
BYLAYER
 10
16.5962261289
 20
40.7914357978
 11
16.5962261289
 21
55.7870886772
  0
LINE
  5
21A
100
AcDbEntity
  8
0
100
AcDbLine
 62
7
  6
BYLAYER
 10
16.7962261289
 20
40.5835790293
 11
16.7962261289
 21
55.9949384762
  0
LINE
  5
21B
100
AcDbEntity
  8
0
100
AcDbLine
 62
7
  6
BYLAYER
 10
57.1640887921
 20
38.1439093335
 11
56.9228149953
 21
38.0769981878
  0
LINE
  5
21C
100
AcDbEntity
  8
0
100
AcDbLine
 62
7
  6
BYLAYER
 10
44.3962261289
 20
34.7892587527
 11
50.8962261289
 21
34.9027166748
  0
LINE
  5
21D
100
AcDbEntity
  8
0
100
AcDbLine
 62
7
  6
BYLAYER
 10
44.3962261289
 20
35.4891521393
 11
48.8962261289
 21
35.5676999315
  0
LINE
  5
21E
100
AcDbEntity
  8
0
100
AcDbLine
 62
7
  6
BYLAYER
 10
48.8962261289
 20
35.9284667167
 11
50.8962261289
 21
35.9633768465
  0
LINE
  5
21F
100
AcDbEntity
  8
0
100
AcDbLine
 62
7
  6
BYLAYER
 10
41.3962261289
 20
34.8392587527
 11
44.3962261289
 21
34.8392587527
  0
LINE
  5
220
100
AcDbEntity
  8
0
100
AcDbLine
 62
7
  6
BYLAYER
 10
44.3962261289
 20
35.5392587527
 11
42.3962261289
 21
35.5392587527
  0
LINE
  5
221
100
AcDbEntity
  8
0
100
AcDbLine
 62
7
  6
BYLAYER
 10
51.4962261289
 20
36.2892587527
 11
50.8962261289
 21
36.2892587527
  0
LINE
  5
222
100
AcDbEntity
  8
0
100
AcDbLine
 62
7
  6
BYLAYER
 10
40.3962261289
 20
36.2892587527
 11
35.8962261289
 21
36.2892587527
  0
LINE
  5
223
100
AcDbEntity
  8
0
100
AcDbLine
 62
7
  6
BYLAYER
 10
51.4962261289
 20
36.4479176066
 11
50.8962261289
 21
36.4479176066
  0
LINE
  5
224
100
AcDbEntity
  8
0
100
AcDbLine
 62
7
  6
BYLAYER
 10
42.3962261289
 20
35.2892587527
 11
40.6700794061
 21
35.4402770226
  0
LINE
  5
225
100
AcDbEntity
  8
0
100
AcDbLine
 62
7
  6
BYLAYER
 10
56.3962261289
 20
38.0678065449
 11
56.9228149953
 21
38.0769981878
  0
LINE
  5
226
100
AcDbEntity
  8
0
100
AcDbLine
 62
7
  6
BYLAYER
 10
56.1962261289
 20
36.7892587527
 11
51.3962261289
 21
36.7892587527
  0
LINE
  5
227
100
AcDbEntity
  8
0
100
AcDbLine
 62
7
  6
BYLAYER
 10
51.1962261289
 20
36.9892587527
 11
50.8962261289
 21
36.9892587527
  0
LINE
  5
228
100
AcDbEntity
  8
0
100
AcDbLine
 62
7
  6
BYLAYER
 10
50.8962261289
 20
37.5085777784
 11
51.4962261289
 21
37.5085777784
  0
LINE
  5
229
100
AcDbEntity
  8
0
100
AcDbLine
 62
7
  6
BYLAYER
 10
40.3962261289
 20
37.8969539073
 11
35.8962261289
 21
37.8969539073
  0
LINE
  5
22A
100
AcDbEntity
  8
0
100
AcDbLine
 62
7
  6
BYLAYER
 10
34.6344338942
 20
38.2892587527
 11
40.3962261289
 21
38.2892587527
  0
LINE
  5
22B
100
AcDbEntity
  8
0
100
AcDbLine
 62
7
  6
BYLAYER
 10
50.8962260518
 20
36.6508643537
 11
51.4962261289
 21
36.6426571178
  0
LINE
  5
22C
100
AcDbEntity
  8
0
100
AcDbLine
 62
7
  6
BYLAYER
 10
29.2079975613
 20
38.0813641962
 11
35.8962261289
 21
36.2892587527
  0
LINE
  5
22D
100
AcDbEntity
  8
0
100
AcDbLine
 62
7
  6
BYLAYER
 10
26.5962261289
 20
40.2892612583
 11
26.5962261289
 21
40.5835790293
  0
LINE
  5
22E
100
AcDbEntity
  8
0
100
AcDbLine
 62
7
  6
BYLAYER
 10
26.5962261289
 20
55.9949384762
 11
26.5962261289
 21
56.2892562472
  0
LINE
  5
22F
100
AcDbEntity
  8
0
100
AcDbLine
 62
7
  6
BYLAYER
 10
61.0482821949
 20
42.1613834432
 11
58.3354653283
 21
41.8231440004
  0
LINE
  5
230
100
AcDbEntity
  8
0
100
AcDbLine
 62
7
  6
BYLAYER
 10
58.3400174629
 20
42.0374798433
 11
61.0222733556
 21
42.3719088827
  0
LINE
  5
231
100
AcDbEntity
  8
0
100
AcDbLine
 62
7
  6
BYLAYER
 10
51.8962261289
 20
40.6610919704
 11
56.9228149953
 21
40.7232069792
  0
LINE
  5
232
100
AcDbEntity
  8
0
100
AcDbLine
 62
7
  6
BYLAYER
 10
51.4962261289
 20
38.8068968429
 11
50.8962261289
 21
38.8068968429
  0
LINE
  5
233
100
AcDbEntity
  8
0
100
AcDbLine
 62
7
  6
BYLAYER
 10
56.1962261289
 20
39.7892587527
 11
51.4962261289
 21
39.7892587527
  0
LINE
  5
234
100
AcDbEntity
  8
0
100
AcDbLine
 62
7
  6
BYLAYER
 10
28.0962261289
 20
40.2892587527
 11
26.5962261289
 21
40.2892587527
  0
LINE
  5
235
100
AcDbEntity
  8
0
100
AcDbLine
 62
7
  6
BYLAYER
 10
28.0962261289
 20
39.5302677226
 11
28.0962261289
 21
57.0482512826
  0
LINE
  5
236
100
AcDbEntity
  8
0
100
AcDbLine
 62
7
  6
BYLAYER
 10
42.3962261289
 20
41.2892587527
 11
40.6700794061
 21
41.1382404829
  0
LINE
  5
237
100
AcDbEntity
  8
0
100
AcDbLine
 62
7
  6
BYLAYER
 10
56.9228149953
 20
41.4303137604
 11
51.8962261289
 21
41.3681987515
  0
LINE
  5
238
100
AcDbEntity
  8
0
100
AcDbLine
 62
7
  6
BYLAYER
 10
56.4644622333
 20
41.027135925
 11
51.8922989719
 21
40.9707089522
  0
LINE
  5
239
100
AcDbEntity
  8
0
100
AcDbLine
 62
7
  6
BYLAYER
 10
51.8909900082
 20
41.1828356018
 11
56.4618332205
 21
41.2392516674
  0
LINE
  5
23A
100
AcDbEntity
  8
0
100
AcDbLine
 62
7
  6
BYLAYER
 10
16.7962261289
 20
40.5835790293
 11
26.5962261289
 21
40.5835790293
  0
LINE
  5
23B
100
AcDbEntity
  8
0
100
AcDbLine
 62
7
  6
BYLAYER
 10
51.8962261289
 20
40.6610919704
 11
51.4962261289
 21
40.6610919704
  0
LINE
  5
23C
100
AcDbEntity
  8
0
100
AcDbLine
 62
7
  6
BYLAYER
 10
51.8922989719
 20
40.9707089522
 11
51.4962261289
 21
40.9707064315
  0
LINE
  5
23D
100
AcDbEntity
  8
0
100
AcDbLine
 62
7
  6
BYLAYER
 10
51.8909900082
 20
41.1828356018
 11
51.4962261289
 21
41.1828356018
  0
LINE
  5
23E
100
AcDbEntity
  8
0
100
AcDbLine
 62
7
  6
BYLAYER
 10
51.4962261289
 20
41.3681987515
 11
51.8962261289
 21
41.3681987515
  0
LINE
  5
23F
100
AcDbEntity
  8
0
100
AcDbLine
 62
7
  6
BYLAYER
 10
34.6344338942
 20
42.2892587527
 11
42.1962261289
 21
42.2892587527
  0
LINE
  5
240
100
AcDbEntity
  8
0
100
AcDbLine
 62
7
  6
BYLAYER
 10
29.2079975613
 20
38.0813641962
 11
29.2079975613
 21
40.6504910716
  0
LINE
  5
241
100
AcDbEntity
  8
0
100
AcDbLine
 62
7
  6
BYLAYER
 10
29.2079975613
 20
41.51797087
 11
29.2079975613
 21
55.0605466355
  0
LINE
  5
242
100
AcDbEntity
  8
0
100
AcDbLine
 62
7
  6
BYLAYER
 10
29.2079975613
 20
55.9280264338
 11
29.2079975613
 21
58.4971533092
  0
LINE
  5
243
100
AcDbEntity
  8
0
100
AcDbLine
 62
7
  6
BYLAYER
 10
50.8962261289
 20
42.7568372962
 11
51.4962261289
 21
42.7568372962
  0
LINE
  5
244
100
AcDbEntity
  8
0
100
AcDbLine
 62
7
  6
BYLAYER
 10
11.5829312337
 20
44.0088849373
 11
16.5962261289
 21
44.0088849373
  0
LINE
  5
245
100
AcDbEntity
  8
0
100
AcDbLine
 62
7
  6
BYLAYER
 10
35.8962261289
 20
36.2892587527
 11
35.8962261289
 21
37.8969539073
  0
LINE
  5
246
100
AcDbEntity
  8
0
100
AcDbLine
 62
7
  6
BYLAYER
 10
35.8962261289
 20
42.2892587527
 11
35.8962261289
 21
54.2892587527
  0
LINE
  5
247
100
AcDbEntity
  8
0
100
AcDbLine
 62
7
  6
BYLAYER
 10
35.8962261289
 20
58.6815635981
 11
35.8962261289
 21
60.2892587527
  0
LINE
  5
248
100
AcDbEntity
  8
0
100
AcDbLine
 62
7
  6
BYLAYER
 10
51.3962261289
 20
59.7892587527
 11
51.1962261289
 21
59.5892587527
  0
LINE
  5
249
100
AcDbEntity
  8
0
100
AcDbLine
 62
7
  6
BYLAYER
 10
16.5962261289
 20
52.5696325682
 11
11.5829312337
 21
52.5696325682
  0
LINE
  5
24A
100
AcDbEntity
  8
0
100
AcDbLine
 62
7
  6
BYLAYER
 10
51.3962261289
 20
36.7892587527
 11
51.1962261289
 21
36.9892587527
  0
LINE
  5
24B
100
AcDbEntity
  8
0
100
AcDbLine
 62
7
  6
BYLAYER
 10
40.3962261289
 20
35.739135432
 11
40.3962261289
 21
40.8393820735
  0
LINE
  5
24C
100
AcDbEntity
  8
0
100
AcDbLine
 62
7
  6
BYLAYER
 10
40.3962261289
 20
55.739135432
 11
40.3962261289
 21
60.8393820735
  0
LINE
  5
24D
100
AcDbEntity
  8
0
100
AcDbLine
 62
7
  6
BYLAYER
 10
40.6700794061
 20
35.4402770226
 11
40.6700794061
 21
39.9685254637
  0
LINE
  5
24E
100
AcDbEntity
  8
0
100
AcDbLine
 62
7
  6
BYLAYER
 10
40.6700794061
 20
40.5907278949
 11
40.6700794061
 21
41.1382404829
  0
LINE
  5
24F
100
AcDbEntity
  8
0
100
AcDbLine
 62
7
  6
BYLAYER
 10
40.6700794061
 20
55.4402770226
 11
40.6700794061
 21
59.9685254637
  0
LINE
  5
250
100
AcDbEntity
  8
0
100
AcDbLine
 62
7
  6
BYLAYER
 10
40.6700794061
 20
60.5907278949
 11
40.6700794061
 21
61.1382404829
  0
LINE
  5
251
100
AcDbEntity
  8
0
100
AcDbLine
 62
7
  6
BYLAYER
 10
40.6962261289
 20
54.2892587527
 11
40.6962261289
 21
42.2892587527
  0
LINE
  5
252
100
AcDbEntity
  8
0
100
AcDbLine
 62
7
  6
BYLAYER
 10
40.8962261289
 20
54.2892587527
 11
40.8962261289
 21
42.2892587527
  0
LINE
  5
253
100
AcDbEntity
  8
0
100
AcDbLine
 62
7
  6
BYLAYER
 10
40.8962261289
 20
35.420491748
 11
40.8962261289
 21
35.3392587527
  0
LINE
  5
254
100
AcDbEntity
  8
0
100
AcDbLine
 62
7
  6
BYLAYER
 10
40.8962261289
 20
61.1580257574
 11
40.8962261289
 21
61.2392587527
  0
LINE
  5
255
100
AcDbEntity
  8
0
100
AcDbLine
 62
7
  6
BYLAYER
 10
51.4962261289
 20
53.8216802093
 11
50.8962261289
 21
53.8216802093
  0
LINE
  5
256
100
AcDbEntity
  8
0
100
AcDbLine
 62
7
  6
BYLAYER
 10
34.6344338942
 20
54.2892587527
 11
42.1962261289
 21
54.2892587527
  0
LINE
  5
257
100
AcDbEntity
  8
0
100
AcDbLine
 62
7
  6
BYLAYER
 10
41.1962261289
 20
40.0126799493
 11
41.1962261289
 21
40.6153978597
  0
LINE
  5
258
100
AcDbEntity
  8
0
100
AcDbLine
 62
7
  6
BYLAYER
 10
41.1962261289
 20
60.0126799493
 11
41.1962261289
 21
60.6153978597
  0
LINE
  5
259
100
AcDbEntity
  8
0
100
AcDbLine
 62
7
  6
BYLAYER
 10
41.3962261289
 20
42.2892587527
 11
41.3962261289
 21
54.2892587527
  0
LINE
  5
25A
100
AcDbEntity
  8
0
100
AcDbLine
 62
7
  6
BYLAYER
 10
42.1962261289
 20
61.7392587527
 11
42.1962261289
 21
61.27176102
  0
LINE
  5
25B
100
AcDbEntity
  8
0
100
AcDbLine
 62
7
  6
BYLAYER
 10
42.1962261289
 20
55.3067564854
 11
42.1962261289
 21
54.2892587527
  0
LINE
  5
25C
100
AcDbEntity
  8
0
100
AcDbLine
 62
7
  6
BYLAYER
 10
42.1962261289
 20
42.2892587527
 11
42.1962261289
 21
41.27176102
  0
LINE
  5
25D
100
AcDbEntity
  8
0
100
AcDbLine
 62
7
  6
BYLAYER
 10
42.1962261289
 20
35.3067564854
 11
42.1962261289
 21
34.8392587527
  0
LINE
  5
25E
100
AcDbEntity
  8
0
100
AcDbLine
 62
7
  6
BYLAYER
 10
42.3962261289
 20
34.8392587527
 11
42.3962261289
 21
42.0892587527
  0
LINE
  5
25F
100
AcDbEntity
  8
0
100
AcDbLine
 62
7
  6
BYLAYER
 10
42.3962261289
 20
54.4892587527
 11
42.3962261289
 21
61.7392587527
  0
LINE
  5
260
100
AcDbEntity
  8
0
100
AcDbLine
 62
7
  6
BYLAYER
 10
26.5962261289
 20
55.9949384762
 11
16.7962261289
 21
55.9949384762
  0
LINE
  5
261
100
AcDbEntity
  8
0
100
AcDbLine
 62
7
  6
BYLAYER
 10
28.0962261289
 20
56.2892587527
 11
26.5962261289
 21
56.2892587527
  0
LINE
  5
262
100
AcDbEntity
  8
0
100
AcDbLine
 62
7
  6
BYLAYER
 10
42.3962261289
 20
55.2892587527
 11
40.6700794061
 21
55.4402770226
  0
LINE
  5
263
100
AcDbEntity
  8
0
100
AcDbLine
 62
7
  6
BYLAYER
 10
44.3962261289
 20
61.7892587527
 11
44.3962261289
 21
34.7892587527
  0
LINE
  5
264
100
AcDbEntity
  8
0
100
AcDbLine
 62
7
  6
BYLAYER
 10
56.3962261289
 20
56.9892587527
 11
56.1962261289
 21
56.7892587527
  0
LINE
  5
265
100
AcDbEntity
  8
0
100
AcDbLine
 62
7
  6
BYLAYER
 10
56.1962261289
 20
56.7892587527
 11
51.4962261289
 21
56.7892587527
  0
LINE
  5
266
100
AcDbEntity
  8
0
100
AcDbLine
 62
7
  6
BYLAYER
 10
50.8962261289
 20
57.7716206625
 11
51.4962261289
 21
57.7716206625
  0
LINE
  5
267
100
AcDbEntity
  8
0
100
AcDbLine
 62
7
  6
BYLAYER
 10
40.3962261289
 20
58.2892587527
 11
34.6344338942
 21
58.2892587527
  0
LINE
  5
268
100
AcDbEntity
  8
0
100
AcDbLine
 62
7
  6
BYLAYER
 10
56.3962261289
 20
39.5892587527
 11
56.1962261289
 21
39.7892587527
  0
LINE
  5
269
100
AcDbEntity
  8
0
100
AcDbLine
 62
7
  6
BYLAYER
 10
29.2079975613
 20
58.4971533092
 11
35.8962261289
 21
60.2892587527
  0
LINE
  5
26A
100
AcDbEntity
  8
0
100
AcDbLine
 62
7
  6
BYLAYER
 10
42.3962261289
 20
61.2892587527
 11
40.6700794061
 21
61.1382404829
  0
LINE
  5
26B
100
AcDbEntity
  8
0
100
AcDbLine
 62
7
  6
BYLAYER
 10
51.4962261289
 20
59.9358603877
 11
50.8962261289
 21
59.9276503347
  0
LINE
  5
26C
100
AcDbEntity
  8
0
100
AcDbLine
 62
7
  6
BYLAYER
 10
35.8962261289
 20
58.6815635981
 11
40.3962261289
 21
58.6815635981
  0
LINE
  5
26D
100
AcDbEntity
  8
0
100
AcDbLine
 62
7
  6
BYLAYER
 10
51.4962261289
 20
59.0699397271
 11
50.8962261289
 21
59.0699397271
  0
LINE
  5
26E
100
AcDbEntity
  8
0
100
AcDbLine
 62
7
  6
BYLAYER
 10
51.1962261289
 20
59.5892587527
 11
50.8962261289
 21
59.5892587527
  0
LINE
  5
26F
100
AcDbEntity
  8
0
100
AcDbLine
 62
7
  6
BYLAYER
 10
56.1962261289
 20
59.7892587527
 11
51.3962261289
 21
59.7892587527
  0
LINE
  5
270
100
AcDbEntity
  8
0
100
AcDbLine
 62
7
  6
BYLAYER
 10
50.8962261289
 20
60.1305998988
 11
51.4962261289
 21
60.1305998988
  0
LINE
  5
271
100
AcDbEntity
  8
0
100
AcDbLine
 62
7
  6
BYLAYER
 10
51.4962261289
 20
60.2892587527
 11
50.8962261289
 21
60.2892587527
  0
LINE
  5
272
100
AcDbEntity
  8
0
100
AcDbLine
 62
7
  6
BYLAYER
 10
40.3962261289
 20
60.2892587527
 11
35.8962261289
 21
60.2892587527
  0
LINE
  5
273
100
AcDbEntity
  8
0
100
AcDbLine
 62
7
  6
BYLAYER
 10
56.9228149953
 20
58.5015193177
 11
56.3962261289
 21
58.5107109606
  0
LINE
  5
274
100
AcDbEntity
  8
0
100
AcDbLine
 62
7
  6
BYLAYER
 10
48.8962261289
 20
34.8678065449
 11
48.8962261289
 21
35.9284667167
  0
LINE
  5
275
100
AcDbEntity
  8
0
100
AcDbLine
 62
7
  6
BYLAYER
 10
48.8962261289
 20
60.6500507888
 11
48.8962261289
 21
61.7107109606
  0
LINE
  5
276
100
AcDbEntity
  8
0
100
AcDbLine
 62
7
  6
BYLAYER
 10
42.3962261289
 20
61.0392587527
 11
44.3962261289
 21
61.0392587527
  0
LINE
  5
277
100
AcDbEntity
  8
0
100
AcDbLine
 62
7
  6
BYLAYER
 10
41.3962261289
 20
61.7392587527
 11
44.3962261289
 21
61.7392587527
  0
LINE
  5
278
100
AcDbEntity
  8
0
100
AcDbLine
 62
7
  6
BYLAYER
 10
48.8962261289
 20
60.6500507888
 11
50.8962261289
 21
60.6151406589
  0
LINE
  5
279
100
AcDbEntity
  8
0
100
AcDbLine
 62
7
  6
BYLAYER
 10
48.8962261289
 20
61.0108175739
 11
44.3962261289
 21
61.0893653661
  0
LINE
  5
27A
100
AcDbEntity
  8
0
100
AcDbLine
 62
7
  6
BYLAYER
 10
44.3962261289
 20
61.7892587527
 11
50.8962261289
 21
61.6758008307
  0
LINE
  5
27B
100
AcDbEntity
  8
0
100
AcDbLine
 62
7
  6
BYLAYER
 10
50.8962261289
 20
61.6758008307
 11
50.8962261289
 21
34.9027166748
  0
LINE
  5
27C
100
AcDbEntity
  8
0
100
AcDbLine
 62
7
  6
BYLAYER
 10
57.1640887921
 20
58.434608172
 11
56.9228149953
 21
58.5015193177
  0
LINE
  5
27D
100
AcDbEntity
  8
0
100
AcDbLine
 62
7
  6
BYLAYER
 10
51.1962261289
 20
59.5892587527
 11
51.1962261289
 21
59.0699397271
  0
LINE
  5
27E
100
AcDbEntity
  8
0
100
AcDbLine
 62
7
  6
BYLAYER
 10
51.1962261289
 20
37.5085777784
 11
51.1962261289
 21
36.9892587527
  0
LINE
  5
27F
100
AcDbEntity
  8
0
100
AcDbLine
 62
7
  6
BYLAYER
 10
51.3962261289
 20
36.7892587527
 11
51.3962261289
 21
37.5085777784
  0
LINE
  5
280
100
AcDbEntity
  8
0
100
AcDbLine
 62
7
  6
BYLAYER
 10
51.3962261289
 20
59.0699397271
 11
51.3962261289
 21
59.7892587527
  0
LINE
  5
281
100
AcDbEntity
  8
0
100
AcDbLine
 62
7
  6
BYLAYER
 10
51.4962261289
 20
60.2892135434
 11
51.4962261289
 21
59.7892587527
  0
LINE
  5
282
100
AcDbEntity
  8
0
100
AcDbLine
 62
7
  6
BYLAYER
 10
51.4962261289
 20
59.0699397271
 11
51.4962261289
 21
53.8216802093
  0
LINE
  5
283
100
AcDbEntity
  8
0
100
AcDbLine
 62
7
  6
BYLAYER
 10
51.4962261289
 20
42.7568372962
 11
51.4962261289
 21
37.5085777784
  0
LINE
  5
284
100
AcDbEntity
  8
0
100
AcDbLine
 62
7
  6
BYLAYER
 10
51.4962261289
 20
36.7892587527
 11
51.4962261289
 21
36.2893039621
  0
LINE
  5
285
100
AcDbEntity
  8
0
100
AcDbLine
 62
7
  6
BYLAYER
 10
51.8909900082
 20
41.3681987515
 11
51.8909900082
 21
41.1828356018
  0
LINE
  5
286
100
AcDbEntity
  8
0
100
AcDbLine
 62
7
  6
BYLAYER
 10
51.8962261289
 20
56.7892587527
 11
51.8962261289
 21
41.3681987515
  0
LINE
  5
287
100
AcDbEntity
  8
0
100
AcDbLine
 62
7
  6
BYLAYER
 10
51.8962261289
 20
40.6610919704
 11
51.8962261289
 21
39.7892587527
  0
LINE
  5
288
100
AcDbEntity
  8
0
100
AcDbLine
 62
7
  6
BYLAYER
 10
57.1640887921
 20
38.1439093335
 11
58.1462261289
 21
38.7109465892
  0
LINE
  5
289
100
AcDbEntity
  8
0
100
AcDbLine
 62
7
  6
BYLAYER
 10
58.1462261289
 20
57.8675709162
 11
57.1640887921
 21
58.434608172
  0
LINE
  5
28A
100
AcDbEntity
  8
0
100
AcDbLine
 62
7
  6
BYLAYER
 10
56.1962261289
 20
59.7892587527
 11
56.1962261289
 21
56.7892587527
  0
LINE
  5
28B
100
AcDbEntity
  8
0
100
AcDbLine
 62
7
  6
BYLAYER
 10
56.1962261289
 20
39.7892587527
 11
56.1962261289
 21
36.7892587527
  0
LINE
  5
28C
100
AcDbEntity
  8
0
100
AcDbLine
 62
7
  6
BYLAYER
 10
56.3962261289
 20
59.5892587527
 11
56.3962261289
 21
56.9892587527
  0
LINE
  5
28D
100
AcDbEntity
  8
0
100
AcDbLine
 62
7
  6
BYLAYER
 10
56.3962261289
 20
39.5892587527
 11
56.3962261289
 21
36.9892587527
  0
LINE
  5
28E
100
AcDbEntity
  8
0
100
AcDbLine
 62
7
  6
BYLAYER
 10
56.4618332205
 20
41.2392516674
 11
56.4618332205
 21
41.4246172756
  0
LINE
  5
28F
100
AcDbEntity
  8
0
100
AcDbLine
 62
7
  6
BYLAYER
 10
56.9228149953
 20
58.5015193177
 11
56.9228149953
 21
41.4303137604
  0
LINE
  5
290
100
AcDbEntity
  8
0
100
AcDbLine
 62
7
  6
BYLAYER
 10
56.9228149953
 20
40.7232069792
 11
56.9228149953
 21
38.077202293
  0
LINE
  5
291
100
AcDbEntity
  8
0
100
AcDbLine
 62
7
  6
BYLAYER
 10
56.9243555053
 20
41.4303137604
 11
56.9243555053
 21
41.295536039
  0
LINE
  5
292
100
AcDbEntity
  8
0
100
AcDbLine
 62
7
  6
BYLAYER
 10
57.1640887921
 20
38.1439093335
 11
57.1640887921
 21
40.7705774903
  0
LINE
  5
293
100
AcDbEntity
  8
0
100
AcDbLine
 62
7
  6
BYLAYER
 10
57.1640887921
 20
41.4776842715
 11
57.1640887921
 21
58.434608172
  0
LINE
  5
294
100
AcDbEntity
  8
0
100
AcDbLine
 62
7
  6
BYLAYER
 10
58.1462261289
 20
57.8675709162
 11
58.1462261289
 21
41.8791569222
  0
LINE
  5
295
100
AcDbEntity
  8
0
100
AcDbLine
 62
7
  6
BYLAYER
 10
58.1462261289
 20
41.172050141
 11
58.1462261289
 21
38.7109465892
  0
LINE
  5
296
100
AcDbEntity
  8
0
100
AcDbLine
 62
7
  6
BYLAYER
 10
58.3962261289
 20
57.4345018008
 11
58.3962261289
 21
42.185781005
  0
LINE
  5
297
100
AcDbEntity
  8
0
100
AcDbLine
 62
7
  6
BYLAYER
 10
58.3962261289
 20
41.5173433207
 11
58.3962261289
 21
39.1440100709
  0
LINE
  5
298
100
AcDbEntity
  8
0
100
AcDbLine
 62
7
  6
BYLAYER
 10
58.8094020401
 20
44.51369405
 11
58.8094020401
 21
52.0648234555
  0
LINE
  5
299
100
AcDbEntity
  8
0
100
AcDbLine
 62
7
  6
BYLAYER
 10
56.3962261289
 20
36.9892587527
 11
56.1962261289
 21
36.7892587527
  0
LINE
  5
29A
100
AcDbEntity
  8
0
100
AcDbLine
 62
7
  6
BYLAYER
 10
56.3962261289
 20
59.5892587527
 11
56.1962261289
 21
59.7892587527
  0
LINE
  5
29B
100
AcDbEntity
  8
0
100
AcDbLine
 62
7
  6
BYLAYER
 10
61.0222733556
 20
42.3719088827
 11
61.0222733556
 21
42.5523949056
  0
LINE
  5
29C
100
AcDbEntity
  8
0
100
AcDbLine
 62
7
  6
BYLAYER
 10
61.1462261289
 20
42.5678754141
 11
61.1462261289
 21
42.4763635187
  0
LINE
  5
29D
100
AcDbEntity
  8
0
100
AcDbLine
 62
7
  6
BYLAYER
 10
61.2962261289
 20
42.3703250642
 11
61.2962261289
 21
42.5866089705
  0
LINE
  5
29E
100
AcDbEntity
  8
0
100
AcDbLine
 62
7
  6
BYLAYER
 10
61.3330502177
 20
55.0169064876
 11
61.3330502177
 21
53.6026929252
  0
LINE
  5
29F
100
AcDbEntity
  8
0
100
AcDbLine
 62
7
  6
BYLAYER
 10
61.3330502177
 20
51.7459834783
 11
61.3330502177
 21
44.8325340272
  0
LINE
  5
2A0
100
AcDbEntity
  8
0
100
AcDbLine
 62
7
  6
BYLAYER
 10
61.3330502177
 20
42.9758245802
 11
61.3330502177
 21
42.5912079449
  0
LINE
  5
2A1
100
AcDbEntity
  8
0
100
AcDbLine
 62
7
  6
BYLAYER
 10
61.3330502177
 20
41.8841011637
 11
61.3330502177
 21
41.5616110179
  0
LINE
  5
2A2
100
AcDbEntity
  8
0
100
AcDbLine
 62
7
  6
BYLAYER
 10
61.7462261289
 20
54.6661836517
 11
61.7462261289
 21
41.912333845
  0
ARC
  5
2A3
100
AcDbEntity
  8
0
100
AcDbCircle
 62
7
  6
BYLAYER
 10
175.0111525136
 20
487.5654891743
 40
470.6960317999
100
AcDbArc
 50
252.648543439
 51
252.8093882984
  0
ARC
  5
2A4
100
AcDbEntity
  8
0
100
AcDbCircle
 62
7
  6
BYLAYER
 10
175.0111525126
 20
-390.9869716657
 40
470.6960317966
100
AcDbArc
 50
107.1906117016
 51
107.351456561
  0
ARC
  5
2A5
100
AcDbEntity
  8
0
100
AcDbCircle
 62
7
  6
BYLAYER
 10
14.1962261289
 20
48.2892587527
 40
6.472499726
100
AcDbArc
 50
68.0354891758
 51
291.9645108242
  0
ARC
  5
2A6
100
AcDbEntity
  8
0
100
AcDbCircle
 62
7
  6
BYLAYER
 10
14.1962261289
 20
48.2892587527
 40
6.2224992202
100
AcDbArc
 50
67.1085627097
 51
292.8914245658
  0
ARC
  5
2A7
100
AcDbEntity
  8
0
100
AcDbCircle
 62
7
  6
BYLAYER
 10
15.1962261289
 20
48.2892587527
 40
5.6015622821
100
AcDbArc
 50
130.1695200441
 51
229.8304799559
  0
ARC
  5
2A8
100
AcDbEntity
  8
0
100
AcDbCircle
 62
7
  6
BYLAYER
 10
14.5530732831
 20
48.2893568018
 40
2.985342725
100
AcDbArc
 50
174.215625193
 51
185.784374807
  0
ARC
  5
2A9
100
AcDbEntity
  8
0
100
AcDbCircle
 62
7
  6
BYLAYER
 10
56.3497977036
 20
43.7304627337
 40
2.5017962898
100
AcDbArc
 50
283.2769439572
 51
289.8662010963
  0
ARC
  5
2AA
100
AcDbEntity
  8
0
100
AcDbCircle
 62
7
  6
BYLAYER
 10
29.5962261289
 20
39.5302529357
 40
1.5
100
AcDbArc
 50
180.0
 51
255.0
  0
ARC
  5
2AB
100
AcDbEntity
  8
0
100
AcDbCircle
 62
7
  6
BYLAYER
 10
29.5962261289
 20
57.0482645698
 40
1.5
100
AcDbArc
 50
105.0
 51
180.0
  0
CIRCLE
  5
2AC
100
AcDbEntity
  8
0
100
AcDbCircle
 62
7
  6
BYLAYER
 10
14.1962261289
 20
48.2892587527
 40
1.499999958
  0
CIRCLE
  5
2AD
100
AcDbEntity
  8
0
100
AcDbCircle
 62
7
  6
BYLAYER
 10
14.1962261289
 20
48.2892587527
 40
1.2999995042
  0
CIRCLE
  5
2AE
100
AcDbEntity
  8
0
100
AcDbCircle
 62
7
  6
BYLAYER
 10
14.1962261289
 20
48.2892587527
 40
0.9
  0
ARC
  5
2AF
100
AcDbEntity
  8
0
100
AcDbCircle
 62
7
  6
BYLAYER
 10
57.8962261289
 20
57.4345582144
 40
0.5
100
AcDbArc
 50
0.0
 51
60.0
  0
ARC
  5
2B0
100
AcDbEntity
  8
0
100
AcDbCircle
 62
7
  6
BYLAYER
 10
57.8962261289
 20
39.1439592911
 40
0.5
100
AcDbArc
 50
300.0
 51
360.0
  0
ARC
  5
2B1
100
AcDbEntity
  8
0
100
AcDbCircle
 62
7
  6
BYLAYER
 10
41.3962261289
 20
61.2392587527
 40
0.5
100
AcDbArc
 50
90.0
 51
180.0
  0
ARC
  5
2B2
100
AcDbEntity
  8
0
100
AcDbCircle
 62
7
  6
BYLAYER
 10
41.3962261289
 20
35.3392587527
 40
0.5
100
AcDbArc
 50
180.0
 51
270.0
  0
ARC
  5
2B3
100
AcDbEntity
  8
0
100
AcDbCircle
 62
7
  6
BYLAYER
 10
40.6962261289
 20
35.739135432
 40
0.3
100
AcDbArc
 50
180.0
 51
265.0
  0
ARC
  5
2B4
100
AcDbEntity
  8
0
100
AcDbCircle
 62
7
  6
BYLAYER
 10
40.6962261289
 20
40.8393820735
 40
0.3
100
AcDbArc
 50
95.0
 51
180.0
  0
ARC
  5
2B5
100
AcDbEntity
  8
0
100
AcDbCircle
 62
7
  6
BYLAYER
 10
40.6962261289
 20
55.739135432
 40
0.3
100
AcDbArc
 50
180.0
 51
265.0
  0
ARC
  5
2B6
100
AcDbEntity
  8
0
100
AcDbCircle
 62
7
  6
BYLAYER
 10
40.6962261289
 20
60.8393820735
 40
0.3
100
AcDbArc
 50
95.0
 51
180.0
  0
ARC
  5
2B7
100
AcDbEntity
  8
0
100
AcDbCircle
 62
7
  6
BYLAYER
 10
42.1962261289
 20
42.0892587527
 40
0.2
100
AcDbArc
 50
0.0
 51
90.0
  0
ARC
  5
2B8
100
AcDbEntity
  8
0
100
AcDbCircle
 62
7
  6
BYLAYER
 10
42.1962261289
 20
54.4892587527
 40
0.2
100
AcDbArc
 50
270.0
 51
360.0
  0
SPLINE
  5
2B9
100
AcDbEntity
  8
0
100
AcDbSpline
 62
7
  6
BYLAYER
 70
0
 71
3
 72
13
 73
9
 74
0
 42
0.0000001
 43
0.0000001
 44
0.0000000001
 40
0.0
 40
0.0
 40
0.0
 40
0.0
 40
0.2869642557
 40
0.5521411653
 40
0.673778932
 40
0.7878395383
 40
0.8957996109
 40
1.0
 40
1.0
 40
1.0
 40
1.0
 10
40.6700794061
 20
39.9685254637
 30
0.0
 10
40.6335932179
 20
39.9654596989
 30
0.0
 10
40.5638013902
 20
39.9504171122
 30
0.0
 10
40.4868227758
 20
39.9087144883
 30
0.0
 10
40.4404828985
 20
39.8641908042
 30
0.0
 10
40.4153351722
 20
39.8278557008
 30
0.0
 10
40.3997888504
 20
39.7888411039
 30
0.0
 10
40.3962261289
 20
39.7616566547
 30
0.0
 10
40.3962261289
 20
39.7483613663
 30
0.0
  0
LINE
  5
2BA
100
AcDbEntity
  8
0
100
AcDbLine
 62
7
  6
BYLAYER
 10
41.1962261289
 20
40.0126799493
 11
40.6700794061
 21
39.9685254637
  0
SPLINE
  5
2BB
100
AcDbEntity
  8
0
100
AcDbSpline
 62
7
  6
BYLAYER
 70
0
 71
3
 72
14
 73
10
 74
0
 42
0.0000001
 43
0.0000001
 44
0.0000000001
 40
0.0
 40
0.0
 40
0.0
 40
0.0
 40
0.1048995872
 40
0.2127236991
 40
0.3261106281
 40
0.4468884979
 40
0.5756408254
 40
0.7118594986
 40
1.0
 40
1.0
 40
1.0
 40
1.0
 10
40.3962261289
 20
40.3807052651
 30
0.0
 10
40.3962261289
 20
40.3939383422
 30
0.0
 10
40.3997438764
 20
40.4208945838
 30
0.0
 10
40.4152842265
 20
40.459409152
 30
0.0
 10
40.4404651334
 20
40.4948778504
 30
0.0
 10
40.4742984176
 20
40.5261435959
 30
0.0
 10
40.5156765888
 20
40.5522300987
 30
0.0
 10
40.5801390945
 20
40.5794903586
 30
0.0
 10
40.6337705667
 20
40.5890216385
 30
0.0
 10
40.6700794061
 20
40.5907278949
 30
0.0
  0
LINE
  5
2BC
100
AcDbEntity
  8
0
100
AcDbLine
 62
7
  6
BYLAYER
 10
40.6700794061
 20
40.5907278949
 11
41.1962261289
 21
40.6153978597
  0
SPLINE
  5
2BD
100
AcDbEntity
  8
0
100
AcDbSpline
 62
7
  6
BYLAYER
 70
0
 71
3
 72
13
 73
9
 74
0
 42
0.0000001
 43
0.0000001
 44
0.0000000001
 40
0.0
 40
0.0
 40
0.0
 40
0.0
 40
0.2869642557
 40
0.5521411653
 40
0.673778932
 40
0.7878395383
 40
0.8957996109
 40
1.0
 40
1.0
 40
1.0
 40
1.0
 10
40.6700794061
 20
59.9685254637
 30
0.0
 10
40.6335932179
 20
59.9654596989
 30
0.0
 10
40.5638013902
 20
59.9504171122
 30
0.0
 10
40.4868227758
 20
59.9087144883
 30
0.0
 10
40.4404828985
 20
59.8641908042
 30
0.0
 10
40.4153351722
 20
59.8278557008
 30
0.0
 10
40.3997888504
 20
59.7888411039
 30
0.0
 10
40.3962261289
 20
59.7616566547
 30
0.0
 10
40.3962261289
 20
59.7483613663
 30
0.0
  0
LINE
  5
2BE
100
AcDbEntity
  8
0
100
AcDbLine
 62
7
  6
BYLAYER
 10
41.1962261289
 20
60.0126799493
 11
40.6700794061
 21
59.9685254637
  0
SPLINE
  5
2BF
100
AcDbEntity
  8
0
100
AcDbSpline
 62
7
  6
BYLAYER
 70
0
 71
3
 72
14
 73
10
 74
0
 42
0.0000001
 43
0.0000001
 44
0.0000000001
 40
0.0
 40
0.0
 40
0.0
 40
0.0
 40
0.1048995872
 40
0.2127236991
 40
0.3261106281
 40
0.4468884979
 40
0.5756408254
 40
0.7118594986
 40
1.0
 40
1.0
 40
1.0
 40
1.0
 10
40.3962261289
 20
60.3807052651
 30
0.0
 10
40.3962261289
 20
60.3939383422
 30
0.0
 10
40.3997438764
 20
60.4208945838
 30
0.0
 10
40.4152842265
 20
60.459409152
 30
0.0
 10
40.4404651334
 20
60.4948778504
 30
0.0
 10
40.4742984176
 20
60.5261435959
 30
0.0
 10
40.5156765888
 20
60.5522300987
 30
0.0
 10
40.5801390945
 20
60.5794903586
 30
0.0
 10
40.6337705667
 20
60.5890216385
 30
0.0
 10
40.6700794061
 20
60.5907278949
 30
0.0
  0
LINE
  5
2C0
100
AcDbEntity
  8
0
100
AcDbLine
 62
7
  6
BYLAYER
 10
40.6700794061
 20
60.5907278949
 11
41.1962261289
 21
60.6153978597
  0
SPLINE
  5
2C1
100
AcDbEntity
  8
0
100
AcDbSpline
 62
7
  6
BYLAYER
 70
0
 71
3
 72
19
 73
15
 74
0
 42
0.0000001
 43
0.0000001
 44
0.0000000001
 40
0.0
 40
0.0
 40
0.0
 40
0.0
 40
0.0622915742
 40
0.1243300334
 40
0.1863704042
 40
0.2486394269
 40
0.3740307751
 40
0.5004069959
 40
0.6261337813
 40
0.7503792543
 40
0.8123867996
 40
0.8745308829
 40
0.9370411124
 40
1.0
 40
1.0
 40
1.0
 40
1.0
 10
16.6040814381
 20
49.1594871953
 30
0.0
 10
16.5404481595
 20
49.2735528542
 30
0.0
 10
16.3903364819
 20
49.4889764593
 30
0.0
 10
16.1124487964
 20
49.7661409679
 30
0.0
 10
15.7943878033
 20
49.9957792178
 30
0.0
 10
15.3288495111
 20
50.2385481406
 30
0.0
 10
14.6879923322
 20
50.4217943111
 30
0.0
 10
13.8888681372
 20
50.4444865096
 30
0.0
 10
13.1106811199
 20
50.2711966247
 30
0.0
 10
12.5225295344
 20
49.963736044
 30
0.0
 10
12.1255088109
 20
49.6235922358
 30
0.0
 10
11.8737869641
 20
49.3210665809
 30
0.0
 10
11.6824486268
 20
48.9744862696
 30
0.0
 10
11.6061200543
 20
48.7199996595
 30
0.0
 10
11.5829312337
 20
48.5900384059
 30
0.0
  0
SPLINE
  5
2C2
100
AcDbEntity
  8
0
100
AcDbSpline
 62
7
  6
BYLAYER
 70
0
 71
3
 72
19
 73
15
 74
0
 42
0.0000001
 43
0.0000001
 44
0.0000000001
 40
0.0
 40
0.0
 40
0.0
 40
0.0
 40
0.062958888
 40
0.1254691002
 40
0.1876131935
 40
0.2496207751
 40
0.3738662775
 40
0.4995930429
 40
0.6259692885
 40
0.7513606331
 40
0.8136296656
 40
0.8756699838
 40
0.9377084259
 40
1.0
 40
1.0
 40
1.0
 40
1.0
 10
11.5829312337
 20
47.9884790995
 30
0.0
 10
11.6061200226
 20
47.8585180235
 30
0.0
 10
11.6824484382
 20
47.6040317912
 30
0.0
 10
11.873786343
 20
47.2574518868
 30
0.0
 10
12.125507679
 20
46.9549264322
 30
0.0
 10
12.5225277331
 20
46.6147827019
 30
0.0
 10
13.1106783089
 20
46.3073219722
 30
0.0
 10
13.8888641256
 20
46.1340314746
 30
0.0
 10
14.6879872358
 20
46.1567225203
 30
0.0
 10
15.3288439094
 20
46.3399672601
 30
0.0
 10
15.79438201
 20
46.5827347703
 30
0.0
 10
16.1124430752
 20
46.8123717622
 30
0.0
 10
16.3903312017
 20
47.08953484
 30
0.0
 10
16.5404435134
 20
47.3049575029
 30
0.0
 10
16.604077211
 20
47.4190227226
 30
0.0
  0
LINE
  5
2C3
100
AcDbEntity
  8
0
100
AcDbLine
 62
7
  6
BYLAYER
 10
57.1640887921
 20
41.4776842715
 11
58.1462732041
 21
41.8791761663
  0
SPLINE
  5
2C4
100
AcDbEntity
  8
0
100
AcDbSpline
 62
7
  6
BYLAYER
 70
0
 71
3
 72
11
 73
7
 74
0
 42
0.0000001
 43
0.0000001
 44
0.0000000001
 40
0.0
 40
0.0
 40
0.0
 40
0.0
 40
0.2819921045
 40
0.5406078656
 40
0.7771605199
 40
1.0
 40
1.0
 40
1.0
 40
1.0
 10
58.1462732041
 20
41.8791761663
 30
0.0
 10
58.1826510262
 20
41.8940476259
 30
0.0
 10
58.2498218748
 20
41.9297762515
 30
0.0
 10
58.3312492388
 20
42.0031044003
 30
0.0
 10
58.3838570892
 20
42.0902119083
 30
0.0
 10
58.3962261289
 20
42.1547597156
 30
0.0
 10
58.3962261289
 20
42.1858160377
 30
0.0
  0
LINE
  5
2C5
100
AcDbEntity
  8
0
100
AcDbLine
 62
7
  6
BYLAYER
 10
61.3330502177
 20
55.0169064876
 11
58.3962261289
 21
55.3854477289
  0
SPLINE
  5
2C6
100
AcDbEntity
  8
0
100
AcDbSpline
 62
7
  6
BYLAYER
 70
0
 71
3
 72
13
 73
9
 74
0
 42
0.0000001
 43
0.0000001
 44
0.0000000001
 40
0.0
 40
0.0
 40
0.0
 40
0.0
 40
0.1054788483
 40
0.2141163853
 40
0.3281209058
 40
0.4491362507
 40
0.7126277966
 40
1.0
 40
1.0
 40
1.0
 40
1.0
 10
61.7462261289
 20
54.6661830754
 30
0.0
 10
61.7462261289
 20
54.6868737184
 30
0.0
 10
61.7409713001
 20
54.7290391451
 30
0.0
 10
61.7179353762
 20
54.7897212088
 30
0.0
 10
61.6804850088
 20
54.8463811146
 30
0.0
 10
61.6112444629
 20
54.9161799494
 30
0.0
 10
61.4951001405
 20
54.9833088138
 30
0.0
 10
61.3889818901
 20
55.009884881
 30
0.0
 10
61.3330502177
 20
55.0169064876
 30
0.0
  0
SPLINE
  5
2C7
100
AcDbEntity
  8
0
100
AcDbSpline
 62
7
  6
BYLAYER
 70
0
 71
3
 72
13
 73
9
 74
0
 42
0.0000001
 43
0.0000001
 44
0.0000000001
 40
0.0
 40
0.0
 40
0.0
 40
0.0
 40
0.2873747124
 40
0.5508634334
 40
0.6718773298
 40
0.7858813071
 40
0.8945201449
 40
1.0
 40
1.0
 40
1.0
 40
1.0
 10
61.3330502177
 20
41.5616110179
 30
0.0
 10
61.3889823417
 20
41.5686326812
 30
0.0
 10
61.495100496
 20
41.5952087025
 30
0.0
 10
61.6112443232
 20
41.6623375256
 30
0.0
 10
61.6804841815
 20
41.7321355265
 30
0.0
 10
61.7179349977
 20
41.7887949696
 30
0.0
 10
61.7409706703
 20
41.8494774332
 30
0.0
 10
61.7462261289
 20
41.8916432006
 30
0.0
 10
61.7462261289
 20
41.9123340276
 30
0.0
  0
LINE
  5
2C8
100
AcDbEntity
  8
0
100
AcDbLine
 62
7
  6
BYLAYER
 10
58.3962261289
 20
41.1930697765
 11
61.3330502177
 21
41.5616110179
  0
LINE
  5
2C9
100
AcDbEntity
  8
0
100
AcDbLine
 62
7
  6
BYLAYER
 10
58.3962261289
 20
42.2244501019
 11
61.3332444629
 21
42.5912322042
  0
SPLINE
  5
2CA
100
AcDbEntity
  8
0
100
AcDbSpline
 62
7
  6
BYLAYER
 70
0
 71
3
 72
13
 73
9
 74
0
 42
0.0000001
 43
0.0000001
 44
0.0000000001
 40
0.0
 40
0.0
 40
0.0
 40
0.0
 40
0.2872854972
 40
0.5508708406
 40
0.6719547809
 40
0.7859799432
 40
0.8945823709
 40
1.0
 40
1.0
 40
1.0
 40
1.0
 10
61.3332444629
 20
42.5912322042
 30
0.0
 10
61.3890264548
 20
42.5981990742
 30
0.0
 10
61.4948947762
 20
42.6245938301
 30
0.0
 10
61.6109541452
 20
42.6912000611
 30
0.0
 10
61.6803006162
 20
42.7606032614
 30
0.0
 10
61.7178613004
 20
42.8170070093
 30
0.0
 10
61.7409645333
 20
42.8774855533
 30
0.0
 10
61.7462261289
 20
42.9195310805
 30
0.0
 10
61.7462261289
 20
42.9401589616
 30
0.0
  0
SPLINE
  5
2CB
100
AcDbEntity
  8
0
100
AcDbSpline
 62
7
  6
BYLAYER
 70
0
 71
3
 72
9
 73
5
 74
0
 42
0.0000001
 43
0.0000001
 44
0.0000000001
 40
0.0
 40
0.0
 40
0.0
 40
0.0
 40
0.2432882329
 40
1.0
 40
1.0
 40
1.0
 40
1.0
 10
57.1640887921
 20
41.4776842715
 30
0.0
 10
57.1455699031
 20
41.4701147684
 30
0.0
 10
57.0678678526
 20
41.4429553023
 30
0.0
 10
56.9850364367
 20
41.4310826566
 30
0.0
 10
56.9228149953
 20
41.4303137604
 30
0.0
  0
LINE
  5
2CC
100
AcDbEntity
  8
0
100
AcDbLine
 62
7
  6
BYLAYER
 10
58.3962261289
 20
53.9712341666
 11
61.3330502177
 21
53.6026929252
  0
SPLINE
  5
2CD
100
AcDbEntity
  8
0
100
AcDbSpline
 62
7
  6
BYLAYER
 70
0
 71
3
 72
13
 73
9
 74
0
 42
0.0000001
 43
0.0000001
 44
0.0000000001
 40
0.0
 40
0.0
 40
0.0
 40
0.0
 40
0.1055356222
 40
0.2142059672
 40
0.3282041401
 40
0.4491770291
 40
0.7125747584
 40
1.0
 40
1.0
 40
1.0
 40
1.0
 10
58.3962261289
 20
44.1614984674
 30
0.0
 10
58.3962261289
 20
44.1822354872
 30
0.0
 10
58.4014688759
 20
44.2244888597
 30
0.0
 10
58.4244505463
 20
44.2853223934
 30
0.0
 10
58.4618244321
 20
44.3421636718
 30
0.0
 10
58.5309589148
 20
44.4122605813
 30
0.0
 10
58.6471007923
 20
44.4798316214
 30
0.0
 10
58.7533695705
 20
44.5066214255
 30
0.0
 10
58.8094020401
 20
44.51369405
 30
0.0
  0
SPLINE
  5
2CE
100
AcDbEntity
  8
0
100
AcDbSpline
 62
7
  6
BYLAYER
 70
0
 71
3
 72
13
 73
9
 74
0
 42
0.0000001
 43
0.0000001
 44
0.0000000001
 40
0.0
 40
0.0
 40
0.0
 40
0.0
 40
0.2874230388
 40
0.5508168323
 40
0.671788652
 40
0.7857879347
 40
0.8944644069
 40
1.0
 40
1.0
 40
1.0
 40
1.0
 10
58.8094020401
 20
52.0648234555
 30
0.0
 10
58.7533762318
 20
52.0718952392
 30
0.0
 10
58.6471203864
 20
52.0986802238
 30
0.0
 10
58.5309896007
 20
52.1662357178
 30
0.0
 10
58.4618554732
 20
52.2363164785
 30
0.0
 10
58.4244781484
 20
52.2931474151
 30
0.0
 10
58.4014812306
 20
52.353967975
 30
0.0
 10
58.3962261289
 20
52.3962174353
 30
0.0
 10
58.3962261289
 20
52.416952143
 30
0.0
  0
LINE
  5
2CF
100
AcDbEntity
  8
0
100
AcDbLine
 62
7
  6
BYLAYER
 10
58.8094020401
 20
44.51369405
 11
61.3330502177
 21
44.8325340272
  0
LINE
  5
2D0
100
AcDbEntity
  8
0
100
AcDbLine
 62
7
  6
BYLAYER
 10
61.3330502177
 20
51.7459834783
 11
58.8094020401
 21
52.0648234555
  0
SPLINE
  5
2D1
100
AcDbEntity
  8
0
100
AcDbSpline
 62
7
  6
BYLAYER
 70
0
 71
3
 72
13
 73
9
 74
0
 42
0.0000001
 43
0.0000001
 44
0.0000000001
 40
0.0
 40
0.0
 40
0.0
 40
0.0
 40
0.2875243145
 40
0.5508564738
 40
0.6717684538
 40
0.7857278667
 40
0.8944101688
 40
1.0
 40
1.0
 40
1.0
 40
1.0
 10
61.3330502177
 20
44.8325340272
 30
0.0
 10
61.3892089642
 20
44.8396362605
 30
0.0
 10
61.4956844417
 20
44.8665605088
 30
0.0
 10
61.6119177126
 20
44.9345235329
 30
0.0
 10
61.680939067
 20
45.0049576474
 30
0.0
 10
61.7181780034
 20
45.0620236501
 30
0.0
 10
61.7410259333
 20
45.1230427584
 30
0.0
 10
61.7462261289
 20
45.1653891321
 30
0.0
 10
61.7462261289
 20
45.1861770255
 30
0.0
  0
SPLINE
  5
2D2
100
AcDbEntity
  8
0
100
AcDbSpline
 62
7
  6
BYLAYER
 70
0
 71
3
 72
13
 73
9
 74
0
 42
0.0000001
 43
0.0000001
 44
0.0000000001
 40
0.0
 40
0.0
 40
0.0
 40
0.0
 40
0.1055875573
 40
0.2142678846
 40
0.3282287595
 40
0.449144008
 40
0.7124822875
 40
1.0
 40
1.0
 40
1.0
 40
1.0
 10
61.7462261289
 20
51.3923497086
 30
0.0
 10
61.7462261289
 20
51.4131368351
 30
0.0
 10
61.7410254882
 20
51.4554818466
 30
0.0
 10
61.7181747053
 20
51.516498132
 30
0.0
 10
61.6809361823
 20
51.5735636233
 30
0.0
 10
61.6119132441
 20
51.6439972592
 30
0.0
 10
61.4956804796
 20
51.7119579125
 30
0.0
 10
61.3892068124
 20
51.7388815171
 30
0.0
 10
61.3330502177
 20
51.7459834783
 30
0.0
  0
SPLINE
  5
2D3
100
AcDbEntity
  8
0
100
AcDbSpline
 62
7
  6
BYLAYER
 70
0
 71
3
 72
13
 73
9
 74
0
 42
0.0000001
 43
0.0000001
 44
0.0000000001
 40
0.0
 40
0.0
 40
0.0
 40
0.0
 40
0.2873746976
 40
0.5508634183
 40
0.671877317
 40
0.785881299
 40
0.8945201484
 40
1.0
 40
1.0
 40
1.0
 40
1.0
 10
61.3330502177
 20
53.6026929252
 30
0.0
 10
61.3889823226
 20
53.5956712643
 30
0.0
 10
61.4951004431
 20
53.5690952554
 30
0.0
 10
61.6112442428
 20
53.5019664729
 30
0.0
 10
61.6804841025
 20
53.4321685116
 30
0.0
 10
61.7179349263
 20
53.3755090941
 30
0.0
 10
61.7409706397
 20
53.3148266662
 30
0.0
 10
61.7462261289
 20
53.2726609103
 30
0.0
 10
61.7462261289
 20
53.25197009
 30
0.0
  0
SPLINE
  5
2D4
100
AcDbEntity
  8
0
100
AcDbSpline
 62
7
  6
BYLAYER
 70
0
 71
3
 72
13
 73
9
 74
0
 42
0.0000001
 43
0.0000001
 44
0.0000000001
 40
0.0
 40
0.0
 40
0.0
 40
0.0
 40
0.1054176435
 40
0.2140200667
 40
0.3280452259
 40
0.4491291604
 40
0.7127144898
 40
1.0
 40
1.0
 40
1.0
 40
1.0
 10
61.7462261289
 20
42.2330523877
 30
0.0
 10
61.7462261289
 20
42.2124245067
 30
0.0
 10
61.7409645731
 20
42.1703789829
 30
0.0
 10
61.7178614088
 20
42.1099004184
 30
0.0
 10
61.6803007618
 20
42.0534966593
 30
0.0
 10
61.6109543488
 20
41.9840934267
 30
0.0
 10
61.4948950248
 20
41.9174871628
 30
0.0
 10
61.3890267354
 20
41.891092328
 30
0.0
 10
61.3332447489
 20
41.8841254587
 30
0.0
  0
LINE
  5
2D5
100
AcDbEntity
  8
0
100
AcDbLine
 62
7
  6
BYLAYER
 10
61.3332447489
 20
41.8841254587
 11
58.3962261289
 21
41.5173433207
  0
SPLINE
  5
2D6
100
AcDbEntity
  8
0
100
AcDbSpline
 62
7
  6
BYLAYER
 70
0
 71
3
 72
11
 73
7
 74
0
 42
0.0000001
 43
0.0000001
 44
0.0000000001
 40
0.0
 40
0.0
 40
0.0
 40
0.0
 40
0.2228395325
 40
0.4593922309
 40
0.7180079649
 40
1.0
 40
1.0
 40
1.0
 40
1.0
 10
58.3962261289
 20
41.4787090999
 30
0.0
 10
58.3962261289
 20
41.4476527957
 30
0.0
 10
58.3838570339
 20
41.3831050368
 30
0.0
 10
58.3312492189
 20
41.2959976027
 30
0.0
 10
58.2498219253
 20
41.2226695223
 30
0.0
 10
58.1826511609
 20
41.1869408998
 30
0.0
 10
58.1462733774
 20
41.1720694559
 30
0.0
  0
LINE
  5
2D7
100
AcDbEntity
  8
0
100
AcDbLine
 62
7
  6
BYLAYER
 10
58.1462733774
 20
41.1720694559
 11
57.1640887921
 21
40.7705774903
  0
LINE
  5
2D8
100
AcDbEntity
  8
0
100
AcDbLine
 62
7
  6
BYLAYER
 10
61.3330502177
 20
42.9758245802
 11
58.3962261289
 21
42.6072833389
  0
SPLINE
  5
2D9
100
AcDbEntity
  8
0
100
AcDbSpline
 62
7
  6
BYLAYER
 70
0
 71
3
 72
13
 73
9
 74
0
 42
0.0000001
 43
0.0000001
 44
0.0000000001
 40
0.0
 40
0.0
 40
0.0
 40
0.0
 40
0.1054788483
 40
0.2141163853
 40
0.3281209058
 40
0.4491362507
 40
0.7126277966
 40
1.0
 40
1.0
 40
1.0
 40
1.0
 10
61.7462261289
 20
43.3265479925
 30
0.0
 10
61.7462261289
 20
43.3058573494
 30
0.0
 10
61.7409713001
 20
43.2636919227
 30
0.0
 10
61.7179353762
 20
43.203009859
 30
0.0
 10
61.6804850088
 20
43.1463499533
 30
0.0
 10
61.6112444629
 20
43.0765511184
 30
0.0
 10
61.4951001405
 20
43.009422254
 30
0.0
 10
61.3889818901
 20
42.9828461869
 30
0.0
 10
61.3330502177
 20
42.9758245802
 30
0.0
  0
SPLINE
  5
2DA
100
AcDbEntity
  8
0
100
AcDbSpline
 62
7
  6
BYLAYER
 70
0
 71
3
 72
9
 73
5
 74
0
 42
0.0000001
 43
0.0000001
 44
0.0000000001
 40
0.0
 40
0.0
 40
0.0
 40
0.0
 40
0.2473974051
 40
1.0
 40
1.0
 40
1.0
 40
1.0
 10
56.9720174577
 20
41.0889006463
 30
0.0
 10
56.9309424451
 20
41.0791659334
 30
0.0
 10
56.7638152001
 20
41.0445752322
 30
0.0
 10
56.5928671793
 20
41.0287207752
 30
0.0
 10
56.4644622333
 20
41.027135925
 30
0.0
  0
SPLINE
  5
2DB
100
AcDbEntity
  8
0
100
AcDbSpline
 62
7
  6
BYLAYER
 70
0
 71
3
 72
10
 73
6
 74
0
 42
0.0000001
 43
0.0000001
 44
0.0000000001
 40
0.0
 40
0.0
 40
0.0
 40
0.0
 40
0.4743301753
 40
0.7319343625
 40
1.0
 40
1.0
 40
1.0
 40
1.0
 10
58.1011833876
 20
41.7125481544
 30
0.0
 10
57.9628481746
 20
41.5592630788
 30
0.0
 10
57.7017079007
 20
41.3637108128
 30
0.0
 10
57.305385304
 20
41.1825869147
 30
0.0
 10
57.085562064
 20
41.1158105382
 30
0.0
 10
56.9720174577
 20
41.0889006463
 30
0.0
  0
SPLINE
  5
2DC
100
AcDbEntity
  8
0
100
AcDbSpline
 62
7
  6
BYLAYER
 70
0
 71
3
 72
10
 73
6
 74
0
 42
0.0000001
 43
0.0000001
 44
0.0000000001
 40
0.0
 40
0.0
 40
0.0
 40
0.0
 40
0.2692695851
 40
0.5285864729
 40
1.0
 40
1.0
 40
1.0
 40
1.0
 10
58.3354653283
 20
41.8231440004
 30
0.0
 10
58.3119977063
 20
41.8202180103
 30
0.0
 10
58.2662267343
 20
41.8110501242
 30
0.0
 10
58.1836898727
 20
41.7807535127
 30
0.0
 10
58.1289225669
 20
41.7432851025
 30
0.0
 10
58.1011833876
 20
41.7125481544
 30
0.0
  0
SPLINE
  5
2DD
100
AcDbEntity
  8
0
100
AcDbSpline
 62
7
  6
BYLAYER
 70
0
 71
3
 72
13
 73
9
 74
0
 42
0.0000001
 43
0.0000001
 44
0.0000000001
 40
0.0
 40
0.0
 40
0.0
 40
0.0
 40
0.1053282683
 40
0.2140385851
 40
0.4481202269
 40
0.5767629241
 40
0.7126621252
 40
1.0
 40
1.0
 40
1.0
 40
1.0
 10
61.2962261289
 20
42.3703250642
 30
0.0
 10
61.2962261289
 20
42.3579695865
 30
0.0
 10
61.2930172857
 20
42.3327636501
 30
0.0
 10
61.2740911305
 20
42.2832726516
 30
0.0
 10
61.2369993943
 20
42.2399176202
 30
0.0
 10
61.1889469277
 20
42.2063595936
 30
0.0
 10
61.1306433245
 20
42.1777157131
 30
0.0
 10
61.0817292402
 20
42.1655536879
 30
0.0
 10
61.0482821949
 20
42.1613834432
 30
0.0
  0
SPLINE
  5
2DE
100
AcDbEntity
  8
0
100
AcDbSpline
 62
7
  6
BYLAYER
 70
0
 71
3
 72
9
 73
5
 74
0
 42
0.0000001
 43
0.0000001
 44
0.0000000001
 40
0.0
 40
0.0
 40
0.0
 40
0.0
 40
0.2558965476
 40
1.0
 40
1.0
 40
1.0
 40
1.0
 10
56.9228149953
 20
40.7232069792
 30
0.0
 10
56.9438540382
 20
40.7234669674
 30
0.0
 10
57.0259555336
 20
40.7281464156
 30
0.0
 10
57.107454547
 20
40.7474285265
 30
0.0
 10
57.1640887921
 20
40.7705774903
 30
0.0
  0
SPLINE
  5
2DF
100
AcDbEntity
  8
0
100
AcDbSpline
 62
7
  6
BYLAYER
 70
0
 71
3
 72
9
 73
5
 74
0
 42
0.0000001
 43
0.0000001
 44
0.0000000001
 40
0.0
 40
0.0
 40
0.0
 40
0.0
 40
0.5000204628
 40
1.0
 40
1.0
 40
1.0
 40
1.0
 10
51.8909900082
 20
41.1828356018
 30
0.0
 10
51.8909822179
 20
41.1474781189
 30
0.0
 10
51.8915198114
 20
41.0767737199
 30
0.0
 10
51.8930550605
 20
41.0060500696
 30
0.0
 10
51.892298938
 20
40.9707035662
 30
0.0
  0
SPLINE
  5
2E0
100
AcDbEntity
  8
0
100
AcDbSpline
 62
7
  6
BYLAYER
 70
0
 71
3
 72
9
 73
5
 74
0
 42
0.0000001
 43
0.0000001
 44
0.0000000001
 40
0.0
 40
0.0
 40
0.0
 40
0.0
 40
0.4999842299
 40
1.0
 40
1.0
 40
1.0
 40
1.0
 10
56.4618332205
 20
41.2392516674
 30
0.0
 10
56.4618332205
 20
41.2038969816
 30
0.0
 10
56.4624941157
 20
41.1331868444
 30
0.0
 10
56.4635785551
 20
41.0624819358
 30
0.0
 10
56.4644510815
 20
41.0271357874
 30
0.0
  0
SPLINE
  5
2E1
100
AcDbEntity
  8
0
100
AcDbSpline
 62
7
  6
BYLAYER
 70
0
 71
3
 72
9
 73
5
 74
0
 42
0.0000001
 43
0.0000001
 44
0.0000000001
 40
0.0
 40
0.0
 40
0.0
 40
0.0
 40
0.2473973782
 40
1.0
 40
1.0
 40
1.0
 40
1.0
 10
56.9243555053
 20
41.295536039
 30
0.0
 10
56.8869248867
 20
41.2866650417
 30
0.0
 10
56.7346260944
 20
41.2551431404
 30
0.0
 10
56.5788454122
 20
41.2406959014
 30
0.0
 10
56.4618332205
 20
41.2392516674
 30
0.0
  0
SPLINE
  5
2E2
100
AcDbEntity
  8
0
100
AcDbSpline
 62
7
  6
BYLAYER
 70
0
 71
3
 72
11
 73
7
 74
0
 42
0.0000001
 43
0.0000001
 44
0.0000000001
 40
0.0
 40
0.0
 40
0.0
 40
0.0
 40
0.2268564718
 40
0.4948409566
 40
0.7655272504
 40
1.0
 40
1.0
 40
1.0
 40
1.0
 10
56.9243555052
 20
41.295536039
 30
0.0
 10
56.9243555052
 20
41.2794089957
 30
0.0
 10
56.9275660819
 20
41.2442551191
 30
0.0
 10
56.9375737063
 20
41.1907127178
 30
0.0
 10
56.9521979817
 20
41.1376755331
 30
0.0
 10
56.96488473
 20
41.1039648009
 30
0.0
 10
56.9720241066
 20
41.0889026804
 30
0.0
  0
SPLINE
  5
2E3
100
AcDbEntity
  8
0
100
AcDbSpline
 62
7
  6
BYLAYER
 70
0
 71
3
 72
9
 73
5
 74
0
 42
0.0000001
 43
0.0000001
 44
0.0000000001
 40
0.0
 40
0.0
 40
0.0
 40
0.0
 40
0.4842605201
 40
1.0
 40
1.0
 40
1.0
 40
1.0
 10
57.8408928457
 20
41.7445911441
 30
0.0
 10
57.7505711485
 20
41.6660023528
 30
0.0
 10
57.5462048513
 20
41.5236345761
 30
0.0
 10
57.3198722498
 20
41.4209315536
 30
0.0
 10
57.1999701601
 20
41.3775514583
 30
0.0
  0
SPLINE
  5
2E4
100
AcDbEntity
  8
0
100
AcDbSpline
 62
7
  6
BYLAYER
 70
0
 71
3
 72
10
 73
6
 74
0
 42
0.0000001
 43
0.0000001
 44
0.0000000001
 40
0.0
 40
0.0
 40
0.0
 40
0.0
 40
0.2205748635
 40
0.4788165746
 40
1.0
 40
1.0
 40
1.0
 40
1.0
 10
58.3354492667
 20
41.8231419979
 30
0.0
 10
58.3322416521
 20
41.8360051797
 30
0.0
 10
58.3264003305
 20
41.8642073414
 30
0.0
 10
58.3169170291
 20
41.9235586348
 30
0.0
 10
58.3120220677
 20
41.9702262284
 30
0.0
 10
58.3103523951
 20
42.0015060817
 30
0.0
  0
SPLINE
  5
2E5
100
AcDbEntity
  8
0
100
AcDbSpline
 62
7
  6
BYLAYER
 70
0
 71
3
 72
9
 73
5
 74
0
 42
0.0000001
 43
0.0000001
 44
0.0000000001
 40
0.0
 40
0.0
 40
0.0
 40
0.0
 40
0.4960078451
 40
1.0
 40
1.0
 40
1.0
 40
1.0
 10
57.9898929468
 20
41.8184793146
 30
0.0
 10
58.0013828893
 20
41.7954405677
 30
0.0
 10
58.0339790477
 20
41.7536333677
 30
0.0
 10
58.0773401402
 20
41.7233067604
 30
0.0
 10
58.1011845158
 20
41.7125476435
 30
0.0
  0
SPLINE
  5
2E6
100
AcDbEntity
  8
0
100
AcDbSpline
 62
7
  6
BYLAYER
 70
0
 71
3
 72
11
 73
7
 74
0
 42
0.0000001
 43
0.0000001
 44
0.0000000001
 40
0.0
 40
0.0
 40
0.0
 40
0.0
 40
0.2130075905
 40
0.4476459831
 40
0.7120137246
 40
1.0
 40
1.0
 40
1.0
 40
1.0
 10
61.1462261289
 20
42.4763635187
 30
0.0
 10
61.1462261289
 20
42.4639009879
 30
0.0
 10
61.1392284691
 20
42.4374130324
 30
0.0
 10
61.1113329547
 20
42.4050734322
 30
0.0
 10
61.0707638914
 20
42.3818958326
 30
0.0
 10
61.0389932388
 20
42.3739935512
 30
0.0
 10
61.0222733556
 20
42.3719088827
 30
0.0
  0
SPLINE
  5
2E7
100
AcDbEntity
  8
0
100
AcDbSpline
 62
7
  6
BYLAYER
 70
0
 71
3
 72
12
 73
8
 74
0
 42
0.0000001
 43
0.0000001
 44
0.0000000001
 40
0.0
 40
0.0
 40
0.0
 40
0.0
 40
0.287437472
 40
0.5543175955
 40
0.7890719619
 40
0.8966081217
 40
1.0
 40
1.0
 40
1.0
 40
1.0
 10
61.2962261289
 20
42.3702975015
 30
0.0
 10
61.2769036179
 20
42.3702975015
 30
0.0
 10
61.2394046621
 20
42.3753787356
 30
0.0
 10
61.1903110835
 20
42.3974570411
 30
0.0
 10
61.160338095
 20
42.4274053658
 30
0.0
 10
61.1482794411
 20
42.4551683598
 30
0.0
 10
61.1462261289
 20
42.4694131698
 30
0.0
 10
61.1462261289
 20
42.4763635187
 30
0.0
  0
SPLINE
  5
2E8
100
AcDbEntity
  8
0
100
AcDbSpline
 62
7
  6
BYLAYER
 70
0
 71
3
 72
11
 73
7
 74
0
 42
0.0000001
 43
0.0000001
 44
0.0000000001
 40
0.0
 40
0.0
 40
0.0
 40
0.0
 40
0.2286317406
 40
0.4984452907
 40
0.7690687819
 40
1.0
 40
1.0
 40
1.0
 40
1.0
 10
61.0222733557
 20
42.3719088827
 30
0.0
 10
61.0222733557
 20
42.3557151093
 30
0.0
 10
61.0240279382
 20
42.3204181819
 30
0.0
 10
61.0294713304
 20
42.2662037663
 30
0.0
 10
61.0374323564
 20
42.2121362824
 30
0.0
 10
61.0443630142
 20
42.1772588763
 30
0.0
 10
61.0483205823
 20
42.1613882294
 30
0.0
  0
SPLINE
  5
2E9
100
AcDbEntity
  8
0
100
AcDbSpline
 62
7
  6
BYLAYER
 70
0
 71
3
 72
11
 73
7
 74
0
 42
0.0000001
 43
0.0000001
 44
0.0000000001
 40
0.0
 40
0.0
 40
0.0
 40
0.0
 40
0.2499000725
 40
0.4998557879
 40
0.7499210929
 40
1.0
 40
1.0
 40
1.0
 40
1.0
 10
16.7962261289
 20
55.9949384762
 30
0.0
 10
16.7697207874
 20
55.9949384762
 30
0.0
 10
16.7160737293
 20
55.9836421564
 30
0.0
 10
16.6495871467
 20
55.9362758853
 30
0.0
 10
16.60622339
 20
55.8673145896
 30
0.0
 10
16.5962261289
 20
55.8137448891
 30
0.0
 10
16.5962261289
 20
55.7872205797
 30
0.0
  0
SPLINE
  5
2EA
100
AcDbEntity
  8
0
100
AcDbSpline
 62
7
  6
BYLAYER
 70
0
 71
3
 72
11
 73
7
 74
0
 42
0.0000001
 43
0.0000001
 44
0.0000000001
 40
0.0
 40
0.0
 40
0.0
 40
0.0
 40
0.2500619808
 40
0.5001481989
 40
0.7501265381
 40
1.0
 40
1.0
 40
1.0
 40
1.0
 10
16.5962261289
 20
40.7912830923
 30
0.0
 10
16.5962261289
 20
40.7647616926
 30
0.0
 10
16.6062273169
 20
40.711194468
 30
0.0
 10
16.6495925552
 20
40.6422350944
 30
0.0
 10
16.7160805137
 20
40.5948726012
 30
0.0
 10
16.7697247234
 20
40.5835790293
 30
0.0
 10
16.7962261289
 20
40.5835790293
 30
0.0
  0
SPLINE
  5
2EB
100
AcDbEntity
  8
0
100
AcDbSpline
 62
7
  6
BYLAYER
 70
0
 71
3
 72
15
 73
11
 74
0
 42
0.0000001
 43
0.0000001
 44
0.0000000001
 40
0.0
 40
0.0
 40
0.0
 40
0.0
 40
0.1238385537
 40
0.2400397825
 40
0.3543972829
 40
0.4709826219
 40
0.592393107
 40
0.7202875625
 40
0.855836515
 40
1.0
 40
1.0
 40
1.0
 40
1.0
 10
29.2079975613
 20
55.0605466355
 30
0.0
 10
29.1756476084
 20
55.084631357
 30
0.0
 10
29.1183365538
 20
55.1393126658
 30
0.0
 10
29.0575030026
 20
55.2387652633
 30
0.0
 10
29.0228805125
 20
55.3474196025
 30
0.0
 10
29.0120049378
 20
55.4624331551
 30
0.0
 10
29.0237540655
 20
55.5816960229
 30
0.0
 10
29.058612417
 20
55.7028125362
 30
0.0
 10
29.1183731996
 20
55.8221793195
 30
0.0
 10
29.1750964969
 20
55.8945323172
 30
0.0
 10
29.2079975613
 20
55.9280264338
 30
0.0
  0
SPLINE
  5
2EC
100
AcDbEntity
  8
0
100
AcDbSpline
 62
7
  6
BYLAYER
 70
0
 71
3
 72
15
 73
11
 74
0
 42
0.0000001
 43
0.0000001
 44
0.0000000001
 40
0.0
 40
0.0
 40
0.0
 40
0.0
 40
0.1441636513
 40
0.2797125485
 40
0.4076071185
 40
0.5290175663
 40
0.6456029327
 40
0.7599603176
 40
0.8761615852
 40
1.0
 40
1.0
 40
1.0
 40
1.0
 10
29.2079975613
 20
40.6504910716
 30
0.0
 10
29.175096459
 20
40.6839852269
 30
0.0
 10
29.1183731438
 20
40.7563382601
 30
0.0
 10
29.0586123569
 20
40.8757051214
 30
0.0
 10
29.0237540138
 20
40.9968216468
 30
0.0
 10
29.0120049367
 20
41.1160845554
 30
0.0
 10
29.0228805625
 20
41.2310980606
 30
0.0
 10
29.0575030633
 20
41.3397523776
 30
0.0
 10
29.1183366146
 20
41.4392048942
 30
0.0
 10
29.1756476447
 20
41.4938861755
 30
0.0
 10
29.2079975613
 20
41.51797087
 30
0.0
  0
SPLINE
  5
2ED
100
AcDbEntity
  8
0
100
AcDbSpline
 62
7
  6
BYLAYER
 70
0
 71
3
 72
20
 73
16
 74
0
 42
0.0000001
 43
0.0000001
 44
0.0000000001
 40
0.0
 40
0.0
 40
0.0
 40
0.0
 40
0.0269581318
 40
0.0548367051
 40
0.083442462
 40
0.112626248
 40
0.1722853377
 40
0.2332097185
 40
0.295031421
 40
0.3575211592
 40
0.4839384878
 40
0.6117257957
 40
0.740478549
 40
0.8699549806
 40
1.0
 40
1.0
 40
1.0
 40
1.0
 10
29.2079975613
 20
55.0605466355
 30
0.0
 10
29.2478833915
 20
55.0308514109
 30
0.0
 10
29.3332006102
 20
54.9760107108
 30
0.0
 10
29.4701208078
 20
54.9054036681
 30
0.0
 10
29.6154019344
 20
54.842975306
 30
0.0
 10
29.818849871
 20
54.7683070707
 30
0.0
 10
30.0839855058
 20
54.6897885437
 30
0.0
 10
30.4116089227
 20
54.6127126451
 30
0.0
 10
30.7472799871
 20
54.5484789747
 30
0.0
 10
31.2041718428
 20
54.476383143
 30
0.0
 10
31.7845319596
 20
54.4079525437
 30
0.0
 10
32.4887319
 20
54.3510434106
 30
0.0
 10
33.1998828786
 20
54.3139937155
 30
0.0
 10
33.9158379441
 20
54.2934480023
 30
0.0
 10
34.3945570088
 20
54.2892587527
 30
0.0
 10
34.6344338942
 20
54.2892587527
 30
0.0
  0
SPLINE
  5
2EE
100
AcDbEntity
  8
0
100
AcDbSpline
 62
7
  6
BYLAYER
 70
0
 71
3
 72
19
 73
15
 74
0
 42
0.0000001
 43
0.0000001
 44
0.0000000001
 40
0.0
 40
0.0
 40
0.0
 40
0.0
 40
0.1268851898
 40
0.2537257173
 40
0.3804559313
 40
0.5069681036
 40
0.6330668652
 40
0.6958535194
 40
0.7583560089
 40
0.8204289122
 40
0.8818144556
 40
0.942014087
 40
0.9713893251
 40
1.0
 40
1.0
 40
1.0
 40
1.0
 10
34.6344338942
 20
58.2892587527
 30
0.0
 10
34.3941134566
 20
58.2141634776
 30
0.0
 10
33.9143965424
 20
58.061290937
 30
0.0
 10
33.1981993908
 20
57.8224590385
 30
0.0
 10
32.4866882997
 20
57.5721739926
 30
0.0
 10
31.7819242054
 20
57.3075891278
 30
0.0
 10
31.2022394474
 20
57.0713201648
 30
0.0
 10
30.7462292342
 20
56.8690077958
 30
0.0
 10
30.4103399889
 20
56.7095118536
 30
0.0
 10
30.0823747101
 20
56.5401665037
 30
0.0
 10
29.7663959824
 20
56.3583268043
 30
0.0
 10
29.5167614708
 20
56.1919657142
 30
0.0
 10
29.3327068658
 20
56.0464300088
 30
0.0
 10
29.2477816681
 20
55.9685276621
 30
0.0
 10
29.2079975613
 20
55.9280264338
 30
0.0
  0
SPLINE
  5
2EF
100
AcDbEntity
  8
0
100
AcDbSpline
 62
7
  6
BYLAYER
 70
0
 71
3
 72
20
 73
16
 74
0
 42
0.0000001
 43
0.0000001
 44
0.0000000001
 40
0.0
 40
0.0
 40
0.0
 40
0.0
 40
0.130044974
 40
0.2595213588
 40
0.3882740662
 40
0.5160613257
 40
0.6424786089
 40
0.7049683236
 40
0.7667899926
 40
0.8277143243
 40
0.8873733612
 40
0.916557216
 40
0.9451629961
 40
0.973041716
 40
1.0
 40
1.0
 40
1.0
 40
1.0
 10
34.6344338942
 20
42.2892587527
 30
0.0
 10
34.3945570913
 20
42.2892587527
 30
0.0
 10
33.9158381941
 20
42.285069505
 30
0.0
 10
33.1998833796
 20
42.2645238083
 30
0.0
 10
32.4887326533
 20
42.2274741855
 30
0.0
 10
31.7845329732
 20
42.1705649908
 30
0.0
 10
31.2041730549
 20
42.1021345594
 30
0.0
 10
30.7472813646
 20
42.0300388565
 30
0.0
 10
30.4116104928
 20
41.9658052438
 30
0.0
 10
30.0839872428
 20
41.8887296564
 30
0.0
 10
29.8188518108
 20
41.8102107019
 30
0.0
 10
29.6154036053
 20
41.7355430203
 30
0.0
 10
29.4701219208
 20
41.6731147967
 30
0.0
 10
29.3332013788
 20
41.6025071275
 30
0.0
 10
29.247883617
 20
41.5476662624
 30
0.0
 10
29.2079975613
 20
41.51797087
 30
0.0
  0
SPLINE
  5
2F0
100
AcDbEntity
  8
0
100
AcDbSpline
 62
7
  6
BYLAYER
 70
0
 71
3
 72
19
 73
15
 74
0
 42
0.0000001
 43
0.0000001
 44
0.0000000001
 40
0.0
 40
0.0
 40
0.0
 40
0.0
 40
0.0286105137
 40
0.057985594
 40
0.1181851457
 40
0.1795707401
 40
0.2416436959
 40
0.3041462216
 40
0.3669329018
 40
0.4930317135
 40
0.6195439324
 40
0.7462741924
 40
0.8731147662
 40
1.0
 40
1.0
 40
1.0
 40
1.0
 10
29.2079975613
 20
40.6504910716
 30
0.0
 10
29.2477814439
 20
40.6099900716
 30
0.0
 10
29.3327060864
 20
40.5320880493
 30
0.0
 10
29.5167603604
 20
40.3865532109
 30
0.0
 10
29.7663939588
 20
40.2201914559
 30
0.0
 10
30.0823730081
 20
40.0383521645
 30
0.0
 10
30.4103384105
 20
39.8690064856
 30
0.0
 10
30.7462278579
 20
39.709510428
 30
0.0
 10
31.2022382349
 20
39.5071978888
 30
0.0
 10
31.7819231689
 20
39.2709287105
 30
0.0
 10
32.4866875559
 20
39.0063438251
 30
0.0
 10
33.1981988864
 20
38.7560586386
 30
0.0
 10
33.9143962904
 20
38.5172266481
 30
0.0
 10
34.3941133739
 20
38.3643540537
 30
0.0
 10
34.6344338942
 20
38.2892587527
 30
0.0
  0
ENDSEC
  0
SECTION
  2
OBJECTS
  0
DICTIONARY
  5
C
100
AcDbDictionary
280
0
281
1
  3
ACAD_GROUP
350
D
  3
ACAD_MLINESTYLE
350
17
  3
ACAD_LAYOUT
350
1A
  3
ACAD_PLOTSETTINGS
350
19
  3
ACAD_PLOTSTYLENAME
350
E
  0
DICTIONARY
  5
D
102
{ACAD_REACTORS
330
C
102
}
100
AcDbDictionary
280
0
281
1
  0
ACDBDICTIONARYWDFLT
  5
E
102
{ACAD_REACTORS
330
C
102
}
100
AcDbDictionary
281
1
  3
Normal
350
F
100
AcDbDictionaryWithDefault
340
F
  0
DICTIONARY
  5
17
102
{ACAD_REACTORS
330
C
102
}
100
AcDbDictionary
280
0
281
1
  3
Standard
350
18
  0
DICTIONARY
  5
19
102
{ACAD_REACTORS
330
C
102
}
100
AcDbDictionary
281
1
  0
DICTIONARY
  5
1A
102
{ACAD_REACTORS
330
C
102
}
100
AcDbDictionary
281
1
  3
Model
350
2F1
  3
Layout1
350
2F2
  0
ACDBPLACEHOLDER
  5
F
102
{ACAD_REACTORS
330
E
102
}
  0
MLINESTYLE
  5
18
102
{ACAD_REACTORS
330
17
102
}
100
AcDbMlineStyle
  2
STANDARD
 70
0
  3

 62
256
 51
90.0
 52
90.0
 71
2
 49
0.5
 62
256
  6
BYLAYER
 49
-0.5
 62
256
  6
BYLAYER
  0
LAYOUT
  5
2F1
102
{ACAD_REACTORS
330
1A
102
}
100
AcDbPlotSettings
  1

  2
none_device
  4

  6

 40
0.0
 41
0.0
 42
0.0
 43
0.0
 44
210.0
 45
297.0
 46
0.0
 47
0.0
 48
0.0
 49
0.0
140
0.0
141
0.0
142
1.0
143
1.0
 70
1024
 72
1
 73
0
 74
0
  7

 75
0
147
1.0
148
0.0
149
0.0
100
AcDbLayout
  1
Model
 70
0
 71
0
 10
0.0
 20
0.0
 11
210.0
 21
297.0
 12
0.0
 22
0.0
 32
0.0
 14
0.0
 24
0.0
 34
0.0
 15
0.0
 25
0.0
 35
0.0
146
0.0
 13
0.0
 23
0.0
 33
0.0
 16
1.0
 26
0.0
 36
0.0
 17
0.0
 27
1.0
 37
0.0
 76
0
330
210
345
0
346
0
  0
LAYOUT
  5
2F2
102
{ACAD_REACTORS
330
1A
102
}
100
AcDbPlotSettings
  1

  2
none_device
  4

  6

 40
0.0
 41
0.0
 42
0.0
 43
0.0
 44
210.0
 45
297.0
 46
0.0
 47
0.0
 48
0.0
 49
0.0
140
0.0
141
0.0
142
1.0
143
1.0
 70
0
 72
1
 73
0
 74
0
  7

 75
0
147
1.0
148
0.0
149
0.0
100
AcDbLayout
  1
Layout1
 70
0
 71
1
 10
0.0
 20
0.0
 11
210.0
 21
297.0
 12
0.0
 22
0.0
 32
0.0
 14
0.0
 24
0.0
 34
0.0
 15
0.0
 25
0.0
 35
0.0
146
0.0
 13
0.0
 23
0.0
 33
0.0
 16
1.0
 26
0.0
 36
0.0
 17
0.0
 27
1.0
 37
0.0
 76
0
330
211
345
0
346
0
  0
ENDSEC
  0
EOF
