999
DXF file: C:\Users\sesa63760\Dev\_Creo\CAD\MCADID0004762_3D-CAD\drw0001_3.dxf
999
Pro/ENGINEER 2019471 by Parametric Technology Corporation
  0
SECTION
  2
HEADER
  9
$ACADVER
  1
AC1024
  9
$DWGCODEPAGE
  3
ANSI_1252
  9
$EXTMAX
 10
34.129699622
 20
48.2691466083
 30
0.0
  9
$EXTMIN
 10
0.0
 20
0.0
 30
0.0
  9
$LIMMIN
 10
0.0
 20
0.0
  9
$LIMMAX
 10
34.129699622
 20
48.2691466083
  9
$VIEWCTR
 10
17.064849811
 20
24.1345733042
  9
$VIEWSIZE
 40
48.2691466083
  9
$CLAYER
  8
0
  9
$LTSCALE
 40
3.1464332604
  9
$CELTYPE
  6
BYLAYER
  9
$DIMSCALE
 40
1.0
  9
$DIMASZ
 40
0.4063059479
  9
$DIMEXO
 40
1.0
  9
$DIMDLI
 40
2.1738993435
  9
$DIMEXE
 40
1.0
  9
$DIMCEN
 40
0.5148708972
  9
$DIMLFAC
 40
1.0
  9
$DIMBLK
  1
_FILLED
  9
$DIMALT
 70
0
  9
$DIMALTF
 40
0.0393700787
  9
$DIMTXT
 40
0.568828327
  9
$DIMTOL
 70
1
  9
$DIMLIM
 70
0
  9
$DIMTFAC
 40
1.0
  9
$DIMTP
 40
0.01
  9
$DIMTM
 40
0.01
  9
$DIMGAP
 40
0.625
  9
$DIMDSEP
 70
46
  9
$AUNITS
 70
0
  9
$PDMODE
 70
3
  9
$PDSIZE
 40
0.3125
  9
$HANDSEED
  5
2B6
  9
$TILEMODE
 70
1
  9
$MEASUREMENT
 70
1
  9
$INSUNITS
 70
4
  0
ENDSEC
  0
SECTION
  2
CLASSES
  0
CLASS
  1
ACDBDICTIONARYWDFLT
  2
AcDbDictionaryWithDefault
  3
AutoCAD 2000
 90
0
 91
1
280
0
281
0
  0
CLASS
  1
ACDBPLACEHOLDER
  2
AcDbPlaceHolder
  3
AutoCAD 2000
 90
0
 91
1
280
0
281
0
  0
CLASS
  1
LAYOUT
  2
AcDbLayout
  3
AutoCAD 2000
 90
0
 91
0
280
0
281
0
  0
ENDSEC
  0
SECTION
  2
TABLES
  0
TABLE
  2
VPORT
  5
8
100
AcDbSymbolTable
 70
2
  0
VPORT
  5
1F4
100
AcDbSymbolTableRecord
100
AcDbViewportTableRecord
  2
*ACTIVE
 70
0
 10
0.0
 20
0.0
 11
1.0
 21
1.0
 12
17.064849811
 22
24.1345733042
 13
0.0
 23
0.0
 14
1.0
 24
1.0
 15
0.0
 25
0.0
 16
0.0
 26
0.0
 36
1.0
 17
0.0
 27
0.0
 37
0.0
 40
48.2691466083
 41
0.7070707071
 42
50.0
 43
0.0
 44
0.0
 50
0.0
 51
0.0
 71
0
 72
100
 73
1
 74
1
 75
0
 76
0
 77
0
 78
0
  0
ENDTAB
  0
TABLE
  2
LTYPE
  5
5
100
AcDbSymbolTable
 70
6
  0
LTYPE
  5
14
100
AcDbSymbolTableRecord
100
AcDbLinetypeTableRecord
  2
BYBLOCK
 70
0
  3

 72
65
 73
0
 40
0.0
  0
LTYPE
  5
15
100
AcDbSymbolTableRecord
100
AcDbLinetypeTableRecord
  2
BYLAYER
 70
0
  3

 72
65
 73
0
 40
0.0
  0
LTYPE
  5
16
100
AcDbSymbolTableRecord
100
AcDbLinetypeTableRecord
  2
CONTINUOUS
 70
64
  3
Solid line
 72
65
 73
0
 40
0.0
  0
LTYPE
  5
1F5
100
AcDbSymbolTableRecord
100
AcDbLinetypeTableRecord
  2
CENTER
 70
64
  3
____ _ ____ _ ____ _ ____ _ ____ _ ____ _ ____
 72
65
 73
4
 40
0.6
 49
0.375
 74
0
 49
-0.075
 74
0
 49
0.075
 74
0
 49
-0.075
 74
0
  0
LTYPE
  5
1F6
100
AcDbSymbolTableRecord
100
AcDbLinetypeTableRecord
  2
HIDDEN
 70
64
  3
- - - - - - - - - - - - - - - - - - - -
 72
65
 73
2
 40
0.2
 49
0.1
 74
0
 49
-0.1
 74
0
  0
LTYPE
  5
1F7
100
AcDbSymbolTableRecord
100
AcDbLinetypeTableRecord
  2
PHANTOM
 70
64
  3
_____ _ _ _____ _ _ _____ _ _ _____
 72
65
 73
6
 40
0.8
 49
0.45
 74
0
 49
-0.05
 74
0
 49
0.1
 74
0
 49
-0.05
 74
0
 49
0.1
 74
0
 49
-0.05
 74
0
  0
LTYPE
  5
1F8
100
AcDbSymbolTableRecord
100
AcDbLinetypeTableRecord
  2
DOT
 70
64
  3
. . . . . . . . . . . . . . . . . . . .
 72
65
 73
2
 40
0.2
 49
0.1
 74
0
 49
-0.1
 74
0
  0
LTYPE
  5
1F9
100
AcDbSymbolTableRecord
100
AcDbLinetypeTableRecord
  2
DASHED
 70
64
  3
- - - - - - - - - - - - - - - - - - - -
 72
65
 73
2
 40
0.2
 49
0.1
 74
0
 49
-0.1
 74
0
  0
ENDTAB
  0
TABLE
  2
LAYER
  5
2
100
AcDbSymbolTable
 70
36
  0
LAYER
  5
10
100
AcDbSymbolTableRecord
100
AcDbLayerTableRecord
  2
0
 70
0
 62
7
  6
CONTINUOUS
370
-3
390
F
  0
LAYER
  5
1FA
100
AcDbSymbolTableRecord
100
AcDbLayerTableRecord
  2
DEFAULT_1
 70
0
 62
7
  6
CENTER
370
-3
390
F
  0
LAYER
  5
1FB
100
AcDbSymbolTableRecord
100
AcDbLayerTableRecord
  2
DEFAULT_2
 70
0
 62
7
  6
HIDDEN
370
-3
390
F
  0
LAYER
  5
1FC
100
AcDbSymbolTableRecord
100
AcDbLayerTableRecord
  2
DEFAULT_3
 70
0
 62
7
  6
PHANTOM
370
-3
390
F
  0
LAYER
  5
1FD
100
AcDbSymbolTableRecord
100
AcDbLayerTableRecord
  2
00_COMPONENTS
 70
0
 62
7
  6
CONTINUOUS
370
-3
390
F
  0
LAYER
  5
1FE
100
AcDbSymbolTableRecord
100
AcDbLayerTableRecord
  2
01_1_DEFAULT_DATUMS
 70
0
 62
7
  6
CONTINUOUS
370
-3
390
F
  0
LAYER
  5
1FF
100
AcDbSymbolTableRecord
100
AcDbLayerTableRecord
  2
01_PLANES
 70
0
 62
7
  6
CONTINUOUS
370
-3
390
F
  0
LAYER
  5
200
100
AcDbSymbolTableRecord
100
AcDbLayerTableRecord
  2
02_COORD_SYS
 70
0
 62
7
  6
CONTINUOUS
370
-3
390
F
  0
LAYER
  5
201
100
AcDbSymbolTableRecord
100
AcDbLayerTableRecord
  2
03_AXES
 70
0
 62
7
  6
CONTINUOUS
370
-3
390
F
  0
LAYER
  5
202
100
AcDbSymbolTableRecord
100
AcDbLayerTableRecord
  2
04_POINTS
 70
0
 62
7
  6
CONTINUOUS
370
-3
390
F
  0
LAYER
  5
203
100
AcDbSymbolTableRecord
100
AcDbLayerTableRecord
  2
05_CURVES
 70
0
 62
7
  6
CONTINUOUS
370
-3
390
F
  0
LAYER
  5
204
100
AcDbSymbolTableRecord
100
AcDbLayerTableRecord
  2
06_SURFS
 70
0
 62
7
  6
CONTINUOUS
370
-3
390
F
  0
LAYER
  5
205
100
AcDbSymbolTableRecord
100
AcDbLayerTableRecord
  2
07_COSMETICS
 70
0
 62
7
  6
CONTINUOUS
370
-3
390
F
  0
LAYER
  5
206
100
AcDbSymbolTableRecord
100
AcDbLayerTableRecord
  2
10_NOTES
 70
0
 62
7
  6
CONTINUOUS
370
-3
390
F
  0
LAYER
  5
207
100
AcDbSymbolTableRecord
100
AcDbLayerTableRecord
  2
11_NOTES_PUB
 70
0
 62
7
  6
CONTINUOUS
370
-3
390
F
  0
LAYER
  5
208
100
AcDbSymbolTableRecord
100
AcDbLayerTableRecord
  2
13_REF_GTOL
 70
0
 62
7
  6
CONTINUOUS
370
-3
390
F
  0
LAYER
  5
209
100
AcDbSymbolTableRecord
100
AcDbLayerTableRecord
  2
16_MISC
 70
0
 62
7
  6
CONTINUOUS
370
-3
390
F
  0
LAYER
  5
20A
100
AcDbSymbolTableRecord
100
AcDbLayerTableRecord
  2
17_NO_PRINT
 70
0
 62
7
  6
CONTINUOUS
370
-3
390
F
  0
LAYER
  5
20B
100
AcDbSymbolTableRecord
100
AcDbLayerTableRecord
  2
18_DATUM_CAMS_JOINTS
 70
0
 62
7
  6
CONTINUOUS
370
-3
390
F
  0
LAYER
  5
20C
100
AcDbSymbolTableRecord
100
AcDbLayerTableRecord
  2
19_DATUM_FUNCTIONAL
 70
0
 62
7
  6
CONTINUOUS
370
-3
390
F
  0
LAYER
  5
20D
100
AcDbSymbolTableRecord
100
AcDbLayerTableRecord
  2
20_DATUM_KINEMATIC_SCHEME
 70
0
 62
7
  6
CONTINUOUS
370
-3
390
F
  0
ENDTAB
  0
TABLE
  2
STYLE
  5
3
100
AcDbSymbolTable
 70
1
  0
STYLE
  5
11
100
AcDbSymbolTableRecord
100
AcDbTextStyleTableRecord
  2
STANDARD
 70
0
 40
0.0
 41
1.0
 50
0.0
 71
0
 42
0.2
  3
ARIAL.TTF
  4

  0
STYLE
  5
20E
100
AcDbSymbolTableRecord
100
AcDbTextStyleTableRecord
  2
TEXTSTYLE_1
 70
0
 40
0.0
 41
0.8
 50
0.0
 71
0
 42
0.2
  3
gdt
  4

  0
ENDTAB
  0
TABLE
  2
VIEW
  5
6
100
AcDbSymbolTable
 70
0
  0
ENDTAB
  0
TABLE
  2
UCS
  5
7
100
AcDbSymbolTable
 70
0
  0
ENDTAB
  0
TABLE
  2
APPID
  5
9
100
AcDbSymbolTable
 70
1
  0
APPID
  5
20F
100
AcDbSymbolTableRecord
100
AcDbRegAppTableRecord
  2
ACAD
 70
0
  0
ENDTAB
  0
TABLE
  2
BLOCK_RECORD
  5
1
100
AcDbSymbolTable
 70
0
  0
BLOCK_RECORD
  5
210
100
AcDbSymbolTableRecord
100
AcDbBlockTableRecord
  2
*Model_Space
  0
BLOCK_RECORD
  5
211
100
AcDbSymbolTableRecord
100
AcDbBlockTableRecord
  2
*Paper_Space
  0
BLOCK_RECORD
  5
212
100
AcDbSymbolTableRecord
100
AcDbBlockTableRecord
  2
_FILLED
  0
ENDTAB
  0
TABLE
  2
DIMSTYLE
  5
A
100
AcDbSymbolTable
 70
1
100
AcDbDimStyleTable
 71
0
  0
DIMSTYLE
105
213
100
AcDbSymbolTableRecord
100
AcDbDimStyleTableRecord
  2
STANDARD
 70
0
  3

  4

 40
1.0
 41
0.4063059479
 42
1.0
 43
0.38
 44
1.0
 45
0.0
 46
0.0
 47
0.01
 48
0.01
140
0.568828327
141
0.09
142
0.0
143
25.4
144
1.0
145
0.0
146
1.0
147
0.625
 71
1
 72
0
 73
0
 74
0
 75
0
 76
0
 77
1
 78
8
 79
2
170
0
171
1
172
0
173
0
174
0
175
0
176
0
177
0
178
0
270
2
179
2
271
2
272
2
273
2
274
2
275
0
280
0
281
0
282
0
283
1
284
8
285
0
286
0
287
3
288
0
340
11
278
46
341
212
342
212
343
212
344
212
  0
ENDTAB
  0
ENDSEC
  0
SECTION
  2
BLOCKS
  0
BLOCK
  5
20
100
AcDbEntity
  8
0
100
AcDbBlockBegin
  2
*Model_Space
 70
0
 10
0.0
 20
0.0
 30
0.0
  3
*Model_Space
  1

  0
ENDBLK
  5
21
100
AcDbEntity
  8
0
100
AcDbBlockEnd
  0
BLOCK
  5
1C
100
AcDbEntity
  8
0
100
AcDbBlockBegin
  2
*Paper_Space
 70
0
 10
0.0
 20
0.0
 30
0.0
  3
*Paper_Space
  1

  0
ENDBLK
  5
1D
100
AcDbEntity
  8
0
100
AcDbBlockEnd
  0
BLOCK
  5
214
100
AcDbEntity
  8
0
100
AcDbBlockBegin
  2
_FILLED
 70
64
 10
0.0
 20
0.0
  3
_FILLED
  1

  0
SOLID
  5
215
100
AcDbEntity
  8
0
  6
BYBLOCK
 62
0
100
AcDbTrace
 10
0.0
 20
0.0
 11
-1.0
 21
0.25
 12
-1.0
 22
-0.25
 13
-1.0
 23
-0.25
  0
ENDBLK
  5
216
100
AcDbEntity
  8
0
  6
BYBLOCK
 62
0
100
AcDbBlockEnd
  0
ENDSEC
  0
SECTION
  2
ENTITIES
  0
LINE
  5
217
100
AcDbEntity
  8
0
100
AcDbLine
 62
7
  6
BYLAYER
 10
24.7470076964
 20
5.8527345649
 11
22.1867245997
 21
5.8527345649
  0
LINE
  5
218
100
AcDbEntity
  8
0
100
AcDbLine
 62
7
  6
BYLAYER
 10
12.8882704271
 20
5.8527345649
 11
10.3279873304
 21
5.8527345649
  0
LINE
  5
219
100
AcDbEntity
  8
0
100
AcDbLine
 62
7
  6
BYLAYER
 10
26.7874887897
 20
7.4527345649
 11
24.7470076964
 21
7.4527345649
  0
LINE
  5
21A
100
AcDbEntity
  8
0
100
AcDbLine
 62
7
  6
BYLAYER
 10
23.3327941341
 20
7.4527345649
 11
11.7422008928
 21
7.4527345649
  0
LINE
  5
21B
100
AcDbEntity
  8
0
100
AcDbLine
 62
7
  6
BYLAYER
 10
10.3279873304
 20
7.4527345649
 11
8.2875062372
 21
7.4527345649
  0
LINE
  5
21C
100
AcDbEntity
  8
0
100
AcDbLine
 62
7
  6
BYLAYER
 10
8.2874975134
 20
8.6527444872
 11
7.2374975134
 21
9.7027456135
  0
LINE
  5
21D
100
AcDbEntity
  8
0
100
AcDbLine
 62
7
  6
BYLAYER
 10
12.8761555337
 20
39.7878128635
 11
15.3617353691
 21
40.8290003605
  0
LINE
  5
21E
100
AcDbEntity
  8
0
100
AcDbLine
 62
7
  6
BYLAYER
 10
8.2874975134
 20
8.6527444872
 11
26.7874975134
 21
8.6527444872
  0
LINE
  5
21F
100
AcDbEntity
  8
0
100
AcDbLine
 62
7
  6
BYLAYER
 10
4.0374975134
 20
32.1527345649
 11
4.2869492359
 21
41.6789115132
  0
LINE
  5
220
100
AcDbEntity
  8
0
100
AcDbLine
 62
7
  6
BYLAYER
 10
27.8374975134
 20
9.7027467674
 11
7.2374975134
 21
9.7027467674
  0
LINE
  5
221
100
AcDbEntity
  8
0
100
AcDbLine
 62
7
  6
BYLAYER
 10
4.4433792977
 20
16.6527345649
 11
4.0374975134
 21
32.1527345649
  0
LINE
  5
222
100
AcDbEntity
  8
0
100
AcDbLine
 62
7
  6
BYLAYER
 10
5.0371548384
 20
32.1527345649
 11
5.4430366227
 21
16.6527345649
  0
LINE
  5
223
100
AcDbEntity
  8
0
100
AcDbLine
 62
7
  6
BYLAYER
 10
5.1946131024
 20
38.1658230039
 11
5.1946131024
 21
38.6527345649
  0
LINE
  5
224
100
AcDbEntity
  8
0
100
AcDbLine
 62
7
  6
BYLAYER
 10
5.2127375811
 20
38.6527345649
 11
5.2127375811
 21
38.8492440836
  0
LINE
  5
225
100
AcDbEntity
  8
0
100
AcDbLine
 62
7
  6
BYLAYER
 10
5.2866065608
 20
41.6701869181
 11
5.2866065608
 21
42.6527345649
  0
LINE
  5
226
100
AcDbEntity
  8
0
100
AcDbLine
 62
7
  6
BYLAYER
 10
5.3228031484
 20
16.6527345649
 11
5.3228031484
 21
16.0527345649
  0
LINE
  5
227
100
AcDbEntity
  8
0
100
AcDbLine
 62
7
  6
BYLAYER
 10
5.1946131025
 20
38.1658230391
 11
5.0371548384
 21
32.1527345649
  0
LINE
  5
228
100
AcDbEntity
  8
0
100
AcDbLine
 62
7
  6
BYLAYER
 10
5.2866065616
 20
41.6701869713
 11
5.2127375732
 21
38.8492440836
  0
LINE
  5
229
100
AcDbEntity
  8
0
100
AcDbLine
 62
7
  6
BYLAYER
 10
17.4629007043
 20
37.6522286613
 11
12.8120943226
 21
34.9670843448
  0
LINE
  5
22A
100
AcDbEntity
  8
0
100
AcDbLine
 62
7
  6
BYLAYER
 10
7.2374975134
 20
9.7027467674
 11
7.2374975134
 21
16.0527345649
  0
LINE
  5
22B
100
AcDbEntity
  8
0
100
AcDbLine
 62
7
  6
BYLAYER
 10
7.5415368192
 20
38.8492440836
 11
7.5415368192
 21
38.6527345649
  0
LINE
  5
22C
100
AcDbEntity
  8
0
100
AcDbLine
 62
7
  6
BYLAYER
 10
7.5907765353
 20
42.6527345649
 11
7.5907765353
 21
41.6701869181
  0
LINE
  5
22D
100
AcDbEntity
  8
0
100
AcDbLine
 62
7
  6
BYLAYER
 10
7.7722928912
 20
16.0527345649
 11
7.7722928912
 21
16.6527345649
  0
LINE
  5
22E
100
AcDbEntity
  8
0
100
AcDbLine
 62
7
  6
BYLAYER
 10
8.2874975134
 20
7.4527345649
 11
8.2874975134
 21
8.6527444872
  0
LINE
  5
22F
100
AcDbEntity
  8
0
100
AcDbLine
 62
7
  6
BYLAYER
 10
7.5415368192
 20
38.8492440836
 11
7.5906875703
 21
41.6701868649
  0
LINE
  5
230
100
AcDbEntity
  8
0
100
AcDbLine
 62
7
  6
BYLAYER
 10
29.7521918785
 20
16.0527345649
 11
23.5924300215
 21
16.0527345649
  0
LINE
  5
231
100
AcDbEntity
  8
0
100
AcDbLine
 62
7
  6
BYLAYER
 10
11.4825650053
 20
16.0527345649
 11
5.3228031484
 21
16.0527345649
  0
LINE
  5
232
100
AcDbEntity
  8
0
100
AcDbLine
 62
7
  6
BYLAYER
 10
4.4433792977
 20
16.6527345649
 11
30.6316157291
 21
16.6527345649
  0
LWPOLYLINE
  5
233
100
AcDbEntity
  8
0
100
AcDbPolyline
 62
7
  6
BYLAYER
 90
6
 70
0
 10
8.5879621373
 20
32.1479849735
 10
9.0612914535
 20
29.2840546544
 10
10.4262868025
 20
26.7230904272
 10
12.5401493093
 20
24.7330363453
 10
13.8105144478
 20
24.0210040456
 10
16.6110080046
 20
23.2562920089
  0
LINE
  5
234
100
AcDbEntity
  8
0
100
AcDbLine
 62
7
  6
BYLAYER
 10
10.3279873304
 20
7.4527345649
 11
10.3279873304
 21
5.8527345649
  0
LINE
  5
235
100
AcDbEntity
  8
0
100
AcDbLine
 62
7
  6
BYLAYER
 10
10.9131347923
 20
38.1658230039
 11
10.9131274233
 21
38.6527345649
  0
LINE
  5
236
100
AcDbEntity
  8
0
100
AcDbLine
 62
7
  6
BYLAYER
 10
11.4825650053
 20
16.6527345649
 11
11.4825650053
 21
16.0527345649
  0
LINE
  5
237
100
AcDbEntity
  8
0
100
AcDbLine
 62
7
  6
BYLAYER
 10
11.5409279817
 20
38.8492659618
 11
11.5901673411
 21
41.6701869691
  0
LINE
  5
238
100
AcDbEntity
  8
0
100
AcDbLine
 62
7
  6
BYLAYER
 10
11.7422008928
 20
5.8527345649
 11
11.7422008928
 21
7.4527345649
  0
LINE
  5
239
100
AcDbEntity
  8
0
100
AcDbLine
 62
7
  6
BYLAYER
 10
12.5900150383
 20
42.165823039
 11
12.5900150383
 21
42.6527345649
  0
LINE
  5
23A
100
AcDbEntity
  8
0
100
AcDbLine
 62
7
  6
BYLAYER
 10
12.7374975134
 20
34.8378788813
 11
12.7374975134
 21
29.4675902485
  0
LINE
  5
23B
100
AcDbEntity
  8
0
100
AcDbLine
 62
7
  6
BYLAYER
 10
12.8882704271
 20
5.8527345649
 11
12.8882704271
 21
7.4527345649
  0
LINE
  5
23C
100
AcDbEntity
  8
0
100
AcDbLine
 62
7
  6
BYLAYER
 10
12.0900902542
 20
41.6744957017
 11
12.0471739528
 21
39.2156609058
  0
LINE
  5
23D
100
AcDbEntity
  8
0
100
AcDbLine
 62
7
  6
BYLAYER
 10
13.8574975134
 20
26.198106113
 11
13.607392788
 21
25.7649120214
  0
LINE
  5
23E
100
AcDbEntity
  8
0
100
AcDbLine
 62
7
  6
BYLAYER
 10
17.6120943226
 20
26.6532404685
 11
22.2629007043
 21
29.3383847849
  0
LWPOLYLINE
  5
23F
100
AcDbEntity
  8
0
100
AcDbPolyline
 62
7
  6
BYLAYER
 90
3
 70
0
 10
16.6110080046
 20
23.2562920089
 10
19.5082596691
 20
23.427715948
 10
22.1975292979
 20
24.5166072748
  0
LINE
  5
240
100
AcDbEntity
  8
0
100
AcDbLine
 62
7
  6
BYLAYER
 10
8.5926653633
 20
32.1553492487
 11
8.587226395
 21
32.1579702942
  0
LINE
  5
241
100
AcDbEntity
  8
0
100
AcDbLine
 62
7
  6
BYLAYER
 10
12.8120943226
 20
29.3383847849
 11
17.4629007043
 21
26.6532404685
  0
LINE
  5
242
100
AcDbEntity
  8
0
100
AcDbLine
 62
7
  6
BYLAYER
 10
22.1867245997
 20
5.8527345649
 11
22.1867245997
 21
7.4527345649
  0
LINE
  5
243
100
AcDbEntity
  8
0
100
AcDbLine
 62
7
  6
BYLAYER
 10
21.4676022388
 20
25.7649120214
 11
21.2174975134
 21
26.198106113
  0
LINE
  5
244
100
AcDbEntity
  8
0
100
AcDbLine
 62
7
  6
BYLAYER
 10
23.0278217562
 20
39.21563575
 11
22.9849047805
 21
41.6744952518
  0
LINE
  5
245
100
AcDbEntity
  8
0
100
AcDbLine
 62
7
  6
BYLAYER
 10
23.5340670003
 20
38.849268528
 11
23.4848276858
 21
41.6701869691
  0
LINE
  5
246
100
AcDbEntity
  8
0
100
AcDbLine
 62
7
  6
BYLAYER
 10
22.3374975134
 20
29.4675902485
 11
22.3374975134
 21
34.8378788813
  0
LINE
  5
247
100
AcDbEntity
  8
0
100
AcDbLine
 62
7
  6
BYLAYER
 10
22.4849799779
 20
42.6527345649
 11
22.4849799779
 21
42.165823039
  0
LINE
  5
248
100
AcDbEntity
  8
0
100
AcDbLine
 62
7
  6
BYLAYER
 10
23.3327941341
 20
7.4527345649
 11
23.3327941341
 21
5.8527345649
  0
LINE
  5
249
100
AcDbEntity
  8
0
100
AcDbLine
 62
7
  6
BYLAYER
 10
23.5924300215
 20
16.0527345649
 11
23.5924300215
 21
16.6527345649
  0
LINE
  5
24A
100
AcDbEntity
  8
0
100
AcDbLine
 62
7
  6
BYLAYER
 10
24.1618640617
 20
38.1658230463
 11
24.1618640617
 21
38.6527345649
  0
LINE
  5
24B
100
AcDbEntity
  8
0
100
AcDbLine
 62
7
  6
BYLAYER
 10
24.7470076964
 20
5.8527345649
 11
24.7470076964
 21
7.4527345649
  0
LINE
  5
24C
100
AcDbEntity
  8
0
100
AcDbLine
 62
7
  6
BYLAYER
 10
14.5794576219
 20
31.6527345649
 11
20.495537405
 21
31.6527345649
  0
LINE
  5
24D
100
AcDbEntity
  8
0
100
AcDbLine
 62
7
  6
BYLAYER
 10
26.7874975134
 20
7.4527345649
 11
26.7874975134
 21
8.6527444872
  0
LINE
  5
24E
100
AcDbEntity
  8
0
100
AcDbLine
 62
7
  6
BYLAYER
 10
31.03749751
 20
32.1527344325
 11
26.4874979931
 21
32.1527324223
  0
LINE
  5
24F
100
AcDbEntity
  8
0
100
AcDbLine
 62
7
  6
BYLAYER
 10
4.0374975167
 20
32.1527346919
 11
8.5926623162
 21
32.1527345649
  0
LINE
  5
250
100
AcDbEntity
  8
0
100
AcDbLine
 62
7
  6
BYLAYER
 10
14.5794576219
 20
32.6527345649
 11
20.495537405
 21
32.6527345649
  0
LINE
  5
251
100
AcDbEntity
  8
0
100
AcDbLine
 62
7
  6
BYLAYER
 10
27.4843077568
 20
41.6701868645
 11
27.5334582076
 21
38.8492440836
  0
LINE
  5
252
100
AcDbEntity
  8
0
100
AcDbLine
 62
7
  6
BYLAYER
 10
27.3027021357
 20
16.6527345649
 11
27.3027021357
 21
16.0527345649
  0
LINE
  5
253
100
AcDbEntity
  8
0
100
AcDbLine
 62
7
  6
BYLAYER
 10
27.4842184665
 20
41.6701869179
 11
27.4842184665
 21
42.6527345649
  0
LINE
  5
254
100
AcDbEntity
  8
0
100
AcDbLine
 62
7
  6
BYLAYER
 10
27.5334582076
 20
38.6527345649
 11
27.5334582076
 21
38.8492440836
  0
LINE
  5
255
100
AcDbEntity
  8
0
100
AcDbLine
 62
7
  6
BYLAYER
 10
27.8374975134
 20
9.7027467674
 11
27.8374975134
 21
16.0527345649
  0
LINE
  5
256
100
AcDbEntity
  8
0
100
AcDbLine
 62
7
  6
BYLAYER
 10
29.7521918785
 20
16.0527345649
 11
29.7521918785
 21
16.6527345649
  0
LINE
  5
257
100
AcDbEntity
  8
0
100
AcDbLine
 62
7
  6
BYLAYER
 10
29.788388466
 20
42.6527345649
 11
29.788388466
 21
41.6701869179
  0
LINE
  5
258
100
AcDbEntity
  8
0
100
AcDbLine
 62
7
  6
BYLAYER
 10
29.8622574547
 20
38.8492440836
 11
29.8622574547
 21
38.6527345649
  0
LINE
  5
259
100
AcDbEntity
  8
0
100
AcDbLine
 62
7
  6
BYLAYER
 10
29.8803819221
 20
38.6527345649
 11
29.8803819221
 21
38.1658230463
  0
LINE
  5
25A
100
AcDbEntity
  8
0
100
AcDbLine
 62
7
  6
BYLAYER
 10
29.6319584041
 20
16.6527345649
 11
30.0378401884
 21
32.1527345649
  0
LINE
  5
25B
100
AcDbEntity
  8
0
100
AcDbLine
 62
7
  6
BYLAYER
 10
22.2629007043
 20
34.9670843448
 11
17.6120943226
 21
37.6522286613
  0
LINE
  5
25C
100
AcDbEntity
  8
0
100
AcDbLine
 62
7
  6
BYLAYER
 10
29.8622574545
 20
38.8492440836
 11
29.7883884646
 21
41.6701869713
  0
LINE
  5
25D
100
AcDbEntity
  8
0
100
AcDbLine
 62
7
  6
BYLAYER
 10
30.0378401885
 20
32.1527345649
 11
29.8803819252
 21
38.1658230391
  0
LINE
  5
25E
100
AcDbEntity
  8
0
100
AcDbLine
 62
7
  6
BYLAYER
 10
31.0374975134
 20
32.1527345649
 11
30.788045791
 21
41.6789115132
  0
LINE
  5
25F
100
AcDbEntity
  8
0
100
AcDbLine
 62
7
  6
BYLAYER
 10
31.0374975134
 20
32.1527345649
 11
30.6316157291
 21
16.6527345649
  0
LWPOLYLINE
  5
260
100
AcDbEntity
  8
0
100
AcDbPolyline
 62
7
  6
BYLAYER
 90
3
 70
0
 10
10.3695821147
 20
38.8477985257
 10
11.2364777803
 20
38.8481741357
 10
11.5409275989
 20
38.8492440457
  0
LINE
  5
261
100
AcDbEntity
  8
0
100
AcDbLine
 62
7
  6
BYLAYER
 10
29.8803819252
 20
38.1658230391
 11
24.161885865
 21
38.1658230536
  0
LINE
  5
262
100
AcDbEntity
  8
0
100
AcDbLine
 62
7
  6
BYLAYER
 10
10.9130520318
 20
38.1658229687
 11
5.1946131025
 21
38.1658230391
  0
LINE
  5
263
100
AcDbEntity
  8
0
100
AcDbLine
 62
7
  6
BYLAYER
 10
4.6947844391
 20
38.6527345649
 11
11.3409175086
 21
38.6527345649
  0
LINE
  5
264
100
AcDbEntity
  8
0
100
AcDbLine
 62
7
  6
BYLAYER
 10
23.7340369674
 20
38.6527345649
 11
30.3802105877
 21
38.6527345649
  0
LINE
  5
265
100
AcDbEntity
  8
0
100
AcDbLine
 62
7
  6
BYLAYER
 10
5.2127375732
 20
38.8492440836
 11
11.5409275995
 21
38.8492439812
  0
LINE
  5
266
100
AcDbEntity
  8
0
100
AcDbLine
 62
7
  6
BYLAYER
 10
23.534067428
 20
38.8492440422
 11
29.8622574545
 21
38.8492440836
  0
LINE
  5
267
100
AcDbEntity
  8
0
100
AcDbLine
 62
7
  6
BYLAYER
 10
7.5415368163
 20
38.8492439164
 11
10.3695821147
 21
38.8477985257
  0
LWPOLYLINE
  5
268
100
AcDbEntity
  8
0
100
AcDbPolyline
 62
7
  6
BYLAYER
 90
4
 70
0
 10
23.534067428
 20
38.8492440422
 10
23.8385174972
 20
38.848174136
 10
24.7054135287
 20
38.8477985301
 10
27.5334582104
 20
38.8492439257
  0
LWPOLYLINE
  5
269
100
AcDbEntity
  8
0
100
AcDbPolyline
 62
7
  6
BYLAYER
 90
4
 70
0
 10
15.3617353691
 20
40.8290003605
 10
18.0412140509
 20
41.0832948933
 10
20.6750979839
 20
40.5295147495
 10
23.0278217562
 20
39.21563575
  0
LINE
  5
26A
100
AcDbEntity
  8
0
100
AcDbLine
 62
7
  6
BYLAYER
 10
26.7874975134
 20
8.6527444872
 11
27.8374975134
 21
9.7027456135
  0
LINE
  5
26B
100
AcDbEntity
  8
0
100
AcDbLine
 62
7
  6
BYLAYER
 10
29.7883884646
 20
41.6701869713
 11
27.4843077568
 21
41.6701868645
  0
LINE
  5
26C
100
AcDbEntity
  8
0
100
AcDbLine
 62
7
  6
BYLAYER
 10
7.5906875703
 20
41.6701868649
 11
5.2866065616
 21
41.6701869713
  0
LINE
  5
26D
100
AcDbEntity
  8
0
100
AcDbLine
 62
7
  6
BYLAYER
 10
12.5899663628
 20
42.165823039
 11
22.4850292017
 21
42.165823039
  0
LINE
  5
26E
100
AcDbEntity
  8
0
100
AcDbLine
 62
7
  6
BYLAYER
 10
29.788388466
 20
42.6527345649
 11
5.2866065608
 21
42.6527345649
  0
ARC
  5
26F
100
AcDbEntity
  8
0
100
AcDbCircle
 62
7
  6
BYLAYER
 10
7.5704224434
 20
9.7566607477
 40
32.8991835261
100
AcDbArc
 50
59.7142296625
 51
60.2518739497
  0
ARC
  5
270
100
AcDbEntity
  8
0
100
AcDbCircle
 62
7
  6
BYLAYER
 10
8.6479646771
 20
32.0933071078
 40
0.0811786535
100
AcDbArc
 50
132.9408244414
 51
137.6583652146
  0
ARC
  5
271
100
AcDbEntity
  8
0
100
AcDbCircle
 62
7
  6
BYLAYER
 10
5.2866065608
 20
41.6527345649
 40
1.0
100
AcDbArc
 50
90.0
 51
178.4999999997
  0
ARC
  5
272
100
AcDbEntity
  8
0
100
AcDbCircle
 62
7
  6
BYLAYER
 10
4.6946522879
 20
38.1527348095
 40
0.4998394265
100
AcDbArc
 50
89.984856584
 51
178.4995656452
  0
ARC
  5
273
100
AcDbEntity
  8
0
100
AcDbCircle
 62
7
  6
BYLAYER
 10
17.5368333093
 20
32.1582752616
 40
8.950707064
100
AcDbArc
 50
301.3792483604
 51
359.9645186956
  0
ARC
  5
274
100
AcDbEntity
  8
0
100
AcDbCircle
 62
7
  6
BYLAYER
 10
17.5369378561
 20
32.1472849027
 40
8.9505779137
100
AcDbArc
 50
0.0348988964
 51
42.2540706088
  0
CIRCLE
  5
275
100
AcDbEntity
  8
0
100
AcDbCircle
 62
7
  6
BYLAYER
 10
17.5374975134
 20
32.1527345649
 40
8.75
  0
CIRCLE
  5
276
100
AcDbEntity
  8
0
100
AcDbCircle
 62
7
  6
BYLAYER
 10
17.5374975134
 20
32.1527345649
 40
7.7499992218
  0
ARC
  5
277
100
AcDbEntity
  8
0
100
AcDbCircle
 62
7
  6
BYLAYER
 10
17.5374975134
 20
32.1527345649
 40
7.5
100
AcDbArc
 50
238.3981125548
 51
301.6018874452
  0
CIRCLE
  5
278
100
AcDbEntity
  8
0
100
AcDbCircle
 62
7
  6
BYLAYER
 10
17.5374975134
 20
32.1527345649
 40
7.0
  0
ARC
  5
279
100
AcDbEntity
  8
0
100
AcDbCircle
 62
7
  6
BYLAYER
 10
17.5374975134
 20
32.1527345649
 40
5.5
100
AcDbArc
 50
209.2228702943
 51
210.7771297057
  0
ARC
  5
27A
100
AcDbEntity
  8
0
100
AcDbCircle
 62
7
  6
BYLAYER
 10
17.5374975134
 20
32.1527345649
 40
5.5
100
AcDbArc
 50
149.2228702943
 51
150.7771297057
  0
ARC
  5
27B
100
AcDbEntity
  8
0
100
AcDbCircle
 62
7
  6
BYLAYER
 10
17.5374975134
 20
32.1527345649
 40
5.5
100
AcDbArc
 50
89.2228702943
 51
90.7771297057
  0
ARC
  5
27C
100
AcDbEntity
  8
0
100
AcDbCircle
 62
7
  6
BYLAYER
 10
17.5374975134
 20
32.1527345649
 40
5.5
100
AcDbArc
 50
29.2228702943
 51
30.7771297057
  0
ARC
  5
27D
100
AcDbEntity
  8
0
100
AcDbCircle
 62
7
  6
BYLAYER
 10
17.5374975134
 20
32.1527345649
 40
5.5
100
AcDbArc
 50
329.2228702943
 51
330.7771297057
  0
ARC
  5
27E
100
AcDbEntity
  8
0
100
AcDbCircle
 62
7
  6
BYLAYER
 10
17.5374975134
 20
32.1527345649
 40
5.5
100
AcDbArc
 50
269.2228702943
 51
270.7771297057
  0
ARC
  5
27F
100
AcDbEntity
  8
0
100
AcDbCircle
 62
7
  6
BYLAYER
 10
17.5374975134
 20
32.1527345649
 40
5.1
100
AcDbArc
 50
43.4599134338
 51
78.7049729618
  0
ARC
  5
280
100
AcDbEntity
  8
0
100
AcDbCircle
 62
7
  6
BYLAYER
 10
17.5374975134
 20
32.1527345649
 40
5.1
100
AcDbArc
 50
337.9829487152
 51
21.9992798196
  0
ARC
  5
281
100
AcDbEntity
  8
0
100
AcDbCircle
 62
7
  6
BYLAYER
 10
17.5374975134
 20
32.1527345649
 40
5.1
100
AcDbArc
 50
281.3038726286
 51
316.5283099407
  0
ARC
  5
282
100
AcDbEntity
  8
0
100
AcDbCircle
 62
7
  6
BYLAYER
 10
17.5374975134
 20
32.1527345649
 40
5.1
100
AcDbArc
 50
223.4599134338
 51
258.7049729618
  0
ARC
  5
283
100
AcDbEntity
  8
0
100
AcDbCircle
 62
7
  6
BYLAYER
 10
17.5374975134
 20
32.1527345649
 40
5.1
100
AcDbArc
 50
157.9829487152
 51
201.9992798196
  0
ARC
  5
284
100
AcDbEntity
  8
0
100
AcDbCircle
 62
7
  6
BYLAYER
 10
17.5374975134
 20
32.1527345649
 40
5.1
100
AcDbArc
 50
101.3038726286
 51
136.5283099407
  0
CIRCLE
  5
285
100
AcDbEntity
  8
0
100
AcDbCircle
 62
7
  6
BYLAYER
 10
17.5374975134
 20
32.1527345649
 40
4.7
  0
CIRCLE
  5
286
100
AcDbEntity
  8
0
100
AcDbCircle
 62
7
  6
BYLAYER
 10
17.5374975134
 20
32.1527345649
 40
3.0
  0
ARC
  5
287
100
AcDbEntity
  8
0
100
AcDbCircle
 62
7
  6
BYLAYER
 10
17.5374975134
 20
32.1527345649
 40
2.5
100
AcDbArc
 50
11.5369590328
 51
168.4630409672
  0
ARC
  5
288
100
AcDbEntity
  8
0
100
AcDbCircle
 62
7
  6
BYLAYER
 10
17.5374975134
 20
32.1527345649
 40
2.5
100
AcDbArc
 50
191.5369590328
 51
348.4630409672
  0
ARC
  5
289
100
AcDbEntity
  8
0
100
AcDbCircle
 62
7
  6
BYLAYER
 10
12.5900150363
 20
41.6527345649
 40
1.0
100
AcDbArc
 50
90.0
 51
179.0000032687
  0
ARC
  5
28A
100
AcDbEntity
  8
0
100
AcDbCircle
 62
7
  6
BYLAYER
 10
12.5900496085
 20
41.6657800868
 40
0.5000415536
100
AcDbArc
 50
90.0095384384
 51
179.001284058
  0
ARC
  5
28B
100
AcDbEntity
  8
0
100
AcDbCircle
 62
7
  6
BYLAYER
 10
11.340952721
 20
38.8527344591
 40
0.1999998886
100
AcDbArc
 50
269.995720816
 51
359.0000569944
  0
ARC
  5
28C
100
AcDbEntity
  8
0
100
AcDbCircle
 62
7
  6
BYLAYER
 10
26.8727652481
 20
10.8498680464
 40
31.6365496497
100
AcDbArc
 50
119.7370607323
 51
120.2964386438
  0
ARC
  5
28D
100
AcDbEntity
  8
0
100
AcDbCircle
 62
7
  6
BYLAYER
 10
17.5405329621
 20
32.145944272
 40
8.9533177304
100
AcDbArc
 50
137.7504790428
 51
179.9230407336
  0
ARC
  5
28E
100
AcDbEntity
  8
0
100
AcDbCircle
 62
7
  6
BYLAYER
 10
17.5384336871
 20
32.1513627493
 40
8.9473501719
100
AcDbArc
 50
121.4052973122
 51
127.8588367697
  0
ARC
  5
28F
100
AcDbEntity
  8
0
100
AcDbCircle
 62
7
  6
BYLAYER
 10
22.4849799906
 20
41.6527345649
 40
1.0
100
AcDbArc
 50
0.9999967351
 51
90.0
  0
ARC
  5
290
100
AcDbEntity
  8
0
100
AcDbCircle
 62
7
  6
BYLAYER
 10
29.788388466
 20
41.6527345649
 40
1.0
100
AcDbArc
 50
1.5000000003
 51
90.0
  0
ARC
  5
291
100
AcDbEntity
  8
0
100
AcDbCircle
 62
7
  6
BYLAYER
 10
22.4849454257
 20
41.6657801281
 40
0.5000415294
100
AcDbArc
 50
0.9986596533
 51
89.9904008022
  0
ARC
  5
292
100
AcDbEntity
  8
0
100
AcDbCircle
 62
7
  6
BYLAYER
 10
30.3803436707
 20
38.1527337068
 40
0.4998394261
100
AcDbArc
 50
1.5005635018
 51
90.0152501571
  0
ARC
  5
293
100
AcDbEntity
  8
0
100
AcDbCircle
 62
7
  6
BYLAYER
 10
23.7340423544
 20
38.8527344534
 40
0.1999998883
100
AcDbArc
 50
180.9999411224
 51
270.0038522344
  0
SPLINE
  5
294
100
AcDbEntity
  8
0
100
AcDbSpline
 62
7
  6
BYLAYER
 70
0
 71
3
 72
23
 73
19
 74
0
 42
0.0000001
 43
0.0000001
 44
0.0000000001
 40
0.0
 40
0.0
 40
0.0
 40
0.0
 40
0.0017606193
 40
0.0055977045
 40
0.0117377277
 40
0.0202084738
 40
0.0310070977
 40
0.0441219175
 40
0.0772140815
 40
0.1191589449
 40
0.1695467339
 40
0.2279477974
 40
0.2937790523
 40
0.3663719974
 40
0.4450531787
 40
0.6176865573
 40
0.8053009663
 40
1.0
 40
1.0
 40
1.0
 40
1.0
 10
11.5901673411
 20
41.6701869692
 30
0.0
 10
11.5901724674
 20
41.6704806544
 30
0.0
 10
11.5911705714
 20
41.6710740248
 30
0.0
 10
11.5929211274
 20
41.6715202169
 30
0.0
 10
11.5960252796
 20
41.672114712
 30
0.0
 10
11.6001996467
 20
41.6726313814
 30
0.0
 10
11.6055900061
 20
41.6731587089
 30
0.0
 10
11.6150681378
 20
41.6738721271
 30
0.0
 10
11.6297597352
 20
41.6746462539
 30
0.0
 10
11.6506695397
 20
41.6754100527
 30
0.0
 10
11.675809835
 20
41.6760497547
 30
0.0
 10
11.7049379227
 20
41.6765550491
 30
0.0
 10
11.737773144
 20
41.6769202023
 30
0.0
 10
11.7739929906
 20
41.6771412964
 30
0.0
 10
11.8280316069
 20
41.6772399011
 30
0.0
 10
11.9012596657
 20
41.6769621347
 30
0.0
 10
11.993839357
 20
41.6760654095
 30
0.0
 10
12.0576152502
 20
41.6751157237
 30
0.0
 10
12.090092598
 20
41.6745492155
 30
0.0
  0
SPLINE
  5
295
100
AcDbEntity
  8
0
100
AcDbSpline
 62
7
  6
BYLAYER
 70
0
 71
3
 72
19
 73
15
 74
0
 42
0.0000001
 43
0.0000001
 44
0.0000000001
 40
0.0
 40
0.0
 40
0.0
 40
0.0
 40
0.1087738256
 40
0.2401832036
 40
0.3908219697
 40
0.5497181279
 40
0.6281734683
 40
0.7033434628
 40
0.7731371142
 40
0.8355780238
 40
0.8891198401
 40
0.9334582906
 40
0.9694421934
 40
1.0
 40
1.0
 40
1.0
 40
1.0
 10
30.3802724434
 20
38.6527400139
 30
0.0
 10
30.3997160877
 20
38.6527405924
 30
0.0
 10
30.4425896243
 20
38.6578778362
 30
0.0
 10
30.5106508466
 20
38.673691792
 30
0.0
 10
30.5863764748
 20
38.6957004119
 30
0.0
 10
30.6521317923
 20
38.7178041735
 30
0.0
 10
30.7045289402
 20
38.7371911744
 30
0.0
 10
30.741583259
 20
38.752108138
 30
0.0
 10
30.7754080506
 20
38.7673200486
 30
0.0
 10
30.804878701
 20
38.7826822907
 30
0.0
 10
30.8290594497
 20
38.7981739396
 30
0.0
 10
30.8472991414
 20
38.8138278476
 30
0.0
 10
30.8592965571
 20
38.8299460361
 30
0.0
 10
30.8622948997
 20
38.8419657115
 30
0.0
 10
30.8621698838
 20
38.8474265794
 30
0.0
  0
SPLINE
  5
296
100
AcDbEntity
  8
0
100
AcDbSpline
 62
7
  6
BYLAYER
 70
0
 71
3
 72
23
 73
19
 74
0
 42
0.0000001
 43
0.0000001
 44
0.0000000001
 40
0.0
 40
0.0
 40
0.0
 40
0.0
 40
0.1818999423
 40
0.3676013952
 40
0.546409133
 40
0.6294474972
 40
0.7061523977
 40
0.7751190661
 40
0.8355907302
 40
0.8869732776
 40
0.9286743963
 40
0.9603010648
 40
0.9724480657
 40
0.9822513035
 40
0.9897900911
 40
0.9951523879
 40
0.9984557642
 40
1.0
 40
1.0
 40
1.0
 40
1.0
 10
12.0471723941
 20
39.2156522781
 30
0.0
 10
12.0168289145
 20
39.2161816826
 30
0.0
 10
11.9555051483
 20
39.217104658
 30
0.0
 10
11.8643467793
 20
39.2180266704
 30
0.0
 10
11.7896781694
 20
39.2183346741
 30
0.0
 10
11.7331944054
 20
39.2182538966
 30
0.0
 10
11.695037057
 20
39.2180325209
 30
0.0
 10
11.6606461577
 20
39.2176422298
 30
0.0
 10
11.6304829154
 20
39.2170990186
 30
0.0
 10
11.6048717744
 20
39.2164216623
 30
0.0
 10
11.5840811995
 20
39.2156305757
 30
0.0
 10
11.5698380505
 20
39.2148335594
 30
0.0
 10
11.5609325559
 20
39.2141128357
 30
0.0
 10
11.5560296961
 20
39.2135943382
 30
0.0
 10
11.5522991628
 20
39.2130941774
 30
0.0
 10
11.549592795
 20
39.2125280313
 30
0.0
 10
11.5480559333
 20
39.2121055874
 30
0.0
 10
11.5472379359
 20
39.2115516882
 30
0.0
 10
11.547233222
 20
39.2112940918
 30
0.0
  0
SPLINE
  5
297
100
AcDbEntity
  8
0
100
AcDbSpline
 62
7
  6
BYLAYER
 70
0
 71
3
 72
16
 73
12
 74
0
 42
0.0000001
 43
0.0000001
 44
0.0000000001
 40
0.0
 40
0.0
 40
0.0
 40
0.0
 40
0.0053081616
 40
0.0165673781
 40
0.0604236079
 40
0.1350050824
 40
0.2424061315
 40
0.3840909731
 40
0.5589049925
 40
0.7648697356
 40
1.0
 40
1.0
 40
1.0
 40
1.0
 10
26.287490754
 20
32.1424979457
 30
0.0
 10
26.28749089
 20
32.142598304
 30
0.0
 10
26.2877997556
 20
32.1428211627
 30
0.0
 10
26.2888348826
 20
32.1431299844
 30
0.0
 10
26.291321445
 20
32.1435516495
 30
0.0
 10
26.2955306792
 20
32.14398047
 30
0.0
 10
26.3016514813
 20
32.1444397063
 30
0.0
 10
26.3096467446
 20
32.1448816401
 30
0.0
 10
26.3195179657
 20
32.1453149048
 30
0.0
 10
26.3311545857
 20
32.145724411
 30
0.0
 10
26.3394910295
 20
32.1459620966
 30
0.0
 10
26.3439350185
 20
32.146076984
 30
0.0
  0
SPLINE
  5
298
100
AcDbEntity
  8
0
100
AcDbSpline
 62
7
  6
BYLAYER
 70
0
 71
3
 72
9
 73
5
 74
0
 42
0.0000001
 43
0.0000001
 44
0.0000000001
 40
0.0
 40
0.0
 40
0.0
 40
0.0
 40
0.4777856328
 40
1.0
 40
1.0
 40
1.0
 40
1.0
 10
26.3439350185
 20
32.146076984
 30
0.0
 10
26.3668053271
 20
32.1466682345
 30
0.0
 10
26.4146863428
 20
32.1473513413
 30
0.0
 10
26.4625697193
 20
32.147528746
 30
0.0
 10
26.4875750459
 20
32.1474992292
 30
0.0
  0
SPLINE
  5
299
100
AcDbEntity
  8
0
100
AcDbSpline
 62
7
  6
BYLAYER
 70
0
 71
3
 72
9
 73
5
 74
0
 42
0.0000001
 43
0.0000001
 44
0.0000000001
 40
0.0
 40
0.0
 40
0.0
 40
0.0
 40
0.2575257977
 40
1.0
 40
1.0
 40
1.0
 40
1.0
 10
26.4875750459
 20
32.1579700859
 30
0.0
 10
26.475429892
 20
32.1579557501
 30
0.0
 10
26.4282694374
 20
32.1580228299
 30
0.0
 10
26.3811053911
 20
32.1584623007
 30
0.0
 10
26.3461005329
 20
32.1593372818
 30
0.0
  0
SPLINE
  5
29A
100
AcDbEntity
  8
0
100
AcDbSpline
 62
7
  6
BYLAYER
 70
0
 71
3
 72
16
 73
12
 74
0
 42
0.0000001
 43
0.0000001
 44
0.0000000001
 40
0.0
 40
0.0
 40
0.0
 40
0.0
 40
0.2347104745
 40
0.4405139832
 40
0.6153862509
 40
0.7573091293
 40
0.8649420066
 40
0.9396338797
 40
0.9835097883
 40
0.9947478747
 40
1.0
 40
1.0
 40
1.0
 40
1.0
 10
26.3461005329
 20
32.1593372818
 30
0.0
 10
26.3414950029
 20
32.1594524016
 30
0.0
 10
26.3328514424
 20
32.1596913524
 30
0.0
 10
26.3207804277
 20
32.1601049235
 30
0.0
 10
26.3105290852
 20
32.1605441926
 30
0.0
 10
26.3022179726
 20
32.1609930494
 30
0.0
 10
26.2958505223
 20
32.161460364
 30
0.0
 10
26.291474404
 20
32.1618969131
 30
0.0
 10
26.2888866412
 20
32.162327226
 30
0.0
 10
26.287814252
 20
32.1626413188
 30
0.0
 10
26.2874909856
 20
32.1628683256
 30
0.0
 10
26.2874908834
 20
32.1629714158
 30
0.0
  0
SPLINE
  5
29B
100
AcDbEntity
  8
0
100
AcDbSpline
 62
7
  6
BYLAYER
 70
0
 71
3
 72
15
 73
11
 74
0
 42
0.0000001
 43
0.0000001
 44
0.0000000001
 40
0.0
 40
0.0
 40
0.0
 40
0.0
 40
0.1726180279
 40
0.3414853404
 40
0.4999816016
 40
0.6418783072
 40
0.7622714775
 40
0.8598629461
 40
0.9366150556
 40
1.0
 40
1.0
 40
1.0
 40
1.0
 10
11.913871756
 20
39.0072656974
 30
0.0
 10
11.8893015878
 20
39.005446141
 30
0.0
 10
11.8407834517
 20
39.0004914432
 30
0.0
 10
11.7703162154
 20
38.9888811195
 30
0.0
 10
11.7051857231
 20
38.9729528618
 30
0.0
 10
11.6482799548
 20
38.9533797598
 30
0.0
 10
11.6020956111
 20
38.9304959085
 30
0.0
 10
11.5679310983
 20
38.9054188032
 30
0.0
 10
11.5465254846
 20
38.8783211608
 30
0.0
 10
11.5410858505
 20
38.8582857049
 30
0.0
 10
11.540927605
 20
38.8492402738
 30
0.0
  0
SPLINE
  5
29C
100
AcDbEntity
  8
0
100
AcDbSpline
 62
7
  6
BYLAYER
 70
0
 71
3
 72
9
 73
5
 74
0
 42
0.0000001
 43
0.0000001
 44
0.0000000001
 40
0.0
 40
0.0
 40
0.0
 40
0.0
 40
0.2577278472
 40
1.0
 40
1.0
 40
1.0
 40
1.0
 10
8.5875051405
 20
32.1474990557
 30
0.0
 10
8.5996551453
 20
32.1475132771
 30
0.0
 10
8.646797448
 20
32.1474457177
 30
0.0
 10
8.6939433333
 20
32.1470058724
 30
0.0
 10
8.7289251904
 20
32.1461312227
 30
0.0
  0
SPLINE
  5
29D
100
AcDbEntity
  8
0
100
AcDbSpline
 62
7
  6
BYLAYER
 70
0
 71
3
 72
16
 73
12
 74
0
 42
0.0000001
 43
0.0000001
 44
0.0000000001
 40
0.0
 40
0.0
 40
0.0
 40
0.0
 40
0.2348742648
 40
0.4407469904
 40
0.6156206355
 40
0.7575037748
 40
0.8650761849
 40
0.9397024993
 40
0.9835274261
 40
0.9947516334
 40
1.0
 40
1.0
 40
1.0
 40
1.0
 10
8.7289251904
 20
32.1461312227
 30
0.0
 10
8.7335318205
 20
32.1460160434
 30
0.0
 10
8.742175985
 20
32.1457769937
 30
0.0
 10
8.7542460557
 20
32.1453632401
 30
0.0
 10
8.7644932847
 20
32.1449238728
 30
0.0
 10
8.7727986548
 20
32.1444750049
 30
0.0
 10
8.7791598611
 20
32.1440078713
 30
0.0
 10
8.7835306318
 20
32.1435714648
 30
0.0
 10
8.786114366
 20
32.1431415728
 30
0.0
 10
8.7871851636
 20
32.1428275697
 30
0.0
 10
8.7875077016
 20
32.1426008546
 30
0.0
 10
8.7875078859
 20
32.1424978854
 30
0.0
  0
SPLINE
  5
29E
100
AcDbEntity
  8
0
100
AcDbSpline
 62
7
  6
BYLAYER
 70
0
 71
3
 72
19
 73
15
 74
0
 42
0.0000001
 43
0.0000001
 44
0.0000000001
 40
0.0
 40
0.0
 40
0.0
 40
0.0
 40
0.124782521
 40
0.1872117267
 40
0.249784204
 40
0.3124991647
 40
0.3753049927
 40
0.500953249
 40
0.6264032792
 40
0.6890025107
 40
0.7514722129
 40
0.8137563162
 40
0.8758519114
 40
1.0
 40
1.0
 40
1.0
 40
1.0
 10
11.1803880239
 20
38.320226647
 30
0.0
 10
11.2161708143
 20
38.3423472355
 30
0.0
 10
11.2693814512
 20
38.3763531531
 30
0.0
 10
11.3380427689
 20
38.4251398158
 30
0.0
 10
11.3882064618
 20
38.463743776
 30
0.0
 10
11.4373255533
 20
38.503858545
 30
0.0
 10
11.5017869921
 20
38.5587719784
 30
0.0
 10
11.5805940999
 20
38.6294425061
 30
0.0
 10
11.6564747426
 20
38.7031494562
 30
0.0
 10
11.7154613611
 20
38.7635995245
 30
0.0
 10
11.7587179935
 20
38.8096329988
 30
0.0
 10
11.8004935608
 20
38.8567989307
 30
0.0
 10
11.8533813123
 20
38.9218216842
 30
0.0
 10
11.8898844346
 20
38.9729648044
 30
0.0
 10
11.9138717151
 20
39.0072633316
 30
0.0
  0
SPLINE
  5
29F
100
AcDbEntity
  8
0
100
AcDbSpline
 62
7
  6
BYLAYER
 70
0
 71
3
 72
16
 73
12
 74
0
 42
0.0000001
 43
0.0000001
 44
0.0000000001
 40
0.0
 40
0.0
 40
0.0
 40
0.0
 40
0.0053560844
 40
0.0166279794
 40
0.0604569333
 40
0.13495653
 40
0.24222011
 40
0.3837156215
 40
0.5583940143
 40
0.7644321365
 40
1.0
 40
1.0
 40
1.0
 40
1.0
 10
8.7875042731
 20
32.1629713642
 30
0.0
 10
8.7875041403
 20
32.1628733649
 30
0.0
 10
8.7872077239
 20
32.1626540387
 30
0.0
 10
8.7862044048
 20
32.162349672
 30
0.0
 10
8.7838032563
 20
32.1619354186
 30
0.0
 10
8.7797334845
 20
32.1615132239
 30
0.0
 10
8.7738187938
 20
32.1610611274
 30
0.0
 10
8.7660899757
 20
32.1606250754
 30
0.0
 10
8.7565421317
 20
32.1601968295
 30
0.0
 10
8.7452741425
 20
32.1597909294
 30
0.0
 10
8.7371973239
 20
32.1595546562
 30
0.0
 10
8.7328886987
 20
32.1594401801
 30
0.0
  0
SPLINE
  5
2A0
100
AcDbEntity
  8
0
100
AcDbSpline
 62
7
  6
BYLAYER
 70
0
 71
3
 72
9
 73
5
 74
0
 42
0.0000001
 43
0.0000001
 44
0.0000000001
 40
0.0
 40
0.0
 40
0.0
 40
0.0
 40
0.4747279678
 40
1.0
 40
1.0
 40
1.0
 40
1.0
 10
8.7328886987
 20
32.1594401801
 30
0.0
 10
8.7107057352
 20
32.1588507998
 30
0.0
 10
8.6639641287
 20
32.158155052
 30
0.0
 10
8.6172199539
 20
32.1579535837
 30
0.0
 10
8.592666522
 20
32.1579656946
 30
0.0
  0
SPLINE
  5
2A1
100
AcDbEntity
  8
0
100
AcDbSpline
 62
7
  6
BYLAYER
 70
0
 71
3
 72
23
 73
19
 74
0
 42
0.0000001
 43
0.0000001
 44
0.0000000001
 40
0.0
 40
0.0
 40
0.0
 40
0.0
 40
0.1841175299
 40
0.3710227073
 40
0.5500318758
 40
0.6328851544
 40
0.7092768935
 40
0.7778477274
 40
0.8378821878
 40
0.8888259614
 40
0.930125235
 40
0.9614145443
 40
0.9734142996
 40
0.9830801518
 40
0.9904852545
 40
0.9957052762
 40
0.998824923
 40
1.0
 40
1.0
 40
1.0
 40
1.0
 10
22.1990276466
 20
24.5173612458
 30
0.0
 10
22.1927608879
 20
24.5276264617
 30
0.0
 10
22.1801068592
 20
24.548296681
 30
0.0
 10
22.1612689657
 20
24.5788915001
 30
0.0
 10
22.1458212039
 20
24.6038054387
 30
0.0
 10
22.1341228378
 20
24.6225499744
 30
0.0
 10
22.1262149588
 20
24.6351563626
 30
0.0
 10
22.1190660879
 20
24.646479344
 30
0.0
 10
22.1127699687
 20
24.656374434
 30
0.0
 10
22.1073925536
 20
24.6647434107
 30
0.0
 10
22.1029893435
 20
24.6715038012
 30
0.0
 10
22.0999290052
 20
24.6761086443
 30
0.0
 10
22.097977847
 20
24.6789589837
 30
0.0
 10
22.0968815841
 20
24.6805220095
 30
0.0
 10
22.0960355011
 20
24.6816756834
 30
0.0
 10
22.0953770953
 20
24.6825385382
 30
0.0
 10
22.0950152664
 20
24.6829173718
 30
0.0
 10
22.0947464324
 20
24.6831980277
 30
0.0
 10
22.0946809048
 20
24.6831580528
 30
0.0
  0
SPLINE
  5
2A2
100
AcDbEntity
  8
0
100
AcDbSpline
 62
7
  6
BYLAYER
 70
0
 71
3
 72
15
 73
11
 74
0
 42
0.0000001
 43
0.0000001
 44
0.0000000001
 40
0.0
 40
0.0
 40
0.0
 40
0.0
 40
0.1669740725
 40
0.3308423063
 40
0.4860394338
 40
0.6269204762
 40
0.7488425073
 40
0.8498887303
 40
0.9313238107
 40
1.0
 40
1.0
 40
1.0
 40
1.0
 10
11.1803959576
 20
38.3202262818
 30
0.0
 10
11.1830097764
 20
38.3418001541
 30
0.0
 10
11.1893043256
 20
38.3844216394
 30
0.0
 10
11.2022442605
 20
38.4463885221
 30
0.0
 10
11.2187806196
 20
38.5039858004
 30
0.0
 10
11.2384650324
 20
38.5548141878
 30
0.0
 10
11.2610512145
 20
38.5966139848
 30
0.0
 10
11.2857030252
 20
38.6279959425
 30
0.0
 10
11.3123588443
 20
38.6478548755
 30
0.0
 10
11.3320157489
 20
38.6527725892
 30
0.0
 10
11.3409539386
 20
38.6527744738
 30
0.0
  0
SPLINE
  5
2A3
100
AcDbEntity
  8
0
100
AcDbSpline
 62
7
  6
BYLAYER
 70
0
 71
3
 72
26
 73
22
 74
0
 42
0.0000001
 43
0.0000001
 44
0.0000000001
 40
0.0
 40
0.0
 40
0.0
 40
0.0
 40
0.0005230975
 40
0.0015244011
 40
0.0052375545
 40
0.0113016283
 40
0.0197232491
 40
0.0304945043
 40
0.0436019351
 40
0.0590133111
 40
0.0766845375
 40
0.11862741
 40
0.1690604553
 40
0.2274911741
 40
0.2933485125
 40
0.3660279634
 40
0.4447977958
 40
0.5288939682
 40
0.617528072
 40
0.8050884351
 40
1.0
 40
1.0
 40
1.0
 40
1.0
 10
4.2869492607
 20
41.6789124607
 30
0.0
 10
4.2869538206
 20
41.6790868129
 30
0.0
 10
4.2874005372
 20
41.6794846357
 30
0.0
 10
4.2890034456
 20
41.6800216656
 30
0.0
 10
4.2926082143
 20
41.6806717447
 30
0.0
 10
4.2986103369
 20
41.681291795
 30
0.0
 10
4.3070264393
 20
41.6818930049
 30
0.0
 10
4.3177774611
 20
41.6824250546
 30
0.0
 10
4.3308715707
 20
41.6828949863
 30
0.0
 10
4.3462665951
 20
41.6832944348
 30
0.0
 10
4.3712778317
 20
41.6837593617
 30
0.0
 10
4.4079685928
 20
41.6841164711
 30
0.0
 10
4.4582509037
 20
41.6842384029
 30
0.0
 10
4.5165065869
 20
41.6840655397
 30
0.0
 10
4.5821782294
 20
41.6835983355
 30
0.0
 10
4.6546289905
 20
41.6828369938
 30
0.0
 10
4.7331579663
 20
41.6817903874
 30
0.0
 10
4.8170030848
 20
41.6804672332
 30
0.0
 10
4.9371123193
 20
41.6783082499
 30
0.0
 10
5.0941548456
 20
41.6750101784
 30
0.0
 10
5.2216411833
 20
41.6718885894
 30
0.0
 10
5.2866065859
 20
41.6701879286
 30
0.0
  0
SPLINE
  5
2A4
100
AcDbEntity
  8
0
100
AcDbSpline
 62
7
  6
BYLAYER
 70
0
 71
3
 72
31
 73
27
 74
0
 42
0.0000001
 43
0.0000001
 44
0.0000000001
 40
0.0
 40
0.0
 40
0.0
 40
0.0
 40
0.1951022184
 40
0.3827269767
 40
0.4714152027
 40
0.5555699847
 40
0.63440334
 40
0.7071272901
 40
0.7729964004
 40
0.8314354048
 40
0.8819115954
 40
0.9039971742
 40
0.9238923007
 40
0.941537766
 40
0.9569038318
 40
0.9699681422
 40
0.980708371
 40
0.9851999971
 40
0.989102265
 40
0.9924124193
 40
0.9951277345
 40
0.9972455486
 40
0.9987633654
 40
0.9996792917
 40
0.9999120371
 40
1.0
 40
1.0
 40
1.0
 40
1.0
 10
29.8622574441
 20
38.849244017
 30
0.0
 10
29.927286818
 20
38.848903861
 30
0.0
 10
30.0548534897
 20
38.8482799711
 30
0.0
 10
30.2119813154
 20
38.8476198451
 30
0.0
 10
30.3321294282
 20
38.8471884061
 30
0.0
 10
30.4160162213
 20
38.8469238796
 30
0.0
 10
30.4945820392
 20
38.8467143772
 30
0.0
 10
30.5670531102
 20
38.8465619676
 30
0.0
 10
30.6327265582
 20
38.8464685745
 30
0.0
 10
30.690984578
 20
38.8464343286
 30
0.0
 10
30.7346489532
 20
38.8464550291
 30
0.0
 10
30.7654660763
 20
38.8465056577
 30
0.0
 10
30.7853402373
 20
38.8465567664
 30
0.0
 10
30.8029746479
 20
38.8466226392
 30
0.0
 10
30.8183321327
 20
38.846702798
 30
0.0
 10
30.8313879897
 20
38.846796796
 30
0.0
 10
30.8408188461
 20
38.8468905144
 30
0.0
 10
30.8471962883
 20
38.8469754433
 30
0.0
 10
30.851096121
 20
38.8470387286
 30
0.0
 10
30.8544068258
 20
38.8471043586
 30
0.0
 10
30.857113847
 20
38.8471746144
 30
0.0
 10
30.8592460046
 20
38.8472420683
 30
0.0
 10
30.8607240972
 20
38.8473219594
 30
0.0
 10
30.8616747722
 20
38.8473742317
 30
0.0
 10
30.862020178
 20
38.8474451567
 30
0.0
 10
30.8621673276
 20
38.8474698314
 30
0.0
 10
30.862168017
 20
38.8474991425
 30
0.0
  0
SPLINE
  5
2A5
100
AcDbEntity
  8
0
100
AcDbSpline
 62
7
  6
BYLAYER
 70
0
 71
3
 72
36
 73
32
 74
0
 42
0.0000001
 43
0.0000001
 44
0.0000000001
 40
0.0
 40
0.0
 40
0.0
 40
0.0
 40
0.0000929093
 40
0.0003270983
 40
0.0007105201
 40
0.001244198
 40
0.0019282451
 40
0.0027625203
 40
0.0048807363
 40
0.0075965118
 40
0.0109072165
 40
0.0148101203
 40
0.0193024467
 40
0.0243813944
 40
0.0300441477
 40
0.043109764
 40
0.0584766464
 40
0.0761220925
 40
0.0960161252
 40
0.1180997356
 40
0.1423066473
 40
0.1685705774
 40
0.227004338
 40
0.2928706937
 40
0.3655962624
 40
0.4444354995
 40
0.5285998052
 40
0.6173005735
 40
0.7097226962
 40
0.804945057
 40
1.0
 40
1.0
 40
1.0
 40
1.0
 10
11.5901572809
 20
41.6701869915
 30
0.0
 10
11.5901571209
 20
41.670310857
 30
0.0
 10
11.5895928832
 20
41.6704797954
 30
0.0
 10
11.5887957964
 20
41.6706517288
 30
0.0
 10
11.5871991216
 20
41.6708510342
 30
0.0
 10
11.585105569
 20
41.6710452702
 30
0.0
 10
11.5823644243
 20
41.6712431333
 30
0.0
 10
11.5775303555
 20
41.6715264985
 30
0.0
 10
11.5699766238
 20
41.6718588263
 30
0.0
 10
11.5591260937
 20
41.6722274406
 30
0.0
 10
11.5458925464
 20
41.6725868974
 30
0.0
 10
11.5302904286
 20
41.6729366189
 30
0.0
 10
11.5123299142
 20
41.6732753956
 30
0.0
 10
11.4920227366
 20
41.6736027931
 30
0.0
 10
11.4602861597
 20
41.674044739
 30
0.0
 10
11.4148335454
 20
41.6745522684
 30
0.0
 10
11.3534052847
 20
41.6750876659
 30
0.0
 10
11.282872793
 20
41.675571076
 30
0.0
 10
11.2033851554
 20
41.6760002989
 30
0.0
 10
11.1151494925
 20
41.6763746135
 30
0.0
 10
11.0184212945
 20
41.6766931793
 30
0.0
 10
10.8732314463
 20
41.677055243
 30
0.0
 10
10.6725014511
 20
41.6773451023
 30
0.0
 10
10.4098291991
 20
41.6774517893
 30
0.0
 10
10.1199526266
 20
41.6773219546
 30
0.0
 10
9.8056816384
 20
41.6769597669
 30
0.0
 10
9.470113024
 20
41.6763685355
 30
0.0
 10
9.1164362961
 20
41.6755523044
 30
0.0
 10
8.7480176199
 20
41.6745160907
 30
0.0
 10
8.2378101411
 20
41.6728442739
 30
0.0
 10
7.8508189146
 20
41.6713210974
 30
0.0
 10
7.5907765166
 20
41.6701872115
 30
0.0
  0
SPLINE
  5
2A6
100
AcDbEntity
  8
0
100
AcDbSpline
 62
7
  6
BYLAYER
 70
0
 71
3
 72
20
 73
16
 74
0
 42
0.0000001
 43
0.0000001
 44
0.0000000001
 40
0.0
 40
0.0
 40
0.0
 40
0.0
 40
0.0236514679
 40
0.0509477857
 40
0.0837129655
 40
0.1228953892
 40
0.1689379286
 40
0.221933593
 40
0.3480747616
 40
0.4968948828
 40
0.6608442808
 40
0.7469655487
 40
0.8353314628
 40
0.9225951921
 40
1.0
 40
1.0
 40
1.0
 40
1.0
 10
4.2128270171
 20
38.8474991881
 30
0.0
 10
4.2127206721
 20
38.8432707304
 30
0.0
 10
4.2144790045
 20
38.8340720123
 30
0.0
 10
4.2220381822
 20
38.8209492483
 30
0.0
 10
4.2341614766
 20
38.8078474654
 30
0.0
 10
4.2507997429
 20
38.7947715059
 30
0.0
 10
4.2718353673
 20
38.7817254136
 30
0.0
 10
4.3075765126
 20
38.7631167836
 30
0.0
 10
4.361653112
 20
38.7402268064
 30
0.0
 10
4.4353922425
 20
38.7133184833
 30
0.0
 10
4.5031531808
 20
38.6909154123
 30
0.0
 10
4.5614553248
 20
38.6746200164
 30
0.0
 10
4.6070259624
 20
38.6638236075
 30
0.0
 10
4.6515337884
 20
38.6556216775
 30
0.0
 10
4.6809540424
 20
38.6527350219
 30
0.0
 10
4.6947970079
 20
38.6527350097
 30
0.0
  0
SPLINE
  5
2A7
100
AcDbEntity
  8
0
100
AcDbSpline
 62
7
  6
BYLAYER
 70
0
 71
3
 72
31
 73
27
 74
0
 42
0.0000001
 43
0.0000001
 44
0.0000000001
 40
0.0
 40
0.0
 40
0.0
 40
0.0
 40
0.0000879626
 40
0.0003207075
 40
0.0012366328
 40
0.0027544484
 40
0.0048722612
 40
0.0075875748
 40
0.0108977276
 40
0.0147999938
 40
0.0192916181
 40
0.0300318435
 40
0.0430961506
 40
0.0584622134
 40
0.0761076763
 40
0.0960028009
 40
0.118088378
 40
0.1685645658
 40
0.2270035675
 40
0.2928726747
 40
0.3655966207
 40
0.4444299723
 40
0.528584753
 40
0.6172729825
 40
0.8048977627
 40
1.0
 40
1.0
 40
1.0
 40
1.0
 10
4.2128270175
 20
38.8474991716
 30
0.0
 10
4.2128277067
 20
38.8474698605
 30
0.0
 10
4.2129748563
 20
38.8474451855
 30
0.0
 10
4.2133202611
 20
38.8473742609
 30
0.0
 10
4.2142709356
 20
38.8473219882
 30
0.0
 10
4.2157490267
 20
38.8472420974
 30
0.0
 10
4.217881183
 20
38.8471746434
 30
0.0
 10
4.2205882027
 20
38.8471043877
 30
0.0
 10
4.2238989059
 20
38.8470387576
 30
0.0
 10
4.2277987369
 20
38.8469754723
 30
0.0
 10
4.2341761769
 20
38.8468905434
 30
0.0
 10
4.2436070304
 20
38.846796825
 30
0.0
 10
4.2566628841
 20
38.8467028271
 30
0.0
 10
4.2720203659
 20
38.8466226682
 30
0.0
 10
4.2896547739
 20
38.8465567954
 30
0.0
 10
4.3095289328
 20
38.8465056868
 30
0.0
 10
4.3403460537
 20
38.8464550581
 30
0.0
 10
4.3840104262
 20
38.8464343576
 30
0.0
 10
4.4422684429
 20
38.8464686034
 30
0.0
 10
4.5079418873
 20
38.8465619965
 30
0.0
 10
4.5804129543
 20
38.8467144061
 30
0.0
 10
4.6589787687
 20
38.8469239085
 30
0.0
 10
4.742865561
 20
38.8471884349
 30
0.0
 10
4.8630136812
 20
38.8476198739
 30
0.0
 10
5.0201415209
 20
38.84828
 30
0.0
 10
5.1477082056
 20
38.84890389
 30
0.0
 10
5.2127375854
 20
38.849244046
 30
0.0
  0
SPLINE
  5
2A8
100
AcDbEntity
  8
0
100
AcDbSpline
 62
7
  6
BYLAYER
 70
0
 71
3
 72
36
 73
32
 74
0
 42
0.0000001
 43
0.0000001
 44
0.0000000001
 40
0.0
 40
0.0
 40
0.0
 40
0.0
 40
0.1950551746
 40
0.2902773565
 40
0.3826992894
 40
0.4713999668
 40
0.5555642697
 40
0.6344035519
 40
0.707129173
 40
0.7729955571
 40
0.8314293265
 40
0.8576932576
 40
0.8819001705
 40
0.9039837837
 40
0.9238778224
 40
0.9415232791
 40
0.9568901754
 40
0.9699558072
 40
0.9756185683
 40
0.9806975236
 40
0.9851898573
 40
0.9890927679
 40
0.9924034784
 40
0.9951192587
 40
0.9972374782
 40
0.9980717548
 40
0.9987558028
 40
0.9992894811
 40
0.999672903
 40
0.9999070915
 40
1.0
 40
1.0
 40
1.0
 40
1.0
 10
27.4842185119
 20
41.6701872596
 30
0.0
 10
27.2241758007
 20
41.6713211465
 30
0.0
 10
26.8371844976
 20
41.6728443245
 30
0.0
 10
26.326977193
 20
41.6745161406
 30
0.0
 10
25.9585591235
 20
41.6755523518
 30
0.0
 10
25.6048827676
 20
41.6763685814
 30
0.0
 10
25.2693142127
 20
41.6769598127
 30
0.0
 10
24.9550430929
 20
41.6773220013
 30
0.0
 10
24.6651663475
 20
41.6774518376
 30
0.0
 10
24.4024939716
 20
41.677345152
 30
0.0
 10
24.201763922
 20
41.6770552936
 30
0.0
 10
24.0565740569
 20
41.6766932302
 30
0.0
 10
23.9598458507
 20
41.6763746643
 30
0.0
 10
23.871610173
 20
41.6760003495
 30
0.0
 10
23.7921225082
 20
41.6755711258
 30
0.0
 10
23.7215899748
 20
41.6750877147
 30
0.0
 10
23.6601616598
 20
41.674552316
 30
0.0
 10
23.6147089952
 20
41.6740447856
 30
0.0
 10
23.5829723764
 20
41.673602839
 30
0.0
 10
23.562665168
 20
41.6732754411
 30
0.0
 10
23.5447046245
 20
41.6729366642
 30
0.0
 10
23.52910248
 20
41.6725869426
 30
0.0
 10
23.5158689094
 20
41.6722274857
 30
0.0
 10
23.5050183601
 20
41.6718588717
 30
0.0
 10
23.4974646152
 20
41.6715265442
 30
0.0
 10
23.4926305387
 20
41.6712431796
 30
0.0
 10
23.4898893901
 20
41.6710453166
 30
0.0
 10
23.4877958365
 20
41.6708510817
 30
0.0
 10
23.4861991594
 20
41.6706517755
 30
0.0
 10
23.4854020775
 20
41.6704798452
 30
0.0
 10
23.4848378382
 20
41.6703109047
 30
0.0
 10
23.4848376809
 20
41.6701870403
 30
0.0
  0
SPLINE
  5
2A9
100
AcDbEntity
  8
0
100
AcDbSpline
 62
7
  6
BYLAYER
 70
0
 71
3
 72
28
 73
24
 74
0
 42
0.0000001
 43
0.0000001
 44
0.0000000001
 40
0.0
 40
0.0
 40
0.0
 40
0.0
 40
0.1949444184
 40
0.3825415235
 40
0.4711946643
 40
0.5553097007
 40
0.6340977372
 40
0.7067942241
 40
0.7726668352
 40
0.8311102975
 40
0.8815526074
 40
0.9036122747
 40
0.923500649
 40
0.9411727188
 40
0.956583605
 40
0.9696888435
 40
0.9804553056
 40
0.9888676402
 40
0.994914258
 40
0.9970490292
 40
0.9985934514
 40
0.9995573436
 40
1.0
 40
1.0
 40
1.0
 40
1.0
 10
5.1946131027
 20
38.165823084
 30
0.0
 10
5.129637658
 20
38.1666743877
 30
0.0
 10
5.0021334282
 20
38.1681797097
 30
0.0
 10
4.845076055
 20
38.1696239513
 30
0.0
 10
4.7249579724
 20
38.1704569863
 30
0.0
 10
4.6411076137
 20
38.1709004264
 30
0.0
 10
4.562575389
 20
38.1711712167
 30
0.0
 10
4.4901235168
 20
38.1712678347
 30
0.0
 10
4.4244530753
 20
38.171188623
 30
0.0
 10
4.3662011344
 20
38.1709365599
 30
0.0
 10
4.3225542648
 20
38.1705729512
 30
0.0
 10
4.2917601642
 20
38.1701804469
 30
0.0
 10
4.2718894538
 20
38.1698582468
 30
0.0
 10
4.2542362389
 20
38.1694963291
 30
0.0
 10
4.2388449903
 20
38.1690959381
 30
0.0
 10
4.2257591757
 20
38.1686592156
 30
0.0
 10
4.2150047279
 20
38.168187464
 30
0.0
 10
4.2066189557
 20
38.167689764
 30
0.0
 10
4.2010895957
 20
38.1672135394
 30
0.0
 10
4.1978962998
 20
38.1668026167
 30
0.0
 10
4.1963372916
 20
38.1664974873
 30
0.0
 10
4.1954581047
 20
38.1662689089
 30
0.0
 10
4.1949589475
 20
38.1659705561
 30
0.0
 10
4.1949557766
 20
38.1658230391
 30
0.0
  0
LINE
  5
2AA
100
AcDbEntity
  8
0
100
AcDbLine
 62
7
  6
BYLAYER
 10
12.0471799968
 20
39.2156569361
 11
11.9138848148
 21
39.0072708612
  0
SPLINE
  5
2AB
100
AcDbEntity
  8
0
100
AcDbSpline
 62
7
  6
BYLAYER
 70
0
 71
3
 72
23
 73
19
 74
0
 42
0.0000001
 43
0.0000001
 44
0.0000000001
 40
0.0
 40
0.0
 40
0.0
 40
0.0
 40
0.1842912245
 40
0.3712823943
 40
0.5502931555
 40
0.6331239387
 40
0.7094833458
 40
0.7780161583
 40
0.83801057
 40
0.8889158086
 40
0.9301816026
 40
0.9614453402
 40
0.9734353471
 40
0.9830933773
 40
0.9904925123
 40
0.9957083539
 40
0.9988255579
 40
1.0
 40
1.0
 40
1.0
 40
1.0
 10
12.8761494022
 20
39.7878097324
 30
0.0
 10
12.8824111366
 20
39.777553296
 30
0.0
 10
12.8950519266
 20
39.7569057695
 30
0.0
 10
12.913865868
 20
39.726351403
 30
0.0
 10
12.9292889128
 20
39.7014786252
 30
0.0
 10
12.940965067
 20
39.6827707434
 30
0.0
 10
12.9488559749
 20
39.6701921681
 30
0.0
 10
12.9559885904
 20
39.658895665
 30
0.0
 10
12.9622697269
 20
39.6490248315
 30
0.0
 10
12.9676339203
 20
39.6406771217
 30
0.0
 10
12.9720261117
 20
39.6339343071
 30
0.0
 10
12.9750787664
 20
39.6293415837
 30
0.0
 10
12.9770250585
 20
39.6264987734
 30
0.0
 10
12.9781186218
 20
39.6249399057
 30
0.0
 10
12.9789626251
 20
39.6237892704
 30
0.0
 10
12.9796194931
 20
39.6229288214
 30
0.0
 10
12.9799804349
 20
39.6225508903
 30
0.0
 10
12.9802487654
 20
39.6222711829
 30
0.0
 10
12.9803141303
 20
39.622311082
 30
0.0
  0
LINE
  5
2AC
100
AcDbEntity
  8
0
100
AcDbLine
 62
7
  6
BYLAYER
 10
23.1611109915
 20
39.0072722789
 11
23.0278481524
 21
39.215605846
  0
SPLINE
  5
2AD
100
AcDbEntity
  8
0
100
AcDbSpline
 62
7
  6
BYLAYER
 70
0
 71
3
 72
15
 73
11
 74
0
 42
0.0000001
 43
0.0000001
 44
0.0000000001
 40
0.0
 40
0.0
 40
0.0
 40
0.0
 40
0.1762730683
 40
0.3460887024
 40
0.5034635097
 40
0.6432354748
 40
0.7615997809
 40
0.8580943909
 40
0.9351915769
 40
1.0
 40
1.0
 40
1.0
 40
1.0
 10
23.8945881341
 20
38.3202423357
 30
0.0
 10
23.8918288766
 20
38.3430172953
 30
0.0
 10
23.8851720611
 20
38.3875945308
 30
0.0
 10
23.8714711566
 20
38.4517244136
 30
0.0
 10
23.8541691801
 20
38.5100562762
 30
0.0
 10
23.8339547463
 20
38.5603350886
 30
0.0
 10
23.811205654
 20
38.6006837298
 30
0.0
 10
23.7868427852
 20
38.6302211823
 30
0.0
 10
23.761054657
 20
38.6483938096
 30
0.0
 10
23.7424642645
 20
38.652733873
 30
0.0
 10
23.734029611
 20
38.6527343927
 30
0.0
  0
SPLINE
  5
2AE
100
AcDbEntity
  8
0
100
AcDbSpline
 62
7
  6
BYLAYER
 70
0
 71
3
 72
20
 73
16
 74
0
 42
0.0000001
 43
0.0000001
 44
0.0000000001
 40
0.0
 40
0.0
 40
0.0
 40
0.0
 40
0.1241172767
 40
0.2485415512
 40
0.3110002154
 40
0.3735648018
 40
0.4990260121
 40
0.6246858197
 40
0.6874600088
 40
0.7501725588
 40
0.8128065417
 40
0.8752921952
 40
0.9064715068
 40
0.9376273725
 40
1.0
 40
1.0
 40
1.0
 40
1.0
 10
23.161116257
 20
39.0072755316
 30
0.0
 10
23.1848701162
 20
38.9728262109
 30
0.0
 10
23.2333169312
 20
38.9043432042
 30
0.0
 10
23.3021581791
 20
38.825081142
 30
0.0
 10
23.359631968
 20
38.7636939164
 30
0.0
 10
23.4184557541
 20
38.7030929986
 30
0.0
 10
23.4943787814
 20
38.6294312216
 30
0.0
 10
23.5731593964
 20
38.5587288669
 30
0.0
 10
23.6377771233
 20
38.5040055827
 30
0.0
 10
23.6870020682
 20
38.464006435
 30
0.0
 10
23.7369184507
 20
38.4250306211
 30
0.0
 10
23.7794722428
 20
38.3939233962
 30
0.0
 10
23.8143453449
 20
38.3703607191
 30
0.0
 10
23.8497961565
 20
38.3477506077
 30
0.0
 10
23.876725869
 20
38.3313451437
 30
0.0
 10
23.8945841693
 20
38.3202423359
 30
0.0
  0
SPLINE
  5
2AF
100
AcDbEntity
  8
0
100
AcDbSpline
 62
7
  6
BYLAYER
 70
0
 71
3
 72
17
 73
13
 74
0
 42
0.0000001
 43
0.0000001
 44
0.0000000001
 40
0.0
 40
0.0
 40
0.0
 40
0.0
 40
0.1659556903
 40
0.330409882
 40
0.4871745111
 40
0.6297540193
 40
0.7526833295
 40
0.8059998554
 40
0.8537138282
 40
0.9335460358
 40
0.9678539946
 40
1.0
 40
1.0
 40
1.0
 40
1.0
 10
23.1611146606
 20
39.0072692652
 30
0.0
 10
23.184750192
 20
39.0055187784
 30
0.0
 10
23.2317257103
 20
39.0007778029
 30
0.0
 10
23.3004582887
 20
38.9896814825
 30
0.0
 10
23.3649655035
 20
38.97433056
 30
0.0
 10
23.4222511145
 20
38.9551805304
 30
0.0
 10
23.4634876808
 20
38.9354357235
 30
0.0
 10
23.4902435494
 20
38.9177883485
 30
0.0
 10
23.5101374224
 20
38.9013108519
 30
0.0
 10
23.5250653069
 20
38.8829528608
 30
0.0
 10
23.5326744214
 20
38.8633357233
 30
0.0
 10
23.5340186496
 20
38.853834687
 30
0.0
 10
23.5340993963
 20
38.8492446005
 30
0.0
  0
SPLINE
  5
2B0
100
AcDbEntity
  8
0
100
AcDbSpline
 62
7
  6
BYLAYER
 70
0
 71
3
 72
28
 73
24
 74
0
 42
0.0000001
 43
0.0000001
 44
0.0000000001
 40
0.0
 40
0.0
 40
0.0
 40
0.0
 40
0.0004426799
 40
0.0014065833
 40
0.0029510108
 40
0.0050857834
 40
0.0111323969
 40
0.0195447222
 40
0.0303111744
 40
0.0434164063
 40
0.05882729
 40
0.07649936
 40
0.0963877364
 40
0.118447406
 40
0.1688897184
 40
0.2273331801
 40
0.2932057893
 40
0.3659022749
 40
0.4446903109
 40
0.5288053465
 40
0.6174584856
 40
0.8050555855
 40
1.0
 40
1.0
 40
1.0
 40
1.0
 10
30.8800392491
 20
38.165823084
 30
0.0
 10
30.8800360726
 20
38.1659706087
 30
0.0
 10
30.8795369252
 20
38.1662689802
 30
0.0
 10
30.8786577139
 20
38.1664975719
 30
0.0
 10
30.8770987084
 20
38.1668027073
 30
0.0
 10
30.8739054069
 20
38.167213631
 30
0.0
 10
30.8683760532
 20
38.1676898428
 30
0.0
 10
30.8599902859
 20
38.1681875208
 30
0.0
 10
30.8492358461
 20
38.1686592487
 30
0.0
 10
30.8361500371
 20
38.1690959556
 30
0.0
 10
30.8207587911
 20
38.1694963393
 30
0.0
 10
30.803105576
 20
38.1698582554
 30
0.0
 10
30.7832348638
 20
38.1701804573
 30
0.0
 10
30.7524407606
 20
38.1705729661
 30
0.0
 10
30.7087938891
 20
38.170936576
 30
0.0
 10
30.6505419474
 20
38.1711886323
 30
0.0
 10
30.5848715064
 20
38.1712678342
 30
0.0
 10
30.5124196345
 20
38.1711712064
 30
0.0
 10
30.4338874097
 20
38.1709004101
 30
0.0
 10
30.3500370508
 20
38.1704569718
 30
0.0
 10
30.2299189692
 20
38.1696239503
 30
0.0
 10
30.0728615979
 20
38.1681796531
 30
0.0
 10
29.9453573705
 20
38.1666742708
 30
0.0
 10
29.8803819253
 20
38.1658230391
 30
0.0
  0
SPLINE
  5
2B1
100
AcDbEntity
  8
0
100
AcDbSpline
 62
7
  6
BYLAYER
 70
0
 71
3
 72
23
 73
19
 74
0
 42
0.0000001
 43
0.0000001
 44
0.0000000001
 40
0.0
 40
0.0
 40
0.0
 40
0.0
 40
0.181899397
 40
0.3676003581
 40
0.5464077375
 40
0.6294460025
 40
0.7061508711
 40
0.7751175685
 40
0.8355893117
 40
0.8869719917
 40
0.9286733006
 40
0.9603001995
 40
0.9724473232
 40
0.982250689
 40
0.989789611
 40
0.9951520508
 40
0.9984555846
 40
1.0
 40
1.0
 40
1.0
 40
1.0
 10
23.0278228158
 20
39.2156487441
 30
0.0
 10
23.0581664296
 20
39.2161781437
 30
0.0
 10
23.1194904782
 20
39.2171010916
 30
0.0
 10
23.2106492916
 20
39.21802301
 30
0.0
 10
23.2853182975
 20
39.2183308834
 30
0.0
 10
23.3418023986
 20
39.21824997
 30
0.0
 10
23.3799600123
 20
39.2180284827
 30
0.0
 10
23.4143511781
 20
39.2176380681
 30
0.0
 10
23.4445146821
 20
39.217094724
 30
0.0
 10
23.4701260765
 20
39.2164172283
 30
0.0
 10
23.4909168933
 20
39.2156259986
 30
0.0
 10
23.5051602313
 20
39.2148288545
 30
0.0
 10
23.5140658657
 20
39.2141080219
 30
0.0
 10
23.5189688163
 20
39.2135894527
 30
0.0
 10
23.5226994435
 20
39.2130892136
 30
0.0
 10
23.5254058767
 20
39.2125230067
 30
0.0
 10
23.5269428397
 20
39.212100472
 30
0.0
 10
23.5277608492
 20
39.2115465305
 30
0.0
 10
23.5277655895
 20
39.2112889026
 30
0.0
  0
SPLINE
  5
2B2
100
AcDbEntity
  8
0
100
AcDbSpline
 62
7
  6
BYLAYER
 70
0
 71
3
 72
26
 73
22
 74
0
 42
0.0000001
 43
0.0000001
 44
0.0000000001
 40
0.0
 40
0.0
 40
0.0
 40
0.0
 40
0.0005230975
 40
0.0015244011
 40
0.0052375545
 40
0.0113016283
 40
0.0197232491
 40
0.0304945043
 40
0.0436019351
 40
0.0590133111
 40
0.0766845375
 40
0.11862741
 40
0.1690604553
 40
0.2274911741
 40
0.2933485125
 40
0.3660279634
 40
0.4447977958
 40
0.5288939682
 40
0.617528072
 40
0.8050884351
 40
1.0
 40
1.0
 40
1.0
 40
1.0
 10
30.7880457662
 20
41.6789124607
 30
0.0
 10
30.7880412063
 20
41.6790868129
 30
0.0
 10
30.7875944897
 20
41.6794846357
 30
0.0
 10
30.7859915813
 20
41.6800216656
 30
0.0
 10
30.7823868126
 20
41.6806717447
 30
0.0
 10
30.7763846899
 20
41.681291795
 30
0.0
 10
30.7679685876
 20
41.6818930049
 30
0.0
 10
30.7572175658
 20
41.6824250546
 30
0.0
 10
30.7441234562
 20
41.6828949863
 30
0.0
 10
30.7287284317
 20
41.6832944348
 30
0.0
 10
30.7037171952
 20
41.6837593617
 30
0.0
 10
30.667026434
 20
41.6841164711
 30
0.0
 10
30.6167441232
 20
41.6842384029
 30
0.0
 10
30.5584884399
 20
41.6840655397
 30
0.0
 10
30.4928167974
 20
41.6835983355
 30
0.0
 10
30.4203660364
 20
41.6828369938
 30
0.0
 10
30.3418370605
 20
41.6817903874
 30
0.0
 10
30.257991942
 20
41.6804672332
 30
0.0
 10
30.1378827075
 20
41.67830825
 30
0.0
 10
29.9808401812
 20
41.6750101784
 30
0.0
 10
29.8533538436
 20
41.6718885894
 30
0.0
 10
29.788388441
 20
41.6701879286
 30
0.0
  0
SPLINE
  5
2B3
100
AcDbEntity
  8
0
100
AcDbSpline
 62
7
  6
BYLAYER
 70
0
 71
3
 72
23
 73
19
 74
0
 42
0.0000001
 43
0.0000001
 44
0.0000000001
 40
0.0
 40
0.0
 40
0.0
 40
0.0
 40
0.1946691226
 40
0.3821860481
 40
0.5547541923
 40
0.6334301038
 40
0.7060457486
 40
0.7719061144
 40
0.8303245791
 40
0.8807467999
 40
0.9227320954
 40
0.9558486132
 40
0.9689712318
 40
0.9797769661
 40
0.9882537963
 40
0.9943985316
 40
0.9982385874
 40
1.0
 40
1.0
 40
1.0
 40
1.0
 10
22.9849025503
 20
41.6745492177
 30
0.0
 10
23.0173748833
 20
41.6751156382
 30
0.0
 10
23.0811294717
 20
41.676065268
 30
0.0
 10
23.1736769549
 20
41.6769615425
 30
0.0
 10
23.246876928
 20
41.6772399396
 30
0.0
 10
23.3009075264
 20
41.6771413339
 30
0.0
 10
23.3371351119
 20
41.6769208958
 30
0.0
 10
23.3699818649
 20
41.6765565249
 30
0.0
 10
23.3991234334
 20
41.6760510425
 30
0.0
 10
23.4242791051
 20
41.675411305
 30
0.0
 10
23.4452054591
 20
41.6746476749
 30
0.0
 10
23.4599091591
 20
41.6738730299
 30
0.0
 10
23.4693938006
 20
41.6731591428
 30
0.0
 10
23.4747876904
 20
41.6726316397
 30
0.0
 10
23.478964956
 20
41.6721148351
 30
0.0
 10
23.4820716418
 20
41.6715202826
 30
0.0
 10
23.4838232491
 20
41.6710740535
 30
0.0
 10
23.4848225572
 20
41.6704807866
 30
0.0
 10
23.4848276858
 20
41.6701869693
 30
0.0
  0
ENDSEC
  0
SECTION
  2
OBJECTS
  0
DICTIONARY
  5
C
100
AcDbDictionary
280
0
281
1
  3
ACAD_GROUP
350
D
  3
ACAD_MLINESTYLE
350
17
  3
ACAD_LAYOUT
350
1A
  3
ACAD_PLOTSETTINGS
350
19
  3
ACAD_PLOTSTYLENAME
350
E
  0
DICTIONARY
  5
D
102
{ACAD_REACTORS
330
C
102
}
100
AcDbDictionary
280
0
281
1
  0
ACDBDICTIONARYWDFLT
  5
E
102
{ACAD_REACTORS
330
C
102
}
100
AcDbDictionary
281
1
  3
Normal
350
F
100
AcDbDictionaryWithDefault
340
F
  0
DICTIONARY
  5
17
102
{ACAD_REACTORS
330
C
102
}
100
AcDbDictionary
280
0
281
1
  3
Standard
350
18
  0
DICTIONARY
  5
19
102
{ACAD_REACTORS
330
C
102
}
100
AcDbDictionary
281
1
  0
DICTIONARY
  5
1A
102
{ACAD_REACTORS
330
C
102
}
100
AcDbDictionary
281
1
  3
Model
350
2B4
  3
Layout1
350
2B5
  0
ACDBPLACEHOLDER
  5
F
102
{ACAD_REACTORS
330
E
102
}
  0
MLINESTYLE
  5
18
102
{ACAD_REACTORS
330
17
102
}
100
AcDbMlineStyle
  2
STANDARD
 70
0
  3

 62
256
 51
90.0
 52
90.0
 71
2
 49
0.5
 62
256
  6
BYLAYER
 49
-0.5
 62
256
  6
BYLAYER
  0
LAYOUT
  5
2B4
102
{ACAD_REACTORS
330
1A
102
}
100
AcDbPlotSettings
  1

  2
none_device
  4

  6

 40
0.0
 41
0.0
 42
0.0
 43
0.0
 44
210.0
 45
297.0
 46
0.0
 47
0.0
 48
0.0
 49
0.0
140
0.0
141
0.0
142
1.0
143
1.0
 70
1024
 72
1
 73
0
 74
0
  7

 75
0
147
1.0
148
0.0
149
0.0
100
AcDbLayout
  1
Model
 70
0
 71
0
 10
0.0
 20
0.0
 11
210.0
 21
297.0
 12
0.0
 22
0.0
 32
0.0
 14
0.0
 24
0.0
 34
0.0
 15
0.0
 25
0.0
 35
0.0
146
0.0
 13
0.0
 23
0.0
 33
0.0
 16
1.0
 26
0.0
 36
0.0
 17
0.0
 27
1.0
 37
0.0
 76
0
330
210
345
0
346
0
  0
LAYOUT
  5
2B5
102
{ACAD_REACTORS
330
1A
102
}
100
AcDbPlotSettings
  1

  2
none_device
  4

  6

 40
0.0
 41
0.0
 42
0.0
 43
0.0
 44
210.0
 45
297.0
 46
0.0
 47
0.0
 48
0.0
 49
0.0
140
0.0
141
0.0
142
1.0
143
1.0
 70
0
 72
1
 73
0
 74
0
  7

 75
0
147
1.0
148
0.0
149
0.0
100
AcDbLayout
  1
Layout1
 70
0
 71
1
 10
0.0
 20
0.0
 11
210.0
 21
297.0
 12
0.0
 22
0.0
 32
0.0
 14
0.0
 24
0.0
 34
0.0
 15
0.0
 25
0.0
 35
0.0
146
0.0
 13
0.0
 23
0.0
 33
0.0
 16
1.0
 26
0.0
 36
0.0
 17
0.0
 27
1.0
 37
0.0
 76
0
330
211
345
0
346
0
  0
ENDSEC
  0
EOF
