999
DXF file: C:\Users\sesa63760\Dev\_Creo\CAD\MCADID0004751_3D-CAD\drw0001_2.dxf
999
Pro/ENGINEER 2019471 by Parametric Technology Corporation
  0
SECTION
  2
HEADER
  9
$ACADVER
  1
AC1024
  9
$DWGCODEPAGE
  3
ANSI_1252
  9
$EXTMAX
 10
52.4188178077
 20
74.1351851852
 30
0.0
  9
$EXTMIN
 10
0.0
 20
0.0
 30
0.0
  9
$LIMMIN
 10
0.0
 20
0.0
  9
$LIMMAX
 10
52.4188178077
 20
74.1351851852
  9
$VIEWCTR
 10
26.2094089039
 20
37.0675925926
  9
$VIEWSIZE
 40
74.1351851852
  9
$CLAYER
  8
0
  9
$LTSCALE
 40
4.832515775
  9
$CELTYPE
  6
BYLAYER
  9
$DIMSCALE
 40
1.0
  9
$DIMASZ
 40
0.6240335453
  9
$DIMEXO
 40
1.0
  9
$DIMDLI
 40
3.3388290809
  9
$DIMEXE
 40
1.0
  9
$DIMCEN
 40
0.7907753086
  9
$DIMLFAC
 40
1.0
  9
$DIMBLK
  1
_FILLED
  9
$DIMALT
 70
0
  9
$DIMALTF
 40
0.0393700787
  9
$DIMTXT
 40
0.8736469635
  9
$DIMTOL
 70
1
  9
$DIMLIM
 70
0
  9
$DIMTFAC
 40
1.0
  9
$DIMTP
 40
0.01
  9
$DIMTM
 40
0.01
  9
$DIMGAP
 40
0.625
  9
$DIMDSEP
 70
46
  9
$AUNITS
 70
0
  9
$PDMODE
 70
3
  9
$PDSIZE
 40
0.3125
  9
$HANDSEED
  5
2D3
  9
$TILEMODE
 70
1
  9
$MEASUREMENT
 70
1
  9
$INSUNITS
 70
4
  0
ENDSEC
  0
SECTION
  2
CLASSES
  0
CLASS
  1
ACDBDICTIONARYWDFLT
  2
AcDbDictionaryWithDefault
  3
AutoCAD 2000
 90
0
 91
1
280
0
281
0
  0
CLASS
  1
ACDBPLACEHOLDER
  2
AcDbPlaceHolder
  3
AutoCAD 2000
 90
0
 91
1
280
0
281
0
  0
CLASS
  1
LAYOUT
  2
AcDbLayout
  3
AutoCAD 2000
 90
0
 91
0
280
0
281
0
  0
ENDSEC
  0
SECTION
  2
TABLES
  0
TABLE
  2
VPORT
  5
8
100
AcDbSymbolTable
 70
2
  0
VPORT
  5
1F4
100
AcDbSymbolTableRecord
100
AcDbViewportTableRecord
  2
*ACTIVE
 70
0
 10
0.0
 20
0.0
 11
1.0
 21
1.0
 12
26.2094089039
 22
37.0675925926
 13
0.0
 23
0.0
 14
1.0
 24
1.0
 15
0.0
 25
0.0
 16
0.0
 26
0.0
 36
1.0
 17
0.0
 27
0.0
 37
0.0
 40
74.1351851852
 41
0.7070707071
 42
50.0
 43
0.0
 44
0.0
 50
0.0
 51
0.0
 71
0
 72
100
 73
1
 74
1
 75
0
 76
0
 77
0
 78
0
  0
ENDTAB
  0
TABLE
  2
LTYPE
  5
5
100
AcDbSymbolTable
 70
6
  0
LTYPE
  5
14
100
AcDbSymbolTableRecord
100
AcDbLinetypeTableRecord
  2
BYBLOCK
 70
0
  3

 72
65
 73
0
 40
0.0
  0
LTYPE
  5
15
100
AcDbSymbolTableRecord
100
AcDbLinetypeTableRecord
  2
BYLAYER
 70
0
  3

 72
65
 73
0
 40
0.0
  0
LTYPE
  5
16
100
AcDbSymbolTableRecord
100
AcDbLinetypeTableRecord
  2
CONTINUOUS
 70
64
  3
Solid line
 72
65
 73
0
 40
0.0
  0
LTYPE
  5
1F5
100
AcDbSymbolTableRecord
100
AcDbLinetypeTableRecord
  2
CENTER
 70
64
  3
____ _ ____ _ ____ _ ____ _ ____ _ ____ _ ____
 72
65
 73
4
 40
0.6
 49
0.375
 74
0
 49
-0.075
 74
0
 49
0.075
 74
0
 49
-0.075
 74
0
  0
LTYPE
  5
1F6
100
AcDbSymbolTableRecord
100
AcDbLinetypeTableRecord
  2
HIDDEN
 70
64
  3
- - - - - - - - - - - - - - - - - - - -
 72
65
 73
2
 40
0.2
 49
0.1
 74
0
 49
-0.1
 74
0
  0
LTYPE
  5
1F7
100
AcDbSymbolTableRecord
100
AcDbLinetypeTableRecord
  2
PHANTOM
 70
64
  3
_____ _ _ _____ _ _ _____ _ _ _____
 72
65
 73
6
 40
0.8
 49
0.45
 74
0
 49
-0.05
 74
0
 49
0.1
 74
0
 49
-0.05
 74
0
 49
0.1
 74
0
 49
-0.05
 74
0
  0
LTYPE
  5
1F8
100
AcDbSymbolTableRecord
100
AcDbLinetypeTableRecord
  2
DOT
 70
64
  3
. . . . . . . . . . . . . . . . . . . .
 72
65
 73
2
 40
0.2
 49
0.1
 74
0
 49
-0.1
 74
0
  0
LTYPE
  5
1F9
100
AcDbSymbolTableRecord
100
AcDbLinetypeTableRecord
  2
DASHED
 70
64
  3
- - - - - - - - - - - - - - - - - - - -
 72
65
 73
2
 40
0.2
 49
0.1
 74
0
 49
-0.1
 74
0
  0
ENDTAB
  0
TABLE
  2
LAYER
  5
2
100
AcDbSymbolTable
 70
36
  0
LAYER
  5
10
100
AcDbSymbolTableRecord
100
AcDbLayerTableRecord
  2
0
 70
0
 62
7
  6
CONTINUOUS
370
-3
390
F
  0
LAYER
  5
1FA
100
AcDbSymbolTableRecord
100
AcDbLayerTableRecord
  2
DEFAULT_1
 70
0
 62
7
  6
CENTER
370
-3
390
F
  0
LAYER
  5
1FB
100
AcDbSymbolTableRecord
100
AcDbLayerTableRecord
  2
DEFAULT_2
 70
0
 62
7
  6
HIDDEN
370
-3
390
F
  0
LAYER
  5
1FC
100
AcDbSymbolTableRecord
100
AcDbLayerTableRecord
  2
DEFAULT_3
 70
0
 62
7
  6
PHANTOM
370
-3
390
F
  0
LAYER
  5
1FD
100
AcDbSymbolTableRecord
100
AcDbLayerTableRecord
  2
00_COMPONENTS
 70
0
 62
7
  6
CONTINUOUS
370
-3
390
F
  0
LAYER
  5
1FE
100
AcDbSymbolTableRecord
100
AcDbLayerTableRecord
  2
01_1_DEFAULT_DATUMS
 70
0
 62
7
  6
CONTINUOUS
370
-3
390
F
  0
LAYER
  5
1FF
100
AcDbSymbolTableRecord
100
AcDbLayerTableRecord
  2
01_PLANES
 70
0
 62
7
  6
CONTINUOUS
370
-3
390
F
  0
LAYER
  5
200
100
AcDbSymbolTableRecord
100
AcDbLayerTableRecord
  2
02_COORD_SYS
 70
0
 62
7
  6
CONTINUOUS
370
-3
390
F
  0
LAYER
  5
201
100
AcDbSymbolTableRecord
100
AcDbLayerTableRecord
  2
03_AXES
 70
0
 62
7
  6
CONTINUOUS
370
-3
390
F
  0
LAYER
  5
202
100
AcDbSymbolTableRecord
100
AcDbLayerTableRecord
  2
04_POINTS
 70
0
 62
7
  6
CONTINUOUS
370
-3
390
F
  0
LAYER
  5
203
100
AcDbSymbolTableRecord
100
AcDbLayerTableRecord
  2
05_CURVES
 70
0
 62
7
  6
CONTINUOUS
370
-3
390
F
  0
LAYER
  5
204
100
AcDbSymbolTableRecord
100
AcDbLayerTableRecord
  2
06_SURFS
 70
0
 62
7
  6
CONTINUOUS
370
-3
390
F
  0
LAYER
  5
205
100
AcDbSymbolTableRecord
100
AcDbLayerTableRecord
  2
07_COSMETICS
 70
0
 62
7
  6
CONTINUOUS
370
-3
390
F
  0
LAYER
  5
206
100
AcDbSymbolTableRecord
100
AcDbLayerTableRecord
  2
10_NOTES
 70
0
 62
7
  6
CONTINUOUS
370
-3
390
F
  0
LAYER
  5
207
100
AcDbSymbolTableRecord
100
AcDbLayerTableRecord
  2
11_NOTES_PUB
 70
0
 62
7
  6
CONTINUOUS
370
-3
390
F
  0
LAYER
  5
208
100
AcDbSymbolTableRecord
100
AcDbLayerTableRecord
  2
13_REF_GTOL
 70
0
 62
7
  6
CONTINUOUS
370
-3
390
F
  0
LAYER
  5
209
100
AcDbSymbolTableRecord
100
AcDbLayerTableRecord
  2
16_MISC
 70
0
 62
7
  6
CONTINUOUS
370
-3
390
F
  0
LAYER
  5
20A
100
AcDbSymbolTableRecord
100
AcDbLayerTableRecord
  2
17_NO_PRINT
 70
0
 62
7
  6
CONTINUOUS
370
-3
390
F
  0
LAYER
  5
20B
100
AcDbSymbolTableRecord
100
AcDbLayerTableRecord
  2
18_DATUM_CAMS_JOINTS
 70
0
 62
7
  6
CONTINUOUS
370
-3
390
F
  0
LAYER
  5
20C
100
AcDbSymbolTableRecord
100
AcDbLayerTableRecord
  2
19_DATUM_FUNCTIONAL
 70
0
 62
7
  6
CONTINUOUS
370
-3
390
F
  0
LAYER
  5
20D
100
AcDbSymbolTableRecord
100
AcDbLayerTableRecord
  2
20_DATUM_KINEMATIC_SCHEME
 70
0
 62
7
  6
CONTINUOUS
370
-3
390
F
  0
ENDTAB
  0
TABLE
  2
STYLE
  5
3
100
AcDbSymbolTable
 70
1
  0
STYLE
  5
11
100
AcDbSymbolTableRecord
100
AcDbTextStyleTableRecord
  2
STANDARD
 70
0
 40
0.0
 41
1.0
 50
0.0
 71
0
 42
0.2
  3
ARIAL.TTF
  4

  0
STYLE
  5
20E
100
AcDbSymbolTableRecord
100
AcDbTextStyleTableRecord
  2
TEXTSTYLE_1
 70
0
 40
0.0
 41
0.8
 50
0.0
 71
0
 42
0.2
  3
gdt
  4

  0
ENDTAB
  0
TABLE
  2
VIEW
  5
6
100
AcDbSymbolTable
 70
0
  0
ENDTAB
  0
TABLE
  2
UCS
  5
7
100
AcDbSymbolTable
 70
0
  0
ENDTAB
  0
TABLE
  2
APPID
  5
9
100
AcDbSymbolTable
 70
1
  0
APPID
  5
20F
100
AcDbSymbolTableRecord
100
AcDbRegAppTableRecord
  2
ACAD
 70
0
  0
ENDTAB
  0
TABLE
  2
BLOCK_RECORD
  5
1
100
AcDbSymbolTable
 70
0
  0
BLOCK_RECORD
  5
210
100
AcDbSymbolTableRecord
100
AcDbBlockTableRecord
  2
*Model_Space
  0
BLOCK_RECORD
  5
211
100
AcDbSymbolTableRecord
100
AcDbBlockTableRecord
  2
*Paper_Space
  0
BLOCK_RECORD
  5
212
100
AcDbSymbolTableRecord
100
AcDbBlockTableRecord
  2
_FILLED
  0
ENDTAB
  0
TABLE
  2
DIMSTYLE
  5
A
100
AcDbSymbolTable
 70
1
100
AcDbDimStyleTable
 71
0
  0
DIMSTYLE
105
213
100
AcDbSymbolTableRecord
100
AcDbDimStyleTableRecord
  2
STANDARD
 70
0
  3

  4

 40
1.0
 41
0.6240335453
 42
1.0
 43
0.38
 44
1.0
 45
0.0
 46
0.0
 47
0.01
 48
0.01
140
0.8736469635
141
0.09
142
0.0
143
25.4
144
1.0
145
0.0
146
1.0
147
0.625
 71
1
 72
0
 73
0
 74
0
 75
0
 76
0
 77
1
 78
8
 79
2
170
0
171
1
172
0
173
0
174
0
175
0
176
0
177
0
178
0
270
2
179
2
271
2
272
2
273
2
274
2
275
0
280
0
281
0
282
0
283
1
284
8
285
0
286
0
287
3
288
0
340
11
278
46
341
212
342
212
343
212
344
212
  0
ENDTAB
  0
ENDSEC
  0
SECTION
  2
BLOCKS
  0
BLOCK
  5
20
100
AcDbEntity
  8
0
100
AcDbBlockBegin
  2
*Model_Space
 70
0
 10
0.0
 20
0.0
 30
0.0
  3
*Model_Space
  1

  0
ENDBLK
  5
21
100
AcDbEntity
  8
0
100
AcDbBlockEnd
  0
BLOCK
  5
1C
100
AcDbEntity
  8
0
100
AcDbBlockBegin
  2
*Paper_Space
 70
0
 10
0.0
 20
0.0
 30
0.0
  3
*Paper_Space
  1

  0
ENDBLK
  5
1D
100
AcDbEntity
  8
0
100
AcDbBlockEnd
  0
BLOCK
  5
214
100
AcDbEntity
  8
0
100
AcDbBlockBegin
  2
_FILLED
 70
64
 10
0.0
 20
0.0
  3
_FILLED
  1

  0
SOLID
  5
215
100
AcDbEntity
  8
0
  6
BYBLOCK
 62
0
100
AcDbTrace
 10
0.0
 20
0.0
 11
-1.0
 21
0.25
 12
-1.0
 22
-0.25
 13
-1.0
 23
-0.25
  0
ENDBLK
  5
216
100
AcDbEntity
  8
0
  6
BYBLOCK
 62
0
100
AcDbBlockEnd
  0
ENDSEC
  0
SECTION
  2
ENTITIES
  0
LINE
  5
217
100
AcDbEntity
  8
0
100
AcDbLine
 62
7
  6
BYLAYER
 10
6.5034494314
 20
45.9959143368
 11
6.5034494314
 21
38.3670486261
  0
LINE
  5
218
100
AcDbEntity
  8
0
100
AcDbLine
 62
7
  6
BYLAYER
 10
6.7807671582
 20
38.1814814815
 11
6.7807671582
 21
46.1814814815
  0
LINE
  5
219
100
AcDbEntity
  8
0
100
AcDbLine
 62
7
  6
BYLAYER
 10
15.3473718668
 20
47.5814814815
 11
14.9473718668
 21
47.1814814815
  0
LINE
  5
21A
100
AcDbEntity
  8
0
100
AcDbLine
 62
7
  6
BYLAYER
 10
15.4066982025
 20
49.7962351882
 11
16.0473718668
 21
50.0814814815
  0
LINE
  5
21B
100
AcDbEntity
  8
0
100
AcDbLine
 62
7
  6
BYLAYER
 10
16.4973718668
 20
50.0814814815
 11
16.7473718668
 21
50.1814814815
  0
LINE
  5
21C
100
AcDbEntity
  8
0
100
AcDbLine
 62
7
  6
BYLAYER
 10
33.8973720175
 20
22.6814814815
 11
44.8973717162
 21
22.6814814815
  0
LINE
  5
21D
100
AcDbEntity
  8
0
100
AcDbLine
 62
7
  6
BYLAYER
 10
45.1473718668
 20
22.9314814815
 11
40.465079692
 21
22.9314814815
  0
LINE
  5
21E
100
AcDbEntity
  8
0
100
AcDbLine
 62
7
  6
BYLAYER
 10
38.3296640416
 20
22.9314814815
 11
33.6473718668
 21
22.9314814815
  0
LINE
  5
21F
100
AcDbEntity
  8
0
100
AcDbLine
 62
7
  6
BYLAYER
 10
14.9473718668
 20
37.1814814815
 11
14.9473718668
 21
47.1814814815
  0
LINE
  5
220
100
AcDbEntity
  8
0
100
AcDbLine
 62
7
  6
BYLAYER
 10
33.6473718668
 20
24.3314814815
 11
34.417725795
 21
24.3314814815
  0
LINE
  5
221
100
AcDbEntity
  8
0
100
AcDbLine
 62
7
  6
BYLAYER
 10
44.3770179389
 20
24.3314814815
 11
45.1469410707
 21
24.3314814815
  0
LINE
  5
222
100
AcDbEntity
  8
0
100
AcDbLine
 62
7
  6
BYLAYER
 10
33.8974505537
 20
24.5814814815
 11
34.622436483
 21
24.5814814815
  0
LINE
  5
223
100
AcDbEntity
  8
0
100
AcDbLine
 62
7
  6
BYLAYER
 10
44.1791814029
 20
24.5814814815
 11
44.896959801
 21
24.5814814815
  0
LINE
  5
224
100
AcDbEntity
  8
0
100
AcDbLine
 62
7
  6
BYLAYER
 10
34.758627492
 20
24.8314814897
 11
34.7103120295
 21
24.8314814897
  0
LINE
  5
225
100
AcDbEntity
  8
0
100
AcDbLine
 62
7
  6
BYLAYER
 10
44.0361162417
 20
24.8314825133
 11
44.0844317041
 21
24.8314774565
  0
LINE
  5
226
100
AcDbEntity
  8
0
100
AcDbLine
 62
7
  6
BYLAYER
 10
15.3473718668
 20
34.6580880292
 11
15.3473718668
 21
35.738204422
  0
LINE
  5
227
100
AcDbEntity
  8
0
100
AcDbLine
 62
7
  6
BYLAYER
 10
15.3473718668
 20
35.7946248951
 11
15.3473718668
 21
41.9314814815
  0
LINE
  5
228
100
AcDbEntity
  8
0
100
AcDbLine
 62
7
  6
BYLAYER
 10
15.3473718668
 20
42.4314814815
 11
15.3473718668
 21
48.5683380678
  0
LINE
  5
229
100
AcDbEntity
  8
0
100
AcDbLine
 62
7
  6
BYLAYER
 10
15.3473718668
 20
48.6247585409
 11
15.3473718668
 21
49.7048749338
  0
LINE
  5
22A
100
AcDbEntity
  8
0
100
AcDbLine
 62
7
  6
BYLAYER
 10
15.4066982025
 20
34.5667277748
 11
15.4066982025
 21
35.4754831962
  0
LINE
  5
22B
100
AcDbEntity
  8
0
100
AcDbLine
 62
7
  6
BYLAYER
 10
15.4066982025
 20
35.7042953701
 11
15.4066982025
 21
41.9526695546
  0
LINE
  5
22C
100
AcDbEntity
  8
0
100
AcDbLine
 62
7
  6
BYLAYER
 10
15.4066982025
 20
42.4102938779
 11
15.4066982025
 21
48.6586678399
  0
LINE
  5
22D
100
AcDbEntity
  8
0
100
AcDbLine
 62
7
  6
BYLAYER
 10
15.4066982025
 20
48.8874799893
 11
15.4066982025
 21
49.7962351882
  0
LINE
  5
22E
100
AcDbEntity
  8
0
100
AcDbLine
 62
7
  6
BYLAYER
 10
15.4473718668
 20
41.9671957672
 11
15.4473718668
 21
42.3957671958
  0
LINE
  5
22F
100
AcDbEntity
  8
0
100
AcDbLine
 62
7
  6
BYLAYER
 10
16.0473718668
 20
34.2814814815
 11
16.0473718668
 21
50.0814814815
  0
LINE
  5
230
100
AcDbEntity
  8
0
100
AcDbLine
 62
7
  6
BYLAYER
 10
16.4973718668
 20
50.0814814815
 11
16.4973718668
 21
34.2814814815
  0
LINE
  5
231
100
AcDbEntity
  8
0
100
AcDbLine
 62
7
  6
BYLAYER
 10
44.0361162417
 20
26.0314814732
 11
44.0844317027
 21
26.0314814732
  0
LINE
  5
232
100
AcDbEntity
  8
0
100
AcDbLine
 62
7
  6
BYLAYER
 10
34.758627492
 20
26.0314885118
 11
34.7103120295
 21
26.0314904949
  0
LINE
  5
233
100
AcDbEntity
  8
0
100
AcDbLine
 62
7
  6
BYLAYER
 10
45.7473718668
 20
26.2814814815
 11
33.0473718668
 21
26.2814814815
  0
LINE
  5
234
100
AcDbEntity
  8
0
100
AcDbLine
 62
7
  6
BYLAYER
 10
33.0473718668
 20
26.8814814815
 11
45.7473718668
 21
26.8814814815
  0
LINE
  5
235
100
AcDbEntity
  8
0
100
AcDbLine
 62
7
  6
BYLAYER
 10
45.3973718668
 20
26.9814814815
 11
33.3973718668
 21
26.9814814815
  0
LINE
  5
236
100
AcDbEntity
  8
0
100
AcDbLine
 62
7
  6
BYLAYER
 10
16.7473718668
 20
33.3314814815
 11
16.7473718668
 21
51.1814783796
  0
LINE
  5
237
100
AcDbEntity
  8
0
100
AcDbLine
 62
7
  6
BYLAYER
 10
15.3473718668
 20
41.9314814815
 11
16.0473718668
 21
42.1814814815
  0
LINE
  5
238
100
AcDbEntity
  8
0
100
AcDbLine
 62
7
  6
BYLAYER
 10
45.3973718668
 20
27.9814814815
 11
33.3973718668
 21
27.9814814815
  0
LINE
  5
239
100
AcDbEntity
  8
0
100
AcDbLine
 62
7
  6
BYLAYER
 10
45.7473718668
 20
28.0814814815
 11
33.0473718668
 21
28.0814814815
  0
LINE
  5
23A
100
AcDbEntity
  8
0
100
AcDbLine
 62
7
  6
BYLAYER
 10
33.0473718668
 20
29.2314814815
 11
45.7473718668
 21
29.2314814815
  0
LINE
  5
23B
100
AcDbEntity
  8
0
100
AcDbLine
 62
7
  6
BYLAYER
 10
15.4066982025
 20
34.5667277748
 11
16.0473718668
 21
34.2814814815
  0
LINE
  5
23C
100
AcDbEntity
  8
0
100
AcDbLine
 62
7
  6
BYLAYER
 10
15.3473718668
 20
36.7814814815
 11
14.9473718668
 21
37.1814814815
  0
LINE
  5
23D
100
AcDbEntity
  8
0
100
AcDbLine
 62
7
  6
BYLAYER
 10
21.2473718668
 20
33.1815304575
 11
21.2473718668
 21
33.3314814815
  0
LINE
  5
23E
100
AcDbEntity
  8
0
100
AcDbLine
 62
7
  6
BYLAYER
 10
46.0973718668
 20
30.5314814815
 11
32.6973718668
 21
30.5314814815
  0
LINE
  5
23F
100
AcDbEntity
  8
0
100
AcDbLine
 62
7
  6
BYLAYER
 10
46.5709213075
 20
30.6814814815
 11
45.3486792095
 21
30.6814814815
  0
LINE
  5
240
100
AcDbEntity
  8
0
100
AcDbLine
 62
7
  6
BYLAYER
 10
42.4750237173
 20
30.6814814815
 11
41.4293531522
 21
30.6814814815
  0
LINE
  5
241
100
AcDbEntity
  8
0
100
AcDbLine
 62
7
  6
BYLAYER
 10
40.82984359
 20
30.6814814815
 11
39.7077008517
 21
30.6814814815
  0
LINE
  5
242
100
AcDbEntity
  8
0
100
AcDbLine
 62
7
  6
BYLAYER
 10
39.087042882
 20
30.6814814815
 11
37.9649001437
 21
30.6814814815
  0
LINE
  5
243
100
AcDbEntity
  8
0
100
AcDbLine
 62
7
  6
BYLAYER
 10
37.3653905815
 20
30.6814814815
 11
36.3197200163
 21
30.6814814815
  0
LINE
  5
244
100
AcDbEntity
  8
0
100
AcDbLine
 62
7
  6
BYLAYER
 10
33.4460645241
 20
30.6814814815
 11
32.3086688634
 21
30.6814814815
  0
LINE
  5
245
100
AcDbEntity
  8
0
100
AcDbLine
 62
7
  6
BYLAYER
 10
46.7605402635
 20
30.8814814815
 11
46.700498215
 21
30.8814814815
  0
LINE
  5
246
100
AcDbEntity
  8
0
100
AcDbLine
 62
7
  6
BYLAYER
 10
46.3187945539
 20
30.8814814815
 11
46.142760175
 21
30.8814814815
  0
LINE
  5
247
100
AcDbEntity
  8
0
100
AcDbLine
 62
7
  6
BYLAYER
 10
42.4403533936
 20
30.8814814815
 11
42.0153688086
 21
30.8814814815
  0
LINE
  5
248
100
AcDbEntity
  8
0
100
AcDbLine
 62
7
  6
BYLAYER
 10
40.5908313517
 20
30.8814814815
 11
40.1347667155
 21
30.8814814815
  0
LINE
  5
249
100
AcDbEntity
  8
0
100
AcDbLine
 62
7
  6
BYLAYER
 10
38.6599770182
 20
30.8814814815
 11
38.2039123819
 21
30.8814814815
  0
LINE
  5
24A
100
AcDbEntity
  8
0
100
AcDbLine
 62
7
  6
BYLAYER
 10
36.779374925
 20
30.8814814815
 11
36.35439034
 21
30.8814814815
  0
LINE
  5
24B
100
AcDbEntity
  8
0
100
AcDbLine
 62
7
  6
BYLAYER
 10
32.6519835587
 20
30.8814814815
 11
32.4759491798
 21
30.8814814815
  0
LINE
  5
24C
100
AcDbEntity
  8
0
100
AcDbLine
 62
7
  6
BYLAYER
 10
32.0942455186
 20
30.8814814815
 11
32.0342034702
 21
30.8814814815
  0
LINE
  5
24D
100
AcDbEntity
  8
0
100
AcDbLine
 62
7
  6
BYLAYER
 10
16.4973718668
 20
34.2814814815
 11
16.7473718668
 21
34.1814814815
  0
LINE
  5
24E
100
AcDbEntity
  8
0
100
AcDbLine
 62
7
  6
BYLAYER
 10
47.3973718668
 20
32.6814814815
 11
31.3973718668
 21
32.6814814815
  0
LINE
  5
24F
100
AcDbEntity
  8
0
100
AcDbLine
 62
7
  6
BYLAYER
 10
21.2473718668
 20
33.1814814815
 11
31.1473718668
 21
33.1814814815
  0
LINE
  5
250
100
AcDbEntity
  8
0
100
AcDbLine
 62
7
  6
BYLAYER
 10
16.7473718668
 20
33.3314814815
 11
21.2473718668
 21
33.3314814815
  0
LINE
  5
251
100
AcDbEntity
  8
0
100
AcDbLine
 62
7
  6
BYLAYER
 10
16.4973718668
 20
34.2814814815
 11
16.0473718668
 21
34.2814814815
  0
LWPOLYLINE
  5
252
100
AcDbEntity
  8
0
100
AcDbPolyline
 62
7
  6
BYLAYER
 90
5
 70
0
 10
44.1830201108
 20
24.577896589
 10
44.1812395962
 20
24.5790282457
 10
44.1345106363
 20
24.6347262015
 10
44.0907532903
 20
24.7579943225
 10
44.0844259414
 20
24.8314039901
  0
LWPOLYLINE
  5
253
100
AcDbEntity
  8
0
100
AcDbPolyline
 62
7
  6
BYLAYER
 90
4
 70
0
 10
34.6168842512
 20
26.2814814815
 10
34.6602334884
 20
26.2282360566
 10
34.7039877384
 20
26.1049839122
 10
34.7103182381
 20
26.0315344799
  0
LINE
  5
254
100
AcDbEntity
  8
0
100
AcDbLine
 62
7
  6
BYLAYER
 10
37.116965083
 20
37.5457726988
 11
16.7473718668
 21
37.5457726988
  0
LINE
  5
255
100
AcDbEntity
  8
0
100
AcDbLine
 62
7
  6
BYLAYER
 10
6.7807671582
 20
38.1814814815
 11
14.9473718668
 21
38.1814814815
  0
LINE
  5
256
100
AcDbEntity
  8
0
100
AcDbLine
 62
7
  6
BYLAYER
 10
39.3973718668
 20
38.575930206
 11
16.7473718668
 21
38.575930206
  0
LINE
  5
257
100
AcDbEntity
  8
0
100
AcDbLine
 62
7
  6
BYLAYER
 10
16.0473718668
 20
42.1814814815
 11
15.3473718668
 21
42.4314814815
  0
LINE
  5
258
100
AcDbEntity
  8
0
100
AcDbLine
 62
7
  6
BYLAYER
 10
31.3973718668
 20
32.6814814815
 11
31.3973718668
 21
32.9314814815
  0
LWPOLYLINE
  5
259
100
AcDbEntity
  8
0
100
AcDbPolyline
 62
7
  6
BYLAYER
 90
3
 70
0
 10
34.6746695826
 20
26.1875707595
 10
34.7032044954
 20
26.1093451153
 10
34.7034696012
 20
26.1064434625
  0
LINE
  5
25A
100
AcDbEntity
  8
0
100
AcDbLine
 62
7
  6
BYLAYER
 10
32.0342034702
 20
32.6814814815
 11
32.0342034702
 21
30.8814814815
  0
LINE
  5
25B
100
AcDbEntity
  8
0
100
AcDbLine
 62
7
  6
BYLAYER
 10
32.0942455186
 20
30.8814814815
 11
32.0942455186
 21
32.6814814815
  0
LINE
  5
25C
100
AcDbEntity
  8
0
100
AcDbLine
 62
7
  6
BYLAYER
 10
32.4759491798
 20
32.6814814815
 11
32.4759491798
 21
30.8814814815
  0
LINE
  5
25D
100
AcDbEntity
  8
0
100
AcDbLine
 62
7
  6
BYLAYER
 10
32.6519835587
 20
30.8814814815
 11
32.6519835587
 21
32.6814814815
  0
LINE
  5
25E
100
AcDbEntity
  8
0
100
AcDbLine
 62
7
  6
BYLAYER
 10
32.6973718668
 20
30.5314814815
 11
32.6973718668
 21
30.6814814815
  0
LINE
  5
25F
100
AcDbEntity
  8
0
100
AcDbLine
 62
7
  6
BYLAYER
 10
33.0473718668
 20
26.2814814815
 11
33.0473718668
 21
26.8814814815
  0
LINE
  5
260
100
AcDbEntity
  8
0
100
AcDbLine
 62
7
  6
BYLAYER
 10
33.0473718668
 20
28.0814814815
 11
33.0473718668
 21
29.2314814815
  0
LINE
  5
261
100
AcDbEntity
  8
0
100
AcDbLine
 62
7
  6
BYLAYER
 10
33.4460645241
 20
32.6814814815
 11
33.4460645241
 21
30.6814814815
  0
LINE
  5
262
100
AcDbEntity
  8
0
100
AcDbLine
 62
7
  6
BYLAYER
 10
33.6473718668
 20
24.3314814815
 11
33.6473718668
 21
22.9314814815
  0
LINE
  5
263
100
AcDbEntity
  8
0
100
AcDbLine
 62
7
  6
BYLAYER
 10
33.8973718668
 20
29.2314814815
 11
33.8973718668
 21
30.5314814815
  0
LINE
  5
264
100
AcDbEntity
  8
0
100
AcDbLine
 62
7
  6
BYLAYER
 10
34.7103120295
 20
26.0314904949
 11
34.7103120295
 21
24.8314814897
  0
LINE
  5
265
100
AcDbEntity
  8
0
100
AcDbLine
 62
7
  6
BYLAYER
 10
34.758627492
 20
26.031481458
 11
34.758627492
 21
24.8314814927
  0
LINE
  5
266
100
AcDbEntity
  8
0
100
AcDbLine
 62
7
  6
BYLAYER
 10
36.3197200163
 20
30.6814814815
 11
36.3197200163
 21
32.6814814815
  0
LINE
  5
267
100
AcDbEntity
  8
0
100
AcDbLine
 62
7
  6
BYLAYER
 10
36.35439034
 20
32.6814814815
 11
36.35439034
 21
30.8814814815
  0
LINE
  5
268
100
AcDbEntity
  8
0
100
AcDbLine
 62
7
  6
BYLAYER
 10
36.779374925
 20
30.8814814815
 11
36.779374925
 21
32.6814814815
  0
LWPOLYLINE
  5
269
100
AcDbEntity
  8
0
100
AcDbPolyline
 62
7
  6
BYLAYER
 90
4
 70
0
 10
34.7103179451
 20
24.8314815091
 10
34.7009291737
 20
24.7422127582
 10
34.6549229317
 20
24.6260453477
 10
34.622436483
 20
24.5861507294
  0
LINE
  5
26A
100
AcDbEntity
  8
0
100
AcDbLine
 62
7
  6
BYLAYER
 10
6.7807671582
 20
46.1814814815
 11
14.9473718668
 21
46.1814814815
  0
LINE
  5
26B
100
AcDbEntity
  8
0
100
AcDbLine
 62
7
  6
BYLAYER
 10
37.3653905815
 20
32.6814814815
 11
37.3653905815
 21
30.6814814815
  0
LINE
  5
26C
100
AcDbEntity
  8
0
100
AcDbLine
 62
7
  6
BYLAYER
 10
37.9649001437
 20
30.6814814815
 11
37.9649001437
 21
32.6814814815
  0
LINE
  5
26D
100
AcDbEntity
  8
0
100
AcDbLine
 62
7
  6
BYLAYER
 10
38.2039123819
 20
32.6814814815
 11
38.2039123819
 21
30.8814814815
  0
LINE
  5
26E
100
AcDbEntity
  8
0
100
AcDbLine
 62
7
  6
BYLAYER
 10
38.3296640416
 20
22.9314814815
 11
38.3296640416
 21
26.2814814815
  0
LINE
  5
26F
100
AcDbEntity
  8
0
100
AcDbLine
 62
7
  6
BYLAYER
 10
16.7473718668
 20
48.5691077167
 11
39.3973718668
 21
48.5691077167
  0
LINE
  5
270
100
AcDbEntity
  8
0
100
AcDbLine
 62
7
  6
BYLAYER
 10
38.6599770182
 20
30.8814814815
 11
38.6599770182
 21
32.6814814815
  0
LINE
  5
271
100
AcDbEntity
  8
0
100
AcDbLine
 62
7
  6
BYLAYER
 10
39.087042882
 20
32.6814814815
 11
39.087042882
 21
30.6814814815
  0
LINE
  5
272
100
AcDbEntity
  8
0
100
AcDbLine
 62
7
  6
BYLAYER
 10
39.3973718668
 20
50.5278704261
 11
39.3973718668
 21
38.575930206
  0
LINE
  5
273
100
AcDbEntity
  8
0
100
AcDbLine
 62
7
  6
BYLAYER
 10
39.7077008517
 20
30.6814814815
 11
39.7077008517
 21
32.6814814815
  0
LINE
  5
274
100
AcDbEntity
  8
0
100
AcDbLine
 62
7
  6
BYLAYER
 10
40.1347667155
 20
32.6814814815
 11
40.1347667155
 21
30.8814814815
  0
LINE
  5
275
100
AcDbEntity
  8
0
100
AcDbLine
 62
7
  6
BYLAYER
 10
16.4973718668
 20
50.0814814815
 11
16.0473718668
 21
50.0814814815
  0
LINE
  5
276
100
AcDbEntity
  8
0
100
AcDbLine
 62
7
  6
BYLAYER
 10
16.7473718668
 20
50.5278704261
 11
39.3973718668
 21
50.5278704261
  0
LINE
  5
277
100
AcDbEntity
  8
0
100
AcDbLine
 62
7
  6
BYLAYER
 10
40.465079692
 20
26.2814814815
 11
40.465079692
 21
22.9314814815
  0
LINE
  5
278
100
AcDbEntity
  8
0
100
AcDbLine
 62
7
  6
BYLAYER
 10
40.5908313517
 20
30.8814814815
 11
40.5908313517
 21
32.6814814815
  0
LINE
  5
279
100
AcDbEntity
  8
0
100
AcDbLine
 62
7
  6
BYLAYER
 10
40.82984359
 20
32.6814814815
 11
40.82984359
 21
30.6814814815
  0
LINE
  5
27A
100
AcDbEntity
  8
0
100
AcDbLine
 62
7
  6
BYLAYER
 10
41.4293531522
 20
30.6814814815
 11
41.4293531522
 21
32.6814814815
  0
LINE
  5
27B
100
AcDbEntity
  8
0
100
AcDbLine
 62
7
  6
BYLAYER
 10
45.3973694853
 20
51.1814814815
 11
16.7473718668
 21
51.1814814815
  0
LINE
  5
27C
100
AcDbEntity
  8
0
100
AcDbLine
 62
7
  6
BYLAYER
 10
44.1204142438
 20
24.6617199557
 11
44.1119514487
 21
24.6982773287
  0
LINE
  5
27D
100
AcDbEntity
  8
0
100
AcDbLine
 62
7
  6
BYLAYER
 10
42.0153688086
 20
32.6814814815
 11
42.0153688086
 21
30.8814814815
  0
LINE
  5
27E
100
AcDbEntity
  8
0
100
AcDbLine
 62
7
  6
BYLAYER
 10
42.4403533936
 20
30.8814814815
 11
42.4403533936
 21
32.6814814815
  0
LINE
  5
27F
100
AcDbEntity
  8
0
100
AcDbLine
 62
7
  6
BYLAYER
 10
42.4750237173
 20
32.6814814815
 11
42.4750237173
 21
30.6814814815
  0
LINE
  5
280
100
AcDbEntity
  8
0
100
AcDbLine
 62
7
  6
BYLAYER
 10
44.0361162417
 20
24.831481492
 11
44.0361162417
 21
26.0314814723
  0
LINE
  5
281
100
AcDbEntity
  8
0
100
AcDbLine
 62
7
  6
BYLAYER
 10
44.0844317041
 20
24.8314774565
 11
44.0844317041
 21
26.0314814732
  0
LINE
  5
282
100
AcDbEntity
  8
0
100
AcDbLine
 62
7
  6
BYLAYER
 10
44.8973718668
 20
29.2314814815
 11
44.8973718668
 21
30.5314814815
  0
LINE
  5
283
100
AcDbEntity
  8
0
100
AcDbLine
 62
7
  6
BYLAYER
 10
45.1473718668
 20
22.9314814815
 11
45.1473718668
 21
24.3314814815
  0
LWPOLYLINE
  5
284
100
AcDbEntity
  8
0
100
AcDbPolyline
 62
7
  6
BYLAYER
 90
4
 70
0
 10
44.0844253294
 20
26.0314814551
 10
44.0938297756
 20
26.1208213031
 10
44.1398525023
 20
26.2369672874
 10
44.1723212578
 20
26.2768249011
  0
LINE
  5
285
100
AcDbEntity
  8
0
100
AcDbLine
 62
7
  6
BYLAYER
 10
45.3486792095
 20
30.6814814815
 11
45.3486792095
 21
32.6814814815
  0
LINE
  5
286
100
AcDbEntity
  8
0
100
AcDbLine
 62
7
  6
BYLAYER
 10
45.7473718668
 20
26.2814814815
 11
45.7473718668
 21
26.8814814815
  0
LINE
  5
287
100
AcDbEntity
  8
0
100
AcDbLine
 62
7
  6
BYLAYER
 10
45.7473718668
 20
28.0814814815
 11
45.7473718668
 21
29.2314814815
  0
LINE
  5
288
100
AcDbEntity
  8
0
100
AcDbLine
 62
7
  6
BYLAYER
 10
46.0973718668
 20
30.5314814815
 11
46.0973718668
 21
30.6814814815
  0
LINE
  5
289
100
AcDbEntity
  8
0
100
AcDbLine
 62
7
  6
BYLAYER
 10
46.142760175
 20
32.6814814815
 11
46.142760175
 21
30.8814814815
  0
LINE
  5
28A
100
AcDbEntity
  8
0
100
AcDbLine
 62
7
  6
BYLAYER
 10
46.3187945539
 20
30.8814814815
 11
46.3187945539
 21
32.6814814815
  0
LINE
  5
28B
100
AcDbEntity
  8
0
100
AcDbLine
 62
7
  6
BYLAYER
 10
46.700498215
 20
32.6814814815
 11
46.700498215
 21
30.8814814815
  0
LINE
  5
28C
100
AcDbEntity
  8
0
100
AcDbLine
 62
7
  6
BYLAYER
 10
46.7605402635
 20
30.8814814815
 11
46.7605402635
 21
32.6814814815
  0
LINE
  5
28D
100
AcDbEntity
  8
0
100
AcDbLine
 62
7
  6
BYLAYER
 10
47.3973718668
 20
32.6814814815
 11
47.3973718668
 21
49.1814814815
  0
ARC
  5
28E
100
AcDbEntity
  8
0
100
AcDbCircle
 62
7
  6
BYLAYER
 10
66.6494333751
 20
-40.6858921294
 40
102.9964473061
100
AcDbArc
 50
119.4260032362
 51
119.8360251272
  0
ARC
  5
28F
100
AcDbEntity
  8
0
100
AcDbCircle
 62
7
  6
BYLAYER
 10
66.6481308758
 20
125.0465630068
 40
102.9938142695
100
AcDbArc
 50
240.1639806754
 51
240.5740024424
  0
ARC
  5
290
100
AcDbEntity
  8
0
100
AcDbCircle
 62
7
  6
BYLAYER
 10
30.798776224
 20
-22.2546012357
 40
72.7881321837
100
AcDbArc
 50
101.6926816711
 51
102.2081563768
  0
ARC
  5
291
100
AcDbEntity
  8
0
100
AcDbCircle
 62
7
  6
BYLAYER
 10
30.5765052102
 20
105.5673940786
 40
71.7147050084
100
AcDbArc
 50
257.7879717289
 51
258.3111756423
  0
ARC
  5
292
100
AcDbEntity
  8
0
100
AcDbCircle
 62
7
  6
BYLAYER
 10
15.7473718668
 20
42.1814814815
 40
10.0
100
AcDbArc
 50
157.5768882255
 51
202.4231117745
  0
ARC
  5
293
100
AcDbEntity
  8
0
100
AcDbCircle
 62
7
  6
BYLAYER
 10
45.3973693539
 20
49.1814803916
 40
2.000000393
100
AcDbArc
 50
0.0000312281
 51
89.9998643948
  0
ARC
  5
294
100
AcDbEntity
  8
0
100
AcDbCircle
 62
7
  6
BYLAYER
 10
44.6905949723
 20
26.031325016
 40
0.6544787493
100
AcDbArc
 50
172.6189104596
 51
179.9863031682
  0
ARC
  5
295
100
AcDbEntity
  8
0
100
AcDbCircle
 62
7
  6
BYLAYER
 10
34.1042954148
 20
26.0313373023
 40
0.6543320931
100
AcDbArc
 50
0.0126228141
 51
7.3280047099
  0
ARC
  5
296
100
AcDbEntity
  8
0
100
AcDbCircle
 62
7
  6
BYLAYER
 10
44.6873720741
 20
24.8315306868
 40
0.6512558343
100
AcDbArc
 50
180.0043280244
 51
180.4321782665
  0
ARC
  5
297
100
AcDbEntity
  8
0
100
AcDbCircle
 62
7
  6
BYLAYER
 10
34.1073753261
 20
24.8315311482
 40
0.6512521677
100
AcDbArc
 50
359.5678132184
 51
359.9956314181
  0
ARC
  5
298
100
AcDbEntity
  8
0
100
AcDbCircle
 62
7
  6
BYLAYER
 10
34.1752430072
 20
24.8094357341
 40
0.5795902218
100
AcDbArc
 50
332.5652072336
 51
335.472070276
  0
ARC
  5
299
100
AcDbEntity
  8
0
100
AcDbCircle
 62
7
  6
BYLAYER
 10
44.6158430363
 20
24.8077109937
 40
0.5755466053
100
AcDbArc
 50
204.5236861238
 51
208.775439573
  0
ARC
  5
29A
100
AcDbEntity
  8
0
100
AcDbCircle
 62
7
  6
BYLAYER
 10
45.3973718668
 20
27.4814814815
 40
0.5
100
AcDbArc
 50
270.0
 51
90.0
  0
ARC
  5
29B
100
AcDbEntity
  8
0
100
AcDbCircle
 62
7
  6
BYLAYER
 10
33.3973718668
 20
27.4814814815
 40
0.5
100
AcDbArc
 50
90.0
 51
270.0
  0
ARC
  5
29C
100
AcDbEntity
  8
0
100
AcDbCircle
 62
7
  6
BYLAYER
 10
6.7807671582
 20
38.4814814815
 40
0.3
100
AcDbArc
 50
202.4230848544
 51
270.0
  0
ARC
  5
29D
100
AcDbEntity
  8
0
100
AcDbCircle
 62
7
  6
BYLAYER
 10
6.7807671582
 20
45.8814814815
 40
0.3
100
AcDbArc
 50
90.0
 51
157.5769151456
  0
ARC
  5
29E
100
AcDbEntity
  8
0
100
AcDbCircle
 62
7
  6
BYLAYER
 10
31.1472762246
 20
32.9313855271
 40
0.2501044793
100
AcDbArc
 50
0.0219822914
 51
89.9780891243
  0
ARC
  5
29F
100
AcDbEntity
  8
0
100
AcDbCircle
 62
7
  6
BYLAYER
 10
33.8973718668
 20
24.3314814815
 40
0.25
100
AcDbArc
 50
90.0
 51
180.0
  0
ARC
  5
2A0
100
AcDbEntity
  8
0
100
AcDbCircle
 62
7
  6
BYLAYER
 10
44.8973718668
 20
24.3314814815
 40
0.25
100
AcDbArc
 50
0.0
 51
90.0
  0
ARC
  5
2A1
100
AcDbEntity
  8
0
100
AcDbCircle
 62
7
  6
BYLAYER
 10
33.5473718668
 20
27.1314814815
 40
0.25
100
AcDbArc
 50
270.000036775
 51
328.3436263358
  0
ARC
  5
2A2
100
AcDbEntity
  8
0
100
AcDbCircle
 62
7
  6
BYLAYER
 10
45.2473718668
 20
27.1314814815
 40
0.25
100
AcDbArc
 50
211.6563736642
 51
269.999963225
  0
ARC
  5
2A3
100
AcDbEntity
  8
0
100
AcDbCircle
 62
7
  6
BYLAYER
 10
45.2473718668
 20
27.8314814815
 40
0.25
100
AcDbArc
 50
90.0000126816
 51
148.3436210357
  0
ARC
  5
2A4
100
AcDbEntity
  8
0
100
AcDbCircle
 62
7
  6
BYLAYER
 10
33.8973718668
 20
22.9314814815
 40
0.25
100
AcDbArc
 50
180.0
 51
270.0000345253
  0
ARC
  5
2A5
100
AcDbEntity
  8
0
100
AcDbCircle
 62
7
  6
BYLAYER
 10
44.8973718668
 20
22.9314814815
 40
0.25
100
AcDbArc
 50
269.9999654747
 51
360.0
  0
ARC
  5
2A6
100
AcDbEntity
  8
0
100
AcDbCircle
 62
7
  6
BYLAYER
 10
33.5473718668
 20
27.8314814815
 40
0.25
100
AcDbArc
 50
31.6563789643
 51
89.9999873184
  0
ARC
  5
2A7
100
AcDbEntity
  8
0
100
AcDbCircle
 62
7
  6
BYLAYER
 10
15.4473718668
 20
34.6580823205
 40
0.1
100
AcDbArc
 50
180.0
 51
245.9999999989
  0
ARC
  5
2A8
100
AcDbEntity
  8
0
100
AcDbCircle
 62
7
  6
BYLAYER
 10
15.4473718668
 20
49.7048806424
 40
0.1
100
AcDbArc
 50
114.0000000011
 51
180.0
  0
SPLINE
  5
2A9
100
AcDbEntity
  8
0
100
AcDbSpline
 62
7
  6
BYLAYER
 70
0
 71
3
 72
11
 73
7
 74
0
 42
0.0000001
 43
0.0000001
 44
0.0000000001
 40
0.0
 40
0.0
 40
0.0
 40
0.0
 40
0.2333426736
 40
0.4810194242
 40
0.7388432976
 40
1.0
 40
1.0
 40
1.0
 40
1.0
 10
15.3473718668
 20
48.5683380678
 30
0.0
 10
15.3473718668
 20
48.5770995043
 30
0.0
 10
15.3506082644
 20
48.5952344684
 30
0.0
 10
15.3632053185
 20
48.6203014349
 30
0.0
 10
15.3822994542
 20
48.6421941851
 30
0.0
 10
15.3981890844
 20
48.6537859949
 30
0.0
 10
15.406694837
 20
48.6586650904
 30
0.0
  0
SPLINE
  5
2AA
100
AcDbEntity
  8
0
100
AcDbSpline
 62
7
  6
BYLAYER
 70
0
 71
3
 72
11
 73
7
 74
0
 42
0.0000001
 43
0.0000001
 44
0.0000000001
 40
0.0
 40
0.0
 40
0.0
 40
0.0
 40
0.2611362341
 40
0.5189824116
 40
0.7666787818
 40
1.0
 40
1.0
 40
1.0
 40
1.0
 10
15.4067113729
 20
35.7042846326
 30
0.0
 10
15.3982045908
 20
35.7091643186
 30
0.0
 10
15.3823092914
 20
35.7207551643
 30
0.0
 10
15.3632109198
 20
35.7426528222
 30
0.0
 10
15.3506056023
 20
35.7677231971
 30
0.0
 10
15.3473718668
 20
35.7858625172
 30
0.0
 10
15.3473718668
 20
35.7946248951
 30
0.0
  0
SPLINE
  5
2AB
100
AcDbEntity
  8
0
100
AcDbSpline
 62
7
  6
BYLAYER
 70
0
 71
3
 72
11
 73
7
 74
0
 42
0.0000001
 43
0.0000001
 44
0.0000000001
 40
0.0
 40
0.0
 40
0.0
 40
0.0
 40
0.2703185467
 40
0.5272762569
 40
0.7684602118
 40
1.0
 40
1.0
 40
1.0
 40
1.0
 10
32.0342034702
 20
30.8814814815
 30
0.0
 10
32.0342034702
 20
30.8540730086
 30
0.0
 10
32.0448053082
 20
30.7999991135
 30
0.0
 10
32.0889685217
 20
30.7334372172
 30
0.0
 10
32.1519096177
 20
30.6910855551
 30
0.0
 10
32.2003459487
 20
30.6814814815
 30
0.0
 10
32.2238225177
 20
30.6814814815
 30
0.0
  0
SPLINE
  5
2AC
100
AcDbEntity
  8
0
100
AcDbSpline
 62
7
  6
BYLAYER
 70
0
 71
3
 72
13
 73
9
 74
0
 42
0.0000001
 43
0.0000001
 44
0.0000000001
 40
0.0
 40
0.0
 40
0.0
 40
0.0
 40
0.2951415808
 40
0.4335022353
 40
0.5625842907
 40
0.7924994926
 40
0.8980275033
 40
1.0
 40
1.0
 40
1.0
 40
1.0
 10
32.4759491798
 20
30.8814814815
 30
0.0
 10
32.4759491798
 20
30.8542607174
 30
0.0
 10
32.4821262448
 20
30.8138355164
 30
0.0
 10
32.5025856184
 20
30.7659145573
 30
0.0
 10
32.5276827343
 20
30.7273427352
 30
0.0
 10
32.5611952646
 20
30.698282138
 30
0.0
 10
32.5992224964
 20
30.6838730218
 30
0.0
 10
32.6184367308
 20
30.6814814815
 30
0.0
 10
32.6278416045
 20
30.6814814815
 30
0.0
  0
SPLINE
  5
2AD
100
AcDbEntity
  8
0
100
AcDbSpline
 62
7
  6
BYLAYER
 70
0
 71
3
 72
13
 73
9
 74
0
 42
0.0000001
 43
0.0000001
 44
0.0000000001
 40
0.0
 40
0.0
 40
0.0
 40
0.0
 40
0.1019540816
 40
0.207456634
 40
0.4374095596
 40
0.5665604731
 40
0.7049583223
 40
1.0
 40
1.0
 40
1.0
 40
1.0
 10
46.1669023098
 20
30.6814814815
 30
0.0
 10
46.176305495
 20
30.6814814815
 30
0.0
 10
46.1955161424
 20
30.6838692744
 30
0.0
 10
46.2335424951
 20
30.6982785779
 30
0.0
 10
46.2670668014
 20
30.72733933
 30
0.0
 10
46.2921602044
 20
30.7659297866
 30
0.0
 10
46.312623025
 20
30.8138494037
 30
0.0
 10
46.3187945539
 20
30.8542699026
 30
0.0
 10
46.3187945539
 20
30.8814814815
 30
0.0
  0
SPLINE
  5
2AE
100
AcDbEntity
  8
0
100
AcDbSpline
 62
7
  6
BYLAYER
 70
0
 71
3
 72
11
 73
7
 74
0
 42
0.0000001
 43
0.0000001
 44
0.0000000001
 40
0.0
 40
0.0
 40
0.0
 40
0.0
 40
0.2314914985
 40
0.4727175824
 40
0.7297742334
 40
1.0
 40
1.0
 40
1.0
 40
1.0
 10
46.5709214415
 20
30.6814814815
 30
0.0
 10
46.5943931531
 20
30.6814814815
 30
0.0
 10
46.6428286745
 20
30.6910820674
 30
0.0
 10
46.7057816579
 20
30.7334361153
 30
0.0
 10
46.749940443
 20
30.800009148
 30
0.0
 10
46.7605402635
 20
30.8540823704
 30
0.0
 10
46.7605402635
 20
30.8814814815
 30
0.0
  0
SPLINE
  5
2AF
100
AcDbEntity
  8
0
100
AcDbSpline
 62
7
  6
BYLAYER
 70
0
 71
3
 72
14
 73
10
 74
0
 42
0.0000001
 43
0.0000001
 44
0.0000000001
 40
0.0
 40
0.0
 40
0.0
 40
0.0
 40
0.1391861137
 40
0.2805805218
 40
0.420183901
 40
0.5545075048
 40
0.7957917953
 40
0.9024921199
 40
1.0
 40
1.0
 40
1.0
 40
1.0
 10
34.4177297644
 20
24.3314814816
 30
0.0
 10
34.4177293747
 20
24.3480418843
 30
0.0
 10
34.4207053134
 20
24.3814822201
 30
0.0
 10
34.433555037
 20
24.4300668082
 30
0.0
 10
34.4552019394
 20
24.4748454029
 30
0.0
 10
34.4916700484
 20
24.5244463127
 30
0.0
 10
34.5391402892
 20
24.559930889
 30
0.0
 10
34.5894996754
 20
24.5773122935
 30
0.0
 10
34.6137283832
 20
24.5807216457
 30
0.0
 10
34.6253168042
 20
24.5812726864
 30
0.0
  0
SPLINE
  5
2B0
100
AcDbEntity
  8
0
100
AcDbSpline
 62
7
  6
BYLAYER
 70
0
 71
3
 72
11
 73
7
 74
0
 42
0.0000001
 43
0.0000001
 44
0.0000000001
 40
0.0
 40
0.0
 40
0.0
 40
0.0
 40
0.257453835
 40
0.5044264579
 40
0.7484980978
 40
1.0
 40
1.0
 40
1.0
 40
1.0
 10
15.4067113733
 20
48.8874856498
 30
0.0
 10
15.3984503324
 20
48.8856972984
 30
0.0
 10
15.3826201462
 20
48.8799498425
 30
0.0
 10
15.362938514
 20
48.8644470281
 30
0.0
 10
15.3501578016
 20
48.8430416035
 30
0.0
 10
15.3473718668
 20
48.8265950576
 30
0.0
 10
15.3473718668
 20
48.8183380678
 30
0.0
  0
SPLINE
  5
2B1
100
AcDbEntity
  8
0
100
AcDbSpline
 62
7
  6
BYLAYER
 70
0
 71
3
 72
9
 73
5
 74
0
 42
0.0000001
 43
0.0000001
 44
0.0000000001
 40
0.0
 40
0.0
 40
0.0
 40
0.0
 40
0.5190891053
 40
1.0
 40
1.0
 40
1.0
 40
1.0
 10
44.0361347667
 20
24.8266183538
 30
0.0
 10
44.0364809131
 20
24.7807186875
 30
0.0
 10
44.0464898262
 20
24.6921028285
 30
0.0
 10
44.0745595446
 20
24.6075051987
 30
0.0
 10
44.0922166292
 20
24.5688192176
 30
0.0
  0
SPLINE
  5
2B2
100
AcDbEntity
  8
0
100
AcDbSpline
 62
7
  6
BYLAYER
 70
0
 71
3
 72
11
 73
7
 74
0
 42
0.0000001
 43
0.0000001
 44
0.0000000001
 40
0.0
 40
0.0
 40
0.0
 40
0.0
 40
0.3038757773
 40
0.5673953081
 40
0.7960829776
 40
1.0
 40
1.0
 40
1.0
 40
1.0
 10
44.1113688923
 20
24.5306555245
 30
0.0
 10
44.1282705907
 20
24.4999173815
 30
0.0
 10
44.165345227
 20
24.4452659398
 30
0.0
 10
44.2324687075
 20
24.3813789381
 30
0.0
 10
44.303312798
 20
24.3414494167
 30
0.0
 10
44.3534783796
 20
24.3314729039
 30
0.0
 10
44.3770179389
 20
24.3314814815
 30
0.0
  0
SPLINE
  5
2B3
100
AcDbEntity
  8
0
100
AcDbSpline
 62
7
  6
BYLAYER
 70
0
 71
3
 72
15
 73
11
 74
0
 42
0.0000001
 43
0.0000001
 44
0.0000000001
 40
0.0
 40
0.0
 40
0.0
 40
0.0
 40
0.1372991475
 40
0.2768732118
 40
0.4150622456
 40
0.5487670853
 40
0.674878874
 40
0.7924038101
 40
0.9007084735
 40
1.0
 40
1.0
 40
1.0
 40
1.0
 10
44.3770153589
 20
24.3314814816
 30
0.0
 10
44.3770156973
 20
24.3472633946
 30
0.0
 10
44.3743077794
 20
24.3791369882
 30
0.0
 10
44.3626183436
 20
24.4256274215
 30
0.0
 10
44.342890376
 20
24.4688994173
 30
0.0
 10
44.3167352978
 20
24.5067439918
 30
0.0
 10
44.285568748
 20
24.5373049085
 30
0.0
 10
44.2515554348
 20
24.5596606884
 30
0.0
 10
44.2168427207
 20
24.5740742602
 30
0.0
 10
44.1933261182
 20
24.5789526956
 30
0.0
 10
44.1819874516
 20
24.5802541232
 30
0.0
  0
SPLINE
  5
2B4
100
AcDbEntity
  8
0
100
AcDbSpline
 62
7
  6
BYLAYER
 70
0
 71
3
 72
11
 73
7
 74
0
 42
0.0000001
 43
0.0000001
 44
0.0000000001
 40
0.0
 40
0.0
 40
0.0
 40
0.0
 40
0.2515201901
 40
0.4955792554
 40
0.7425312788
 40
1.0
 40
1.0
 40
1.0
 40
1.0
 10
15.3473718668
 20
35.5446248951
 30
0.0
 10
15.3473718668
 20
35.5363689857
 30
0.0
 10
15.3501608366
 20
35.5199266437
 30
0.0
 10
15.3629328911
 20
35.4985230444
 30
0.0
 10
15.3826098074
 20
35.4830233048
 30
0.0
 10
15.3984349999
 20
35.4772727385
 30
0.0
 10
15.406694837
 20
35.4754846476
 30
0.0
  0
SPLINE
  5
2B5
100
AcDbEntity
  8
0
100
AcDbSpline
 62
7
  6
BYLAYER
 70
0
 71
3
 72
9
 73
5
 74
0
 42
0.0000001
 43
0.0000001
 44
0.0000000001
 40
0.0
 40
0.0
 40
0.0
 40
0.0
 40
0.2609424042
 40
1.0
 40
1.0
 40
1.0
 40
1.0
 10
44.0415394844
 20
26.115404781
 30
0.0
 10
44.043468895
 20
26.1302755253
 30
0.0
 10
44.0528412084
 20
26.1869885091
 30
0.0
 10
44.0699031222
 20
26.2424418174
 30
0.0
 10
44.0866267849
 20
26.2814814815
 30
0.0
  0
SPLINE
  5
2B6
100
AcDbEntity
  8
0
100
AcDbSpline
 62
7
  6
BYLAYER
 70
0
 71
3
 72
39
 73
35
 74
0
 42
0.0000001
 43
0.0000001
 44
0.0000000001
 40
0.0
 40
0.0
 40
0.0
 40
0.0
 40
0.0078005152
 40
0.0156126775
 40
0.0234278182
 40
0.0312428467
 40
0.0468607901
 40
0.0624848312
 40
0.0781104281
 40
0.0937365066
 40
0.1249847866
 40
0.156235499
 40
0.1874871083
 40
0.218739137
 40
0.2499913549
 40
0.3124938385
 40
0.3749974141
 40
0.4999996811
 40
0.6250021727
 40
0.687505851
 40
0.7500083961
 40
0.7812606376
 40
0.8125126807
 40
0.8437642953
 40
0.8750150157
 40
0.9062633038
 40
0.9218893895
 40
0.9375149973
 40
0.9531390454
 40
0.9687570225
 40
0.9765720573
 40
0.9843872521
 40
0.992199356
 40
1.0
 40
1.0
 40
1.0
 40
1.0
 10
38.3296640416
 20
22.9314814815
 30
0.0
 10
38.3296640416
 20
22.9256512383
 30
0.0
 10
38.3319826722
 20
22.9139032276
 30
0.0
 10
38.3407209821
 20
22.8985134647
 30
0.0
 10
38.3524225108
 20
22.8853597374
 30
0.0
 10
38.3703021059
 20
22.8702542239
 30
0.0
 10
38.3952213558
 20
22.8548055262
 30
0.0
 10
38.4268809956
 20
22.8397385903
 30
0.0
 10
38.4595695874
 20
22.8270597915
 30
0.0
 10
38.5039798889
 20
22.8125249021
 30
0.0
 10
38.5605276508
 20
22.7977663843
 30
0.0
 10
38.629191495
 20
22.7836984524
 30
0.0
 10
38.6983489909
 20
22.7723164797
 30
0.0
 10
38.7678111793
 20
22.7630103085
 30
0.0
 10
38.8606942768
 20
22.7528321226
 30
0.0
 10
38.9771387694
 20
22.7435309796
 30
0.0
 10
39.1637714387
 20
22.7339764754
 30
0.0
 10
39.3973713249
 20
22.7298177834
 30
0.0
 10
39.6309712812
 20
22.7339765024
 30
0.0
 10
39.8176042545
 20
22.7435307934
 30
0.0
 10
39.9340488774
 20
22.7528320719
 30
0.0
 10
40.0269320533
 20
22.7630102179
 30
0.0
 10
40.0963942757
 20
22.7723163852
 30
0.0
 10
40.1655517845
 20
22.7836984019
 30
0.0
 10
40.2342156607
 20
22.7977662553
 30
0.0
 10
40.2907634411
 20
22.8125247752
 30
0.0
 10
40.3351737696
 20
22.8270596407
 30
0.0
 10
40.3678623971
 20
22.8397384044
 30
0.0
 10
40.3995220584
 20
22.8548053796
 30
0.0
 10
40.4244413854
 20
22.8702540186
 30
0.0
 10
40.4423210417
 20
22.8853595738
 30
0.0
 10
40.4540225749
 20
22.898513291
 30
0.0
 10
40.4627610538
 20
22.9139030636
 30
0.0
 10
40.465079692
 20
22.9256511421
 30
0.0
 10
40.465079692
 20
22.9314814815
 30
0.0
  0
SPLINE
  5
2B7
100
AcDbEntity
  8
0
100
AcDbSpline
 62
7
  6
BYLAYER
 70
0
 71
3
 72
9
 73
5
 74
0
 42
0.0000001
 43
0.0000001
 44
0.0000000001
 40
0.0
 40
0.0
 40
0.0
 40
0.0
 40
0.2383026063
 40
1.0
 40
1.0
 40
1.0
 40
1.0
 10
34.7081169366
 20
26.2814814815
 30
0.0
 10
34.7135280915
 20
26.2688496968
 30
0.0
 10
34.7344029973
 20
26.215074364
 30
0.0
 10
34.7476725452
 20
26.1583613551
 30
0.0
 10
34.7532830661
 20
26.1147969721
 30
0.0
  0
SPLINE
  5
2B8
100
AcDbEntity
  8
0
100
AcDbSpline
 62
7
  6
BYLAYER
 70
0
 71
3
 72
9
 73
5
 74
0
 42
0.0000001
 43
0.0000001
 44
0.0000000001
 40
0.0
 40
0.0
 40
0.0
 40
0.0
 40
0.5190888634
 40
1.0
 40
1.0
 40
1.0
 40
1.0
 10
34.7586089664
 20
24.826618746
 30
0.0
 10
34.7582628234
 20
24.7807204149
 30
0.0
 10
34.7482545732
 20
24.6921071002
 30
0.0
 10
34.7201865009
 20
24.6075116545
 30
0.0
 10
34.7025304359
 20
24.5688265225
 30
0.0
  0
SPLINE
  5
2B9
100
AcDbEntity
  8
0
100
AcDbSpline
 62
7
  6
BYLAYER
 70
0
 71
3
 72
11
 73
7
 74
0
 42
0.0000001
 43
0.0000001
 44
0.0000000001
 40
0.0
 40
0.0
 40
0.0
 40
0.0
 40
0.3055099782
 40
0.569536559
 40
0.7975917414
 40
1.0
 40
1.0
 40
1.0
 40
1.0
 10
34.6896500586
 20
24.5423960167
 30
0.0
 10
34.6727729677
 20
24.5099033776
 30
0.0
 10
34.6353481165
 20
24.4521151473
 30
0.0
 10
34.5666636379
 20
24.3844516458
 30
0.0
 10
34.4938087235
 20
24.3421091906
 30
0.0
 10
34.4419837211
 20
24.3314726505
 30
0.0
 10
34.417725795
 20
24.3314814815
 30
0.0
  0
SPLINE
  5
2BA
100
AcDbEntity
  8
0
100
AcDbSpline
 62
7
  6
BYLAYER
 70
0
 71
3
 72
41
 73
37
 74
0
 42
0.0000001
 43
0.0000001
 44
0.0000000001
 40
0.0
 40
0.0
 40
0.0
 40
0.0
 40
0.1946194177
 40
0.2895774414
 40
0.381753515
 40
0.4702775177
 40
0.5543030465
 40
0.6330407724
 40
0.7057485135
 40
0.7717285288
 40
0.801995542
 40
0.8303441461
 40
0.8567055788
 40
0.8810144801
 40
0.9032059204
 40
0.9232233902
 40
0.9410167237
 40
0.9565359961
 40
0.9697387659
 40
0.9754613001
 40
0.9805926487
 40
0.9851288453
 40
0.9890659442
 40
0.9924010591
 40
0.9951327875
 40
0.9962719782
 40
0.9972598379
 40
0.9980962051
 40
0.9987809183
 40
0.9993138159
 40
0.9995232833
 40
0.9996947363
 40
0.9998281547
 40
0.9999235182
 40
0.9999808066
 40
1.0
 40
1.0
 40
1.0
 40
1.0
 10
39.3973718668
 20
48.5691077167
 30
0.0
 10
39.9183629615
 20
48.5691092998
 30
0.0
 10
40.6936214996
 20
48.5808412433
 30
0.0
 10
41.714869891
 20
48.6191868544
 30
0.0
 10
42.451830233
 20
48.6575197207
 30
0.0
 10
43.1589830385
 20
48.7040872107
 30
0.0
 10
43.8295982282
 20
48.7571057785
 30
0.0
 10
44.4573463459
 20
48.8144773881
 30
0.0
 10
45.0363482234
 20
48.8740010929
 30
0.0
 10
45.4857741793
 20
48.9248659724
 30
0.0
 10
45.8169254796
 20
48.9647135121
 30
0.0
 10
46.0426605492
 20
48.9928515394
 30
0.0
 10
46.2524624728
 20
49.019851559
 30
0.0
 10
46.4458233999
 20
49.0454610612
 30
0.0
 10
46.6222700783
 20
49.069426292
 30
0.0
 10
46.7813674523
 20
49.0915239877
 30
0.0
 10
46.9227185654
 20
49.1115550859
 30
0.0
 10
47.0459657251
 20
49.1293174618
 30
0.0
 10
47.1372039587
 20
49.1426504643
 30
0.0
 10
47.2009130034
 20
49.1520522508
 30
0.0
 10
47.2416655607
 20
49.1580998813
 30
0.0
 10
47.2776865476
 20
49.1634713281
 30
0.0
 10
47.3089491619
 20
49.1681502135
 30
0.0
 10
47.3354329783
 20
49.1721241008
 30
0.0
 10
47.3545086043
 20
49.1749943391
 30
0.0
 10
47.3673700331
 20
49.1769338193
 30
0.0
 10
47.3752140165
 20
49.178118565
 30
0.0
 10
47.3818550214
 20
49.1791226886
 30
0.0
 10
47.3872909574
 20
49.1799472008
 30
0.0
 10
47.3910690432
 20
49.1805183813
 30
0.0
 10
47.3934858557
 20
49.1808892351
 30
0.0
 10
47.3948505239
 20
49.1810898888
 30
0.0
 10
47.3959006996
 20
49.1812684389
 30
0.0
 10
47.3966780733
 20
49.1813456525
 30
0.0
 10
47.3970969915
 20
49.1814831394
 30
0.0
 10
47.3973364606
 20
49.1814442481
 30
0.0
 10
47.3973718668
 20
49.1814814815
 30
0.0
  0
SPLINE
  5
2BB
100
AcDbEntity
  8
0
100
AcDbSpline
 62
7
  6
BYLAYER
 70
0
 71
3
 72
33
 73
29
 74
0
 42
0.0000001
 43
0.0000001
 44
0.0000000001
 40
0.0
 40
0.0
 40
0.0
 40
0.0
 40
0.1957024888
 40
0.2910999411
 40
0.383603307
 40
0.4723096218
 40
0.5563915678
 40
0.6350551715
 40
0.7075870702
 40
0.7733088181
 40
0.831622336
 40
0.8819677295
 40
0.9040037292
 40
0.9238733434
 40
0.9415232264
 40
0.9569133746
 40
0.9700070418
 40
0.9807673689
 40
0.9852615007
 40
0.9891615322
 40
0.9924659359
 40
0.9951731829
 40
0.9972817437
 40
0.9987900878
 40
0.9993187002
 40
0.999696684
 40
0.9999238478
 40
1.0
 40
1.0
 40
1.0
 40
1.0
 10
39.3973718668
 20
50.5278695732
 30
0.0
 10
39.7918299163
 20
50.5278698707
 30
0.0
 10
40.3786774696
 20
50.5406098747
 30
0.0
 10
41.1507795998
 20
50.5823108691
 30
0.0
 10
41.7068084361
 20
50.6237559156
 30
0.0
 10
42.2391887559
 20
50.6740848658
 30
0.0
 10
42.7428257358
 20
50.7311001211
 30
0.0
 10
43.2130635889
 20
50.7926380005
 30
0.0
 10
43.6456488273
 20
50.8562347642
 30
0.0
 10
44.0367818978
 20
50.9194786926
 30
0.0
 10
44.3830211728
 20
50.9800051383
 30
0.0
 10
44.6420101697
 20
51.0281917041
 30
0.0
 10
44.8245597438
 20
51.0635465447
 30
0.0
 10
44.9423133503
 20
51.0868658098
 30
0.0
 10
45.0468522667
 20
51.1079549581
 30
0.0
 10
45.1379421674
 20
51.1266434981
 30
0.0
 10
45.215381555
 20
51.1427695045
 30
0.0
 10
45.2712914498
 20
51.1545549699
 30
0.0
 10
45.3090595192
 20
51.1625633587
 30
0.0
 10
45.3321229996
 20
51.1674701831
 30
0.0
 10
45.3516603003
 20
51.1716427315
 30
0.0
 10
45.367665087
 20
51.1750687857
 30
0.0
 10
45.3801250069
 20
51.17775539
 30
0.0
 10
45.3882975159
 20
51.1795024315
 30
0.0
 10
45.3930486058
 20
51.1805522127
 30
0.0
 10
45.3952923754
 20
51.1810030439
 30
0.0
 10
45.3966157789
 20
51.1813537731
 30
0.0
 10
45.3972323498
 20
51.1814225326
 30
0.0
 10
45.3973743235
 20
51.1814808711
 30
0.0
  0
SPLINE
  5
2BC
100
AcDbEntity
  8
0
100
AcDbSpline
 62
7
  6
BYLAYER
 70
0
 71
3
 72
12
 73
8
 74
0
 42
0.0000001
 43
0.0000001
 44
0.0000000001
 40
0.0
 40
0.0
 40
0.0
 40
0.0
 40
0.2447562181
 40
0.4921242496
 40
0.6179288584
 40
0.7449531596
 40
1.0
 40
1.0
 40
1.0
 40
1.0
 10
32.3086688263
 20
30.6814814815
 30
0.0
 10
32.2822361316
 20
30.6814814815
 30
0.0
 10
32.2286523642
 20
30.6906964121
 30
0.0
 10
32.1696086511
 20
30.7251793613
 30
0.0
 10
32.1325602709
 20
30.7649674764
 30
0.0
 10
32.1037931395
 20
30.8119914434
 30
0.0
 10
32.0942455186
 20
30.8539374407
 30
0.0
 10
32.0942455186
 20
30.8814814815
 30
0.0
  0
SPLINE
  5
2BD
100
AcDbEntity
  8
0
100
AcDbSpline
 62
7
  6
BYLAYER
 70
0
 71
3
 72
11
 73
7
 74
0
 42
0.0000001
 43
0.0000001
 44
0.0000000001
 40
0.0
 40
0.0
 40
0.0
 40
0.0
 40
0.2501069283
 40
0.500306341
 40
0.7502908388
 40
1.0
 40
1.0
 40
1.0
 40
1.0
 10
32.8765986544
 20
30.6814814815
 30
0.0
 10
32.848946148
 20
30.6814814815
 30
0.0
 10
32.7931822249
 20
30.6906063762
 30
0.0
 10
32.7190620548
 20
30.7316331586
 30
0.0
 10
32.6654164095
 20
30.7978701171
 30
0.0
 10
32.6519835587
 20
30.8538729533
 30
0.0
 10
32.6519835587
 20
30.8814814815
 30
0.0
  0
SPLINE
  5
2BE
100
AcDbEntity
  8
0
100
AcDbSpline
 62
7
  6
BYLAYER
 70
0
 71
3
 72
13
 73
9
 74
0
 42
0.0000001
 43
0.0000001
 44
0.0000000001
 40
0.0
 40
0.0
 40
0.0
 40
0.0
 40
0.1071958155
 40
0.2171480433
 40
0.4511340832
 40
0.5792662461
 40
0.7147376109
 40
1.0
 40
1.0
 40
1.0
 40
1.0
 10
36.9451363128
 20
30.6814814815
 30
0.0
 10
36.9348866225
 20
30.6814814815
 30
0.0
 10
36.9140503542
 20
30.683845801
 30
0.0
 10
36.8730065527
 20
30.6980200865
 30
0.0
 10
36.8362679251
 20
30.7267936378
 30
0.0
 10
36.8085646352
 20
30.7657136273
 30
0.0
 10
36.7862397339
 20
30.8134687679
 30
0.0
 10
36.779374925
 20
30.854205686
 30
0.0
 10
36.779374925
 20
30.8814814815
 30
0.0
  0
SPLINE
  5
2BF
100
AcDbEntity
  8
0
100
AcDbSpline
 62
7
  6
BYLAYER
 70
0
 71
3
 72
18
 73
14
 74
0
 42
0.0000001
 43
0.0000001
 44
0.0000000001
 40
0.0
 40
0.0
 40
0.0
 40
0.0
 40
0.2057385363
 40
0.4014917238
 40
0.5766300492
 40
0.7251732949
 40
0.8430308369
 40
0.8898658902
 40
0.9283836258
 40
0.9584957043
 40
0.9802467551
 40
0.993795259
 40
1.0
 40
1.0
 40
1.0
 40
1.0
 10
36.35439034
 20
30.8814814815
 30
0.0
 10
36.35439034
 20
30.8677056019
 30
0.0
 10
36.3542518347
 20
30.8408221928
 30
0.0
 10
36.3536633098
 20
30.8022161426
 30
0.0
 10
36.3527212137
 20
30.7674466283
 30
0.0
 10
36.3515041328
 20
30.7379084352
 30
0.0
 10
36.3502404454
 20
30.7169647817
 30
0.0
 10
36.3490919707
 20
30.7034145028
 30
0.0
 10
36.348254526
 20
30.6957094721
 30
0.0
 10
36.3474442448
 20
30.6897592641
 30
0.0
 10
36.3465360792
 20
30.6853545785
 30
0.0
 10
36.3458652091
 20
30.6828787852
 30
0.0
 10
36.3449988851
 20
30.6814814815
 30
0.0
 10
36.3445834269
 20
30.6814814815
 30
0.0
  0
SPLINE
  5
2C0
100
AcDbEntity
  8
0
100
AcDbSpline
 62
7
  6
BYLAYER
 70
0
 71
3
 72
9
 73
5
 74
0
 42
0.0000001
 43
0.0000001
 44
0.0000000001
 40
0.0
 40
0.0
 40
0.0
 40
0.0
 40
0.2535648504
 40
1.0
 40
1.0
 40
1.0
 40
1.0
 10
37.1860598794
 20
37.4170189905
 30
0.0
 10
37.0710317035
 20
37.3602844249
 30
0.0
 10
36.6225661779
 20
37.1259824536
 30
0.0
 10
36.1934068788
 20
36.8563116947
 30
0.0
 10
35.8805276178
 20
36.6449810128
 30
0.0
  0
SPLINE
  5
2C1
100
AcDbEntity
  8
0
100
AcDbSpline
 62
7
  6
BYLAYER
 70
0
 71
3
 72
26
 73
22
 74
0
 42
0.0000001
 43
0.0000001
 44
0.0000000001
 40
0.0
 40
0.0
 40
0.0
 40
0.0
 40
0.1906283595
 40
0.3713370188
 40
0.538902667
 40
0.6164908096
 40
0.6891526218
 40
0.7561682037
 40
0.8167842288
 40
0.870154868
 40
0.9154125521
 40
0.9347386866
 40
0.9517293949
 40
0.9662845622
 40
0.9783067701
 40
0.9877316183
 40
0.9945167469
 40
0.9969063037
 40
0.9986201951
 40
0.9996531757
 40
1.0
 40
1.0
 40
1.0
 40
1.0
 10
35.8805276178
 20
36.6449810128
 30
0.0
 10
35.5737436996
 20
36.4377673597
 30
0.0
 10
34.9898948298
 20
36.0136924729
 30
0.0
 10
34.1695650695
 20
35.3635786074
 30
0.0
 10
33.5355101744
 20
34.832442629
 30
0.0
 10
33.0679724398
 20
34.4295025337
 30
0.0
 10
32.7503953986
 20
34.1516894004
 30
0.0
 10
32.4592401074
 20
33.8937480062
 30
0.0
 10
32.197281172
 20
33.6593547989
 30
0.0
 10
31.9676736353
 20
33.4521788902
 30
0.0
 10
31.7980935072
 20
33.2981762002
 30
0.0
 10
31.6810272917
 20
33.1914395266
 30
0.0
 10
31.6080976604
 20
33.1247925469
 30
0.0
 10
31.545695221
 20
33.0676528342
 30
0.0
 10
31.4941580844
 20
33.0204042847
 30
0.0
 10
31.4537695363
 20
32.9833251798
 30
0.0
 10
31.4271599667
 20
32.9588980467
 30
0.0
 10
31.4116093694
 20
32.9445691996
 30
0.0
 10
31.4042443376
 20
32.9378404719
 30
0.0
 10
31.3998671833
 20
32.9337263495
 30
0.0
 10
31.3978513084
 20
32.9319577393
 30
0.0
 10
31.3973746385
 20
32.9314818708
 30
0.0
  0
SPLINE
  5
2C2
100
AcDbEntity
  8
0
100
AcDbSpline
 62
7
  6
BYLAYER
 70
0
 71
3
 72
9
 73
5
 74
0
 42
0.0000001
 43
0.0000001
 44
0.0000000001
 40
0.0
 40
0.0
 40
0.0
 40
0.0
 40
0.5039293207
 40
1.0
 40
1.0
 40
1.0
 40
1.0
 10
39.3973706888
 20
38.5759323933
 30
0.0
 10
39.0281334544
 20
38.3770678287
 30
0.0
 10
38.2954248047
 20
37.982454668
 30
0.0
 10
37.556275409
 20
37.5997243723
 30
0.0
 10
37.1860679082
 20
37.4170040196
 30
0.0
  0
SPLINE
  5
2C3
100
AcDbEntity
  8
0
100
AcDbSpline
 62
7
  6
BYLAYER
 70
0
 71
3
 72
14
 73
10
 74
0
 42
0.0000001
 43
0.0000001
 44
0.0000000001
 40
0.0
 40
0.0
 40
0.0
 40
0.0
 40
0.0882500907
 40
0.182389866
 40
0.2867434705
 40
0.4041423943
 40
0.5360847876
 40
0.6817074571
 40
1.0
 40
1.0
 40
1.0
 40
1.0
 10
38.7807775966
 20
30.6814814815
 30
0.0
 10
38.7732673143
 20
30.6814814815
 30
0.0
 10
38.7576589305
 20
30.6839571926
 30
0.0
 10
38.7354369912
 20
30.6947325376
 30
0.0
 10
38.7148072546
 20
30.7123511171
 30
0.0
 10
38.6964069048
 20
30.7364022072
 30
0.0
 10
38.6809464384
 20
30.7664230761
 30
0.0
 10
38.6647099967
 20
30.8145997123
 30
0.0
 10
38.6599770182
 20
30.8543940661
 30
0.0
 10
38.6599770182
 20
30.8814814815
 30
0.0
  0
SPLINE
  5
2C4
100
AcDbEntity
  8
0
100
AcDbSpline
 62
7
  6
BYLAYER
 70
0
 71
3
 72
15
 73
11
 74
0
 42
0.0000001
 43
0.0000001
 44
0.0000000001
 40
0.0
 40
0.0
 40
0.0
 40
0.0
 40
0.1854817856
 40
0.3628589373
 40
0.5234599941
 40
0.6628203835
 40
0.7784541257
 40
0.8706239647
 40
0.9420176292
 40
1.0
 40
1.0
 40
1.0
 40
1.0
 10
38.2039123819
 20
30.8814814815
 30
0.0
 10
38.2039123819
 20
30.8676970775
 30
0.0
 10
38.2029523742
 20
30.8407220245
 30
0.0
 10
38.1988721138
 20
30.8020003496
 30
0.0
 10
38.1923264366
 20
30.7670904313
 30
0.0
 10
38.1838341901
 20
30.7373394612
 30
0.0
 10
38.1737919256
 20
30.7134792731
 30
0.0
 10
38.1625687997
 20
30.6958728802
 30
0.0
 10
38.1502671044
 20
30.6844835329
 30
0.0
 10
38.1406139908
 20
30.6814814815
 30
0.0
 10
38.1363049293
 20
30.6814814815
 30
0.0
  0
SPLINE
  5
2C5
100
AcDbEntity
  8
0
100
AcDbSpline
 62
7
  6
BYLAYER
 70
0
 71
3
 72
15
 73
11
 74
0
 42
0.0000001
 43
0.0000001
 44
0.0000000001
 40
0.0
 40
0.0
 40
0.0
 40
0.0
 40
0.0579695135
 40
0.1293425285
 40
0.2215119821
 40
0.3371711634
 40
0.4766180935
 40
0.6372629688
 40
0.8145563996
 40
1.0
 40
1.0
 40
1.0
 40
1.0
 10
40.6584387609
 20
30.6814814815
 30
0.0
 10
40.6541306349
 20
30.6814814815
 30
0.0
 10
40.6444791508
 20
30.684479407
 30
0.0
 10
40.6321787212
 20
30.6958674771
 30
0.0
 10
40.620954706
 20
30.7134733554
 30
0.0
 10
40.610907037
 20
30.7373407298
 30
0.0
 10
40.6024169428
 20
30.767104608
 30
0.0
 10
40.595869541
 20
30.8020176278
 30
0.0
 10
40.5917869061
 20
30.8407335803
 30
0.0
 10
40.5908313517
 20
30.8676998511
 30
0.0
 10
40.5908313517
 20
30.8814814815
 30
0.0
  0
SPLINE
  5
2C6
100
AcDbEntity
  8
0
100
AcDbSpline
 62
7
  6
BYLAYER
 70
0
 71
3
 72
15
 73
11
 74
0
 42
0.0000001
 43
0.0000001
 44
0.0000000001
 40
0.0
 40
0.0
 40
0.0
 40
0.0
 40
0.1620941452
 40
0.3188412761
 40
0.4643300675
 40
0.5961115058
 40
0.7134052726
 40
0.8176879627
 40
0.9117906052
 40
1.0
 40
1.0
 40
1.0
 40
1.0
 10
40.1347667155
 20
30.8814814815
 30
0.0
 10
40.1347667155
 20
30.8676780039
 30
0.0
 10
40.1330309817
 20
30.8404992944
 30
0.0
 10
40.1256511204
 20
30.8015436315
 30
0.0
 10
40.1137909051
 20
30.7664033563
 30
0.0
 10
40.0983344853
 20
30.7364037774
 30
0.0
 10
40.0799417155
 20
30.7123567703
 30
0.0
 10
40.0593133893
 20
30.6947379335
 30
0.0
 10
40.0370890839
 20
30.6839609692
 30
0.0
 10
40.0214777214
 20
30.6814814815
 30
0.0
 10
40.0139660595
 20
30.6814814815
 30
0.0
  0
SPLINE
  5
2C7
100
AcDbEntity
  8
0
100
AcDbSpline
 62
7
  6
BYLAYER
 70
0
 71
3
 72
18
 73
14
 74
0
 42
0.0000001
 43
0.0000001
 44
0.0000000001
 40
0.0
 40
0.0
 40
0.0
 40
0.0
 40
0.0062012691
 40
0.0197395841
 40
0.0414792068
 40
0.0715836878
 40
0.1100997164
 40
0.1569332179
 40
0.2748148218
 40
0.4234549837
 40
0.5986418779
 40
0.7943027245
 40
1.0
 40
1.0
 40
1.0
 40
1.0
 10
42.4501603005
 20
30.6814814815
 30
0.0
 10
42.4497450741
 20
30.6814814815
 30
0.0
 10
42.4488785682
 20
30.6828769629
 30
0.0
 10
42.4482079556
 20
30.6853516991
 30
0.0
 10
42.4472999156
 20
30.6897541266
 30
0.0
 10
42.4464898677
 20
30.6957030911
 30
0.0
 10
42.4456524816
 20
30.7034073668
 30
0.0
 10
42.444503573
 20
30.7169590437
 30
0.0
 10
42.4432392281
 20
30.7379106978
 30
0.0
 10
42.4420224857
 20
30.767460315
 30
0.0
 10
42.4410801171
 20
30.802233426
 30
0.0
 10
42.4404912537
 20
30.8408338383
 30
0.0
 10
42.4403533936
 20
30.8677083443
 30
0.0
 10
42.4403533936
 20
30.8814814815
 30
0.0
  0
SPLINE
  5
2C8
100
AcDbEntity
  8
0
100
AcDbSpline
 62
7
  6
BYLAYER
 70
0
 71
3
 72
11
 73
7
 74
0
 42
0.0000001
 43
0.0000001
 44
0.0000000001
 40
0.0
 40
0.0
 40
0.0
 40
0.0
 40
0.2860570519
 40
0.5490697178
 40
0.7835890621
 40
1.0
 40
1.0
 40
1.0
 40
1.0
 10
42.0153688086
 20
30.8814814815
 30
0.0
 10
42.0153688086
 20
30.8541963868
 30
0.0
 10
42.0064731701
 20
30.801340895
 30
0.0
 10
41.9687493306
 20
30.7349261091
 30
0.0
 10
41.9137793722
 20
30.6916033819
 30
0.0
 10
41.8702493259
 20
30.6814814815
 30
0.0
 10
41.8496073145
 20
30.6814814815
 30
0.0
  0
SPLINE
  5
2C9
100
AcDbEntity
  8
0
100
AcDbSpline
 62
7
  6
BYLAYER
 70
0
 71
3
 72
40
 73
36
 74
0
 42
0.0000001
 43
0.0000001
 44
0.0000000001
 40
0.0
 40
0.0
 40
0.0
 40
0.0
 40
0.0000434734
 40
0.0000851524
 40
0.0001644527
 40
0.0002886646
 40
0.0004590851
 40
0.0006759243
 40
0.0012482581
 40
0.0020036332
 40
0.0029393319
 40
0.004052445
 40
0.0053399904
 40
0.0084263296
 40
0.0121742343
 40
0.0165608169
 40
0.0215749916
 40
0.0334696127
 40
0.0478251279
 40
0.0646074829
 40
0.0837478667
 40
0.1051332231
 40
0.1286476048
 40
0.1541767212
 40
0.1816203914
 40
0.2418781124
 40
0.308638911
 40
0.3811011003
 40
0.4585972974
 40
0.5405384801
 40
0.6264043502
 40
0.7157026034
 40
0.8079666657
 40
0.9028156135
 40
1.0
 40
1.0
 40
1.0
 40
1.0
 10
31.1473718668
 20
33.1814814815
 30
0.0
 10
31.1472916649
 20
33.1814814815
 30
0.0
 10
31.1470885091
 20
33.1815175323
 30
0.0
 10
31.1471381747
 20
33.181884244
 30
0.0
 10
31.1473926502
 20
33.1822366303
 30
0.0
 10
31.1478263038
 20
33.1827854909
 30
0.0
 10
31.1484769673
 20
33.1834649138
 30
0.0
 10
31.1497400583
 20
33.1847078633
 30
0.0
 10
31.1518507019
 20
33.1866218043
 30
0.0
 10
31.1549982462
 20
33.1893663087
 30
0.0
 10
31.1589385618
 20
33.192718435
 30
0.0
 10
31.163650363
 20
33.1966787968
 30
0.0
 10
31.1714189279
 20
33.2031686419
 30
0.0
 10
31.1829275667
 20
33.2127632342
 30
0.0
 10
31.1987795798
 20
33.2260763454
 30
0.0
 10
31.2172507721
 20
33.2418002277
 30
0.0
 10
31.2470371857
 20
33.2674171709
 30
0.0
 10
31.290608364
 20
33.3052102277
 30
0.0
 10
31.350540349
 20
33.35727447
 30
0.0
 10
31.4206808131
 20
33.4179703029
 30
0.0
 10
31.5008042019
 20
33.4869485929
 30
0.0
 10
31.5904663172
 20
33.5638824725
 30
0.0
 10
31.6891866433
 20
33.6483590296
 30
0.0
 10
31.7964871076
 20
33.7399991414
 30
0.0
 10
31.9555270731
 20
33.8754345339
 30
0.0
 10
32.173096034
 20
34.0594628816
 30
0.0
 10
32.4552876396
 20
34.295686907
 30
0.0
 10
32.7630668294
 20
34.5508830387
 30
0.0
 10
33.0941389999
 20
34.8218521682
 30
0.0
 10
33.4466787025
 20
35.1056149528
 30
0.0
 10
33.8194361612
 20
35.3989468667
 30
0.0
 10
34.2110944134
 20
35.6989907192
 30
0.0
 10
34.6199171719
 20
36.0038141574
 30
0.0
 10
35.0453849822
 20
36.3105579802
 30
0.0
 10
35.3374268116
 20
36.5111963193
 30
0.0
 10
35.4866664542
 20
36.6105575967
 30
0.0
  0
SPLINE
  5
2CA
100
AcDbEntity
  8
0
100
AcDbSpline
 62
7
  6
BYLAYER
 70
0
 71
3
 72
10
 73
6
 74
0
 42
0.0000001
 43
0.0000001
 44
0.0000000001
 40
0.0
 40
0.0
 40
0.0
 40
0.0
 40
0.2446070957
 40
0.4931559641
 40
1.0
 40
1.0
 40
1.0
 40
1.0
 10
35.4866664542
 20
36.6105575967
 30
0.0
 10
35.6143186033
 20
36.6955462792
 30
0.0
 10
35.8738839988
 20
36.8636415836
 30
0.0
 10
36.4108417405
 20
37.1874134388
 30
0.0
 10
36.8301676384
 20
37.4089436639
 30
0.0
 10
37.116965083
 20
37.5457726988
 30
0.0
  0
SPLINE
  5
2CB
100
AcDbEntity
  8
0
100
AcDbSpline
 62
7
  6
BYLAYER
 70
0
 71
3
 72
9
 73
5
 74
0
 42
0.0000001
 43
0.0000001
 44
0.0000000001
 40
0.0
 40
0.0
 40
0.0
 40
0.0
 40
0.4948684162
 40
1.0
 40
1.0
 40
1.0
 40
1.0
 10
37.1860677492
 20
37.4170033021
 30
0.0
 10
37.1763138921
 20
37.4390687242
 30
0.0
 10
37.1548770637
 20
37.4828983716
 30
0.0
 10
37.130406328
 20
37.5251431792
 30
0.0
 10
37.1169649585
 20
37.5457766901
 30
0.0
  0
SPLINE
  5
2CC
100
AcDbEntity
  8
0
100
AcDbSpline
 62
7
  6
BYLAYER
 70
0
 71
3
 72
11
 73
7
 74
0
 42
0.0000001
 43
0.0000001
 44
0.0000000001
 40
0.0
 40
0.0
 40
0.0
 40
0.0
 40
0.2497984991
 40
0.4996860173
 40
0.7498425247
 40
1.0
 40
1.0
 40
1.0
 40
1.0
 10
46.142760175
 20
30.8814814815
 30
0.0
 10
46.142760175
 20
30.8538631386
 30
0.0
 10
46.1293229152
 20
30.7978604352
 30
0.0
 10
46.0756768951
 20
30.7316341248
 30
0.0
 10
46.0015678193
 20
30.6906105738
 30
0.0
 10
45.9458032463
 20
30.6814814815
 30
0.0
 10
45.9181452141
 20
30.6814814815
 30
0.0
  0
SPLINE
  5
2CD
100
AcDbEntity
  8
0
100
AcDbSpline
 62
7
  6
BYLAYER
 70
0
 71
3
 72
10
 73
6
 74
0
 42
0.0000001
 43
0.0000001
 44
0.0000000001
 40
0.0
 40
0.0
 40
0.0
 40
0.0
 40
0.2470747386
 40
0.4967016757
 40
1.0
 40
1.0
 40
1.0
 40
1.0
 10
37.116965083
 20
37.5457726988
 30
0.0
 10
37.3066092426
 20
37.6264535369
 30
0.0
 10
37.6864155249
 20
37.792041932
 30
0.0
 10
38.4469452628
 20
38.1346630473
 30
0.0
 10
39.0165854141
 20
38.3991585981
 30
0.0
 10
39.3973718668
 20
38.575930206
 30
0.0
  0
SPLINE
  5
2CE
100
AcDbEntity
  8
0
100
AcDbSpline
 62
7
  6
BYLAYER
 70
0
 71
3
 72
12
 73
8
 74
0
 42
0.0000001
 43
0.0000001
 44
0.0000000001
 40
0.0
 40
0.0
 40
0.0
 40
0.0
 40
0.2551372527
 40
0.3821267726
 40
0.5078690133
 40
0.755194542
 40
1.0
 40
1.0
 40
1.0
 40
1.0
 10
46.700498215
 20
30.8814814815
 30
0.0
 10
46.700498215
 20
30.8539276913
 30
0.0
 10
46.6909416953
 20
30.8119778005
 30
0.0
 10
46.6621803803
 20
30.7649508668
 30
0.0
 10
46.6251302696
 20
30.7251848016
 30
0.0
 10
46.5660987319
 20
30.6906995869
 30
0.0
 10
46.5125130342
 20
30.6814814815
 30
0.0
 10
46.4860750361
 20
30.6814814815
 30
0.0
  0
ELLIPSE
  5
2CF
100
AcDbEntity
  8
0
100
AcDbEllipse
 62
7
  6
BYLAYER
 10
16.0473718668
 20
42.1814814815
 30
0.0
 11
20.4047686873
 21
4.0147354537
 31
0.0
 40
0.2987966333
 41
4.6194136361
 42
4.6203850136
  0
ELLIPSE
  5
2D0
100
AcDbEntity
  8
0
100
AcDbEllipse
 62
7
  6
BYLAYER
 10
16.0473718668
 20
42.1814814815
 30
0.0
 11
20.4047686873
 21
-4.0147354537
 31
0.0
 40
0.2987966333
 41
7.9459875797
 42
7.9469569783
  0
ENDSEC
  0
SECTION
  2
OBJECTS
  0
DICTIONARY
  5
C
100
AcDbDictionary
280
0
281
1
  3
ACAD_GROUP
350
D
  3
ACAD_MLINESTYLE
350
17
  3
ACAD_LAYOUT
350
1A
  3
ACAD_PLOTSETTINGS
350
19
  3
ACAD_PLOTSTYLENAME
350
E
  0
DICTIONARY
  5
D
102
{ACAD_REACTORS
330
C
102
}
100
AcDbDictionary
280
0
281
1
  0
ACDBDICTIONARYWDFLT
  5
E
102
{ACAD_REACTORS
330
C
102
}
100
AcDbDictionary
281
1
  3
Normal
350
F
100
AcDbDictionaryWithDefault
340
F
  0
DICTIONARY
  5
17
102
{ACAD_REACTORS
330
C
102
}
100
AcDbDictionary
280
0
281
1
  3
Standard
350
18
  0
DICTIONARY
  5
19
102
{ACAD_REACTORS
330
C
102
}
100
AcDbDictionary
281
1
  0
DICTIONARY
  5
1A
102
{ACAD_REACTORS
330
C
102
}
100
AcDbDictionary
281
1
  3
Model
350
2D1
  3
Layout1
350
2D2
  0
ACDBPLACEHOLDER
  5
F
102
{ACAD_REACTORS
330
E
102
}
  0
MLINESTYLE
  5
18
102
{ACAD_REACTORS
330
17
102
}
100
AcDbMlineStyle
  2
STANDARD
 70
0
  3

 62
256
 51
90.0
 52
90.0
 71
2
 49
0.5
 62
256
  6
BYLAYER
 49
-0.5
 62
256
  6
BYLAYER
  0
LAYOUT
  5
2D1
102
{ACAD_REACTORS
330
1A
102
}
100
AcDbPlotSettings
  1

  2
none_device
  4

  6

 40
0.0
 41
0.0
 42
0.0
 43
0.0
 44
210.0
 45
297.0
 46
0.0
 47
0.0
 48
0.0
 49
0.0
140
0.0
141
0.0
142
1.0
143
1.0
 70
1024
 72
1
 73
0
 74
0
  7

 75
0
147
1.0
148
0.0
149
0.0
100
AcDbLayout
  1
Model
 70
0
 71
0
 10
0.0
 20
0.0
 11
210.0
 21
297.0
 12
0.0
 22
0.0
 32
0.0
 14
0.0
 24
0.0
 34
0.0
 15
0.0
 25
0.0
 35
0.0
146
0.0
 13
0.0
 23
0.0
 33
0.0
 16
1.0
 26
0.0
 36
0.0
 17
0.0
 27
1.0
 37
0.0
 76
0
330
210
345
0
346
0
  0
LAYOUT
  5
2D2
102
{ACAD_REACTORS
330
1A
102
}
100
AcDbPlotSettings
  1

  2
none_device
  4

  6

 40
0.0
 41
0.0
 42
0.0
 43
0.0
 44
210.0
 45
297.0
 46
0.0
 47
0.0
 48
0.0
 49
0.0
140
0.0
141
0.0
142
1.0
143
1.0
 70
0
 72
1
 73
0
 74
0
  7

 75
0
147
1.0
148
0.0
149
0.0
100
AcDbLayout
  1
Layout1
 70
0
 71
1
 10
0.0
 20
0.0
 11
210.0
 21
297.0
 12
0.0
 22
0.0
 32
0.0
 14
0.0
 24
0.0
 34
0.0
 15
0.0
 25
0.0
 35
0.0
146
0.0
 13
0.0
 23
0.0
 33
0.0
 16
1.0
 26
0.0
 36
0.0
 17
0.0
 27
1.0
 37
0.0
 76
0
330
211
345
0
346
0
  0
ENDSEC
  0
EOF
