999
DXF file: C:\Users\sesa63760\Dev\_Creo\CAD\MCADID0004754_3D-CAD\drw0001_4.dxf
999
Pro/ENGINEER 2019471 by Parametric Technology Corporation
  0
SECTION
  2
HEADER
  9
$ACADVER
  1
AC1024
  9
$DWGCODEPAGE
  3
ANSI_1252
  9
$EXTMAX
 10
54.3439459248
 20
76.8578663793
 30
0.0
  9
$EXTMIN
 10
0.0
 20
0.0
 30
0.0
  9
$LIMMIN
 10
0.0
 20
0.0
  9
$LIMMAX
 10
54.3439459248
 20
76.8578663793
  9
$VIEWCTR
 10
27.1719729624
 20
38.4289331897
  9
$VIEWSIZE
 40
76.8578663793
  9
$CLAYER
  8
0
  9
$LTSCALE
 40
5.0099942529
  9
$CELTYPE
  6
BYLAYER
  9
$DIMSCALE
 40
1.0
  9
$DIMASZ
 40
0.6469517372
  9
$DIMEXO
 40
1.0
  9
$DIMDLI
 40
3.4614505747
  9
$DIMEXE
 40
1.0
  9
$DIMCEN
 40
0.8198172414
  9
$DIMLFAC
 40
1.0
  9
$DIMBLK
  1
_FILLED
  9
$DIMALT
 70
0
  9
$DIMALTF
 40
0.0393700787
  9
$DIMTXT
 40
0.9057324321
  9
$DIMTOL
 70
1
  9
$DIMLIM
 70
0
  9
$DIMTFAC
 40
1.0
  9
$DIMTP
 40
0.01
  9
$DIMTM
 40
0.01
  9
$DIMGAP
 40
0.625
  9
$DIMDSEP
 70
46
  9
$AUNITS
 70
0
  9
$PDMODE
 70
3
  9
$PDSIZE
 40
0.3125
  9
$HANDSEED
  5
2D9
  9
$TILEMODE
 70
1
  9
$MEASUREMENT
 70
1
  9
$INSUNITS
 70
4
  0
ENDSEC
  0
SECTION
  2
CLASSES
  0
CLASS
  1
ACDBDICTIONARYWDFLT
  2
AcDbDictionaryWithDefault
  3
AutoCAD 2000
 90
0
 91
1
280
0
281
0
  0
CLASS
  1
ACDBPLACEHOLDER
  2
AcDbPlaceHolder
  3
AutoCAD 2000
 90
0
 91
1
280
0
281
0
  0
CLASS
  1
LAYOUT
  2
AcDbLayout
  3
AutoCAD 2000
 90
0
 91
0
280
0
281
0
  0
ENDSEC
  0
SECTION
  2
TABLES
  0
TABLE
  2
VPORT
  5
8
100
AcDbSymbolTable
 70
2
  0
VPORT
  5
1F4
100
AcDbSymbolTableRecord
100
AcDbViewportTableRecord
  2
*ACTIVE
 70
0
 10
0.0
 20
0.0
 11
1.0
 21
1.0
 12
27.1719729624
 22
38.4289331897
 13
0.0
 23
0.0
 14
1.0
 24
1.0
 15
0.0
 25
0.0
 16
0.0
 26
0.0
 36
1.0
 17
0.0
 27
0.0
 37
0.0
 40
76.8578663793
 41
0.7070707071
 42
50.0
 43
0.0
 44
0.0
 50
0.0
 51
0.0
 71
0
 72
100
 73
1
 74
1
 75
0
 76
0
 77
0
 78
0
  0
ENDTAB
  0
TABLE
  2
LTYPE
  5
5
100
AcDbSymbolTable
 70
6
  0
LTYPE
  5
14
100
AcDbSymbolTableRecord
100
AcDbLinetypeTableRecord
  2
BYBLOCK
 70
0
  3

 72
65
 73
0
 40
0.0
  0
LTYPE
  5
15
100
AcDbSymbolTableRecord
100
AcDbLinetypeTableRecord
  2
BYLAYER
 70
0
  3

 72
65
 73
0
 40
0.0
  0
LTYPE
  5
16
100
AcDbSymbolTableRecord
100
AcDbLinetypeTableRecord
  2
CONTINUOUS
 70
64
  3
Solid line
 72
65
 73
0
 40
0.0
  0
LTYPE
  5
1F5
100
AcDbSymbolTableRecord
100
AcDbLinetypeTableRecord
  2
CENTER
 70
64
  3
____ _ ____ _ ____ _ ____ _ ____ _ ____ _ ____
 72
65
 73
4
 40
0.6
 49
0.375
 74
0
 49
-0.075
 74
0
 49
0.075
 74
0
 49
-0.075
 74
0
  0
LTYPE
  5
1F6
100
AcDbSymbolTableRecord
100
AcDbLinetypeTableRecord
  2
HIDDEN
 70
64
  3
- - - - - - - - - - - - - - - - - - - -
 72
65
 73
2
 40
0.2
 49
0.1
 74
0
 49
-0.1
 74
0
  0
LTYPE
  5
1F7
100
AcDbSymbolTableRecord
100
AcDbLinetypeTableRecord
  2
PHANTOM
 70
64
  3
_____ _ _ _____ _ _ _____ _ _ _____
 72
65
 73
6
 40
0.8
 49
0.45
 74
0
 49
-0.05
 74
0
 49
0.1
 74
0
 49
-0.05
 74
0
 49
0.1
 74
0
 49
-0.05
 74
0
  0
LTYPE
  5
1F8
100
AcDbSymbolTableRecord
100
AcDbLinetypeTableRecord
  2
DOT
 70
64
  3
. . . . . . . . . . . . . . . . . . . .
 72
65
 73
2
 40
0.2
 49
0.1
 74
0
 49
-0.1
 74
0
  0
LTYPE
  5
1F9
100
AcDbSymbolTableRecord
100
AcDbLinetypeTableRecord
  2
DASHED
 70
64
  3
- - - - - - - - - - - - - - - - - - - -
 72
65
 73
2
 40
0.2
 49
0.1
 74
0
 49
-0.1
 74
0
  0
ENDTAB
  0
TABLE
  2
LAYER
  5
2
100
AcDbSymbolTable
 70
36
  0
LAYER
  5
10
100
AcDbSymbolTableRecord
100
AcDbLayerTableRecord
  2
0
 70
0
 62
7
  6
CONTINUOUS
370
-3
390
F
  0
LAYER
  5
1FA
100
AcDbSymbolTableRecord
100
AcDbLayerTableRecord
  2
DEFAULT_1
 70
0
 62
7
  6
CENTER
370
-3
390
F
  0
LAYER
  5
1FB
100
AcDbSymbolTableRecord
100
AcDbLayerTableRecord
  2
DEFAULT_2
 70
0
 62
7
  6
HIDDEN
370
-3
390
F
  0
LAYER
  5
1FC
100
AcDbSymbolTableRecord
100
AcDbLayerTableRecord
  2
DEFAULT_3
 70
0
 62
7
  6
PHANTOM
370
-3
390
F
  0
LAYER
  5
1FD
100
AcDbSymbolTableRecord
100
AcDbLayerTableRecord
  2
00_COMPONENTS
 70
0
 62
7
  6
CONTINUOUS
370
-3
390
F
  0
LAYER
  5
1FE
100
AcDbSymbolTableRecord
100
AcDbLayerTableRecord
  2
01_1_DEFAULT_DATUMS
 70
0
 62
7
  6
CONTINUOUS
370
-3
390
F
  0
LAYER
  5
1FF
100
AcDbSymbolTableRecord
100
AcDbLayerTableRecord
  2
01_PLANES
 70
0
 62
7
  6
CONTINUOUS
370
-3
390
F
  0
LAYER
  5
200
100
AcDbSymbolTableRecord
100
AcDbLayerTableRecord
  2
02_COORD_SYS
 70
0
 62
7
  6
CONTINUOUS
370
-3
390
F
  0
LAYER
  5
201
100
AcDbSymbolTableRecord
100
AcDbLayerTableRecord
  2
03_AXES
 70
0
 62
7
  6
CONTINUOUS
370
-3
390
F
  0
LAYER
  5
202
100
AcDbSymbolTableRecord
100
AcDbLayerTableRecord
  2
04_POINTS
 70
0
 62
7
  6
CONTINUOUS
370
-3
390
F
  0
LAYER
  5
203
100
AcDbSymbolTableRecord
100
AcDbLayerTableRecord
  2
05_CURVES
 70
0
 62
7
  6
CONTINUOUS
370
-3
390
F
  0
LAYER
  5
204
100
AcDbSymbolTableRecord
100
AcDbLayerTableRecord
  2
06_SURFS
 70
0
 62
7
  6
CONTINUOUS
370
-3
390
F
  0
LAYER
  5
205
100
AcDbSymbolTableRecord
100
AcDbLayerTableRecord
  2
07_COSMETICS
 70
0
 62
7
  6
CONTINUOUS
370
-3
390
F
  0
LAYER
  5
206
100
AcDbSymbolTableRecord
100
AcDbLayerTableRecord
  2
10_NOTES
 70
0
 62
7
  6
CONTINUOUS
370
-3
390
F
  0
LAYER
  5
207
100
AcDbSymbolTableRecord
100
AcDbLayerTableRecord
  2
11_NOTES_PUB
 70
0
 62
7
  6
CONTINUOUS
370
-3
390
F
  0
LAYER
  5
208
100
AcDbSymbolTableRecord
100
AcDbLayerTableRecord
  2
13_REF_GTOL
 70
0
 62
7
  6
CONTINUOUS
370
-3
390
F
  0
LAYER
  5
209
100
AcDbSymbolTableRecord
100
AcDbLayerTableRecord
  2
16_MISC
 70
0
 62
7
  6
CONTINUOUS
370
-3
390
F
  0
LAYER
  5
20A
100
AcDbSymbolTableRecord
100
AcDbLayerTableRecord
  2
17_NO_PRINT
 70
0
 62
7
  6
CONTINUOUS
370
-3
390
F
  0
LAYER
  5
20B
100
AcDbSymbolTableRecord
100
AcDbLayerTableRecord
  2
18_DATUM_CAMS_JOINTS
 70
0
 62
7
  6
CONTINUOUS
370
-3
390
F
  0
LAYER
  5
20C
100
AcDbSymbolTableRecord
100
AcDbLayerTableRecord
  2
19_DATUM_FUNCTIONAL
 70
0
 62
7
  6
CONTINUOUS
370
-3
390
F
  0
LAYER
  5
20D
100
AcDbSymbolTableRecord
100
AcDbLayerTableRecord
  2
20_DATUM_KINEMATIC_SCHEME
 70
0
 62
7
  6
CONTINUOUS
370
-3
390
F
  0
ENDTAB
  0
TABLE
  2
STYLE
  5
3
100
AcDbSymbolTable
 70
1
  0
STYLE
  5
11
100
AcDbSymbolTableRecord
100
AcDbTextStyleTableRecord
  2
STANDARD
 70
0
 40
0.0
 41
1.0
 50
0.0
 71
0
 42
0.2
  3
ARIAL.TTF
  4

  0
STYLE
  5
20E
100
AcDbSymbolTableRecord
100
AcDbTextStyleTableRecord
  2
TEXTSTYLE_1
 70
0
 40
0.0
 41
0.8
 50
0.0
 71
0
 42
0.2
  3
gdt
  4

  0
ENDTAB
  0
TABLE
  2
VIEW
  5
6
100
AcDbSymbolTable
 70
0
  0
ENDTAB
  0
TABLE
  2
UCS
  5
7
100
AcDbSymbolTable
 70
0
  0
ENDTAB
  0
TABLE
  2
APPID
  5
9
100
AcDbSymbolTable
 70
1
  0
APPID
  5
20F
100
AcDbSymbolTableRecord
100
AcDbRegAppTableRecord
  2
ACAD
 70
0
  0
ENDTAB
  0
TABLE
  2
BLOCK_RECORD
  5
1
100
AcDbSymbolTable
 70
0
  0
BLOCK_RECORD
  5
210
100
AcDbSymbolTableRecord
100
AcDbBlockTableRecord
  2
*Model_Space
  0
BLOCK_RECORD
  5
211
100
AcDbSymbolTableRecord
100
AcDbBlockTableRecord
  2
*Paper_Space
  0
BLOCK_RECORD
  5
212
100
AcDbSymbolTableRecord
100
AcDbBlockTableRecord
  2
_FILLED
  0
ENDTAB
  0
TABLE
  2
DIMSTYLE
  5
A
100
AcDbSymbolTable
 70
1
100
AcDbDimStyleTable
 71
0
  0
DIMSTYLE
105
213
100
AcDbSymbolTableRecord
100
AcDbDimStyleTableRecord
  2
STANDARD
 70
0
  3

  4

 40
1.0
 41
0.6469517372
 42
1.0
 43
0.38
 44
1.0
 45
0.0
 46
0.0
 47
0.01
 48
0.01
140
0.9057324321
141
0.09
142
0.0
143
25.4
144
1.0
145
0.0
146
1.0
147
0.625
 71
1
 72
0
 73
0
 74
0
 75
0
 76
0
 77
1
 78
8
 79
2
170
0
171
1
172
0
173
0
174
0
175
0
176
0
177
0
178
0
270
2
179
2
271
2
272
2
273
2
274
2
275
0
280
0
281
0
282
0
283
1
284
8
285
0
286
0
287
3
288
0
340
11
278
46
341
212
342
212
343
212
344
212
  0
ENDTAB
  0
ENDSEC
  0
SECTION
  2
BLOCKS
  0
BLOCK
  5
20
100
AcDbEntity
  8
0
100
AcDbBlockBegin
  2
*Model_Space
 70
0
 10
0.0
 20
0.0
 30
0.0
  3
*Model_Space
  1

  0
ENDBLK
  5
21
100
AcDbEntity
  8
0
100
AcDbBlockEnd
  0
BLOCK
  5
1C
100
AcDbEntity
  8
0
100
AcDbBlockBegin
  2
*Paper_Space
 70
0
 10
0.0
 20
0.0
 30
0.0
  3
*Paper_Space
  1

  0
ENDBLK
  5
1D
100
AcDbEntity
  8
0
100
AcDbBlockEnd
  0
BLOCK
  5
214
100
AcDbEntity
  8
0
100
AcDbBlockBegin
  2
_FILLED
 70
64
 10
0.0
 20
0.0
  3
_FILLED
  1

  0
SOLID
  5
215
100
AcDbEntity
  8
0
  6
BYBLOCK
 62
0
100
AcDbTrace
 10
0.0
 20
0.0
 11
-1.0
 21
0.25
 12
-1.0
 22
-0.25
 13
-1.0
 23
-0.25
  0
ENDBLK
  5
216
100
AcDbEntity
  8
0
  6
BYBLOCK
 62
0
100
AcDbBlockEnd
  0
ENDSEC
  0
SECTION
  2
ENTITIES
  0
LINE
  5
217
100
AcDbEntity
  8
0
100
AcDbLine
 62
7
  6
BYLAYER
 10
6.0525225313
 20
33.94375
 11
6.0525225313
 21
50.44375
  0
LINE
  5
218
100
AcDbEntity
  8
0
100
AcDbLine
 62
7
  6
BYLAYER
 10
6.6893541347
 20
33.94375
 11
6.6893541347
 21
32.14375
  0
LINE
  5
219
100
AcDbEntity
  8
0
100
AcDbLine
 62
7
  6
BYLAYER
 10
6.7493961831
 20
32.14375
 11
6.7493961831
 21
33.94375
  0
LINE
  5
21A
100
AcDbEntity
  8
0
100
AcDbLine
 62
7
  6
BYLAYER
 10
7.1310998443
 20
33.94375
 11
7.1310998443
 21
32.14375
  0
LWPOLYLINE
  5
21B
100
AcDbEntity
  8
0
100
AcDbPolyline
 62
7
  6
BYLAYER
 90
4
 70
0
 10
9.2720349157
 20
27.54375
 10
9.3153841459
 20
27.4905045871
 10
9.3591383961
 20
27.3672524701
 10
9.3654689026
 20
27.2938030903
  0
LWPOLYLINE
  5
21C
100
AcDbEntity
  8
0
100
AcDbPolyline
 62
7
  6
BYLAYER
 90
3
 70
0
 10
9.3298202759
 20
27.4498391984
 10
9.3583551607
 20
27.3716136298
 10
9.3586202637
 20
27.3687120062
  0
LINE
  5
21D
100
AcDbEntity
  8
0
100
AcDbLine
 62
7
  6
BYLAYER
 10
7.3071342232
 20
32.14375
 11
7.3071342232
 21
33.94375
  0
LINE
  5
21E
100
AcDbEntity
  8
0
100
AcDbLine
 62
7
  6
BYLAYER
 10
7.3525225313
 20
31.79375
 11
7.3525225313
 21
31.94375
  0
LINE
  5
21F
100
AcDbEntity
  8
0
100
AcDbLine
 62
7
  6
BYLAYER
 10
7.7025225313
 20
27.54375
 11
7.7025225313
 21
28.14375
  0
LINE
  5
220
100
AcDbEntity
  8
0
100
AcDbLine
 62
7
  6
BYLAYER
 10
7.7025225313
 20
29.34375
 11
7.7025225313
 21
30.49375
  0
LINE
  5
221
100
AcDbEntity
  8
0
100
AcDbLine
 62
7
  6
BYLAYER
 10
8.1012151886
 20
33.94375
 11
8.1012151886
 21
31.94375
  0
LINE
  5
222
100
AcDbEntity
  8
0
100
AcDbLine
 62
7
  6
BYLAYER
 10
8.3025225313
 20
24.19375
 11
8.3025225313
 21
25.59375
  0
LINE
  5
223
100
AcDbEntity
  8
0
100
AcDbLine
 62
7
  6
BYLAYER
 10
8.5525225313
 20
30.49375
 11
8.5525225313
 21
31.79375
  0
LINE
  5
224
100
AcDbEntity
  8
0
100
AcDbLine
 62
7
  6
BYLAYER
 10
9.365462694
 20
27.2937590134
 11
9.365462694
 21
26.0937500082
  0
LINE
  5
225
100
AcDbEntity
  8
0
100
AcDbLine
 62
7
  6
BYLAYER
 10
9.4137781565
 20
27.2937499765
 11
9.4137781565
 21
26.0937500112
  0
LWPOLYLINE
  5
226
100
AcDbEntity
  8
0
100
AcDbPolyline
 62
7
  6
BYLAYER
 90
4
 70
0
 10
9.3654686096
 20
26.0937500276
 10
9.3560798382
 20
26.0044812767
 10
9.3100735962
 20
25.8883138663
 10
9.2775871475
 20
25.8484192479
  0
LINE
  5
227
100
AcDbEntity
  8
0
100
AcDbLine
 62
7
  6
BYLAYER
 10
10.9748706809
 20
31.94375
 11
10.9748706809
 21
33.94375
  0
LINE
  5
228
100
AcDbEntity
  8
0
100
AcDbLine
 62
7
  6
BYLAYER
 10
11.0095410046
 20
33.94375
 11
11.0095410046
 21
32.14375
  0
LINE
  5
229
100
AcDbEntity
  8
0
100
AcDbLine
 62
7
  6
BYLAYER
 10
11.4345255895
 20
32.14375
 11
11.4345255895
 21
33.94375
  0
LINE
  5
22A
100
AcDbEntity
  8
0
100
AcDbLine
 62
7
  6
BYLAYER
 10
12.020541246
 20
33.94375
 11
12.020541246
 21
31.94375
  0
LINE
  5
22B
100
AcDbEntity
  8
0
100
AcDbLine
 62
7
  6
BYLAYER
 10
12.6200508082
 20
31.94375
 11
12.6200508082
 21
33.94375
  0
LINE
  5
22C
100
AcDbEntity
  8
0
100
AcDbLine
 62
7
  6
BYLAYER
 10
12.8590630465
 20
33.94375
 11
12.8590630465
 21
32.14375
  0
LINE
  5
22D
100
AcDbEntity
  8
0
100
AcDbLine
 62
7
  6
BYLAYER
 10
12.9848147061
 20
24.19375
 11
12.9848147061
 21
27.54375
  0
LINE
  5
22E
100
AcDbEntity
  8
0
100
AcDbLine
 62
7
  6
BYLAYER
 10
13.3151276827
 20
32.14375
 11
13.3151276827
 21
33.94375
  0
LINE
  5
22F
100
AcDbEntity
  8
0
100
AcDbLine
 62
7
  6
BYLAYER
 10
13.7421935465
 20
33.94375
 11
13.7421935465
 21
31.94375
  0
LINE
  5
230
100
AcDbEntity
  8
0
100
AcDbLine
 62
7
  6
BYLAYER
 10
14.0525225313
 20
39.838198717
 11
14.0525225375
 21
51.7901389447
  0
LINE
  5
231
100
AcDbEntity
  8
0
100
AcDbLine
 62
7
  6
BYLAYER
 10
8.552522682
 20
23.94375
 11
19.5525223807
 21
23.94375
  0
LINE
  5
232
100
AcDbEntity
  8
0
100
AcDbLine
 62
7
  6
BYLAYER
 10
19.8025225313
 20
24.19375
 11
15.1202303566
 21
24.19375
  0
LINE
  5
233
100
AcDbEntity
  8
0
100
AcDbLine
 62
7
  6
BYLAYER
 10
12.9848147061
 20
24.19375
 11
8.3025225313
 21
24.19375
  0
LWPOLYLINE
  5
234
100
AcDbEntity
  8
0
100
AcDbPolyline
 62
7
  6
BYLAYER
 90
5
 70
0
 10
18.8381707753
 20
25.8401651076
 10
18.8363902607
 20
25.8412967642
 10
18.7896613008
 20
25.89699472
 10
18.7459039548
 20
26.020262841
 10
18.7395766059
 20
26.0936725086
  0
LINE
  5
235
100
AcDbEntity
  8
0
100
AcDbLine
 62
7
  6
BYLAYER
 10
14.3628515162
 20
31.94375
 11
14.3628515162
 21
33.94375
  0
LINE
  5
236
100
AcDbEntity
  8
0
100
AcDbLine
 62
7
  6
BYLAYER
 10
14.78991738
 20
33.94375
 11
14.78991738
 21
32.14375
  0
LINE
  5
237
100
AcDbEntity
  8
0
100
AcDbLine
 62
7
  6
BYLAYER
 10
15.1202303566
 20
27.54375
 11
15.1202303566
 21
24.19375
  0
LINE
  5
238
100
AcDbEntity
  8
0
100
AcDbLine
 62
7
  6
BYLAYER
 10
15.2459820162
 20
32.14375
 11
15.2459820162
 21
33.94375
  0
LINE
  5
239
100
AcDbEntity
  8
0
100
AcDbLine
 62
7
  6
BYLAYER
 10
15.4849942545
 20
33.94375
 11
15.4849942545
 21
31.94375
  0
LINE
  5
23A
100
AcDbEntity
  8
0
100
AcDbLine
 62
7
  6
BYLAYER
 10
8.3025225313
 20
25.59375
 11
9.0728764595
 21
25.59375
  0
LINE
  5
23B
100
AcDbEntity
  8
0
100
AcDbLine
 62
7
  6
BYLAYER
 10
19.0321686034
 20
25.59375
 11
19.8025225313
 21
25.59375
  0
LINE
  5
23C
100
AcDbEntity
  8
0
100
AcDbLine
 62
7
  6
BYLAYER
 10
8.5526012182
 20
25.84375
 11
9.2775871475
 21
25.84375
  0
LINE
  5
23D
100
AcDbEntity
  8
0
100
AcDbLine
 62
7
  6
BYLAYER
 10
18.8343320675
 20
25.84375
 11
19.5524438445
 21
25.84375
  0
LINE
  5
23E
100
AcDbEntity
  8
0
100
AcDbLine
 62
7
  6
BYLAYER
 10
9.4137781565
 20
26.0937500082
 11
9.365462694
 21
26.0937500082
  0
LINE
  5
23F
100
AcDbEntity
  8
0
100
AcDbLine
 62
7
  6
BYLAYER
 10
18.6912669063
 20
26.0937510318
 11
18.7395823687
 21
26.093745975
  0
LINE
  5
240
100
AcDbEntity
  8
0
100
AcDbLine
 62
7
  6
BYLAYER
 10
16.0845038167
 20
31.94375
 11
16.0845038167
 21
33.94375
  0
LINE
  5
241
100
AcDbEntity
  8
0
100
AcDbLine
 62
7
  6
BYLAYER
 10
16.6705194732
 20
33.94375
 11
16.6705194732
 21
32.14375
  0
LINE
  5
242
100
AcDbEntity
  8
0
100
AcDbLine
 62
7
  6
BYLAYER
 10
17.0955040581
 20
32.14375
 11
17.0955040581
 21
33.94375
  0
LINE
  5
243
100
AcDbEntity
  8
0
100
AcDbLine
 62
7
  6
BYLAYER
 10
17.1301743818
 20
33.94375
 11
17.1301743818
 21
31.94375
  0
LINE
  5
244
100
AcDbEntity
  8
0
100
AcDbLine
 62
7
  6
BYLAYER
 10
9.4137781565
 20
27.2937570303
 11
9.365462694
 21
27.2937590134
  0
LINE
  5
245
100
AcDbEntity
  8
0
100
AcDbLine
 62
7
  6
BYLAYER
 10
18.6912669063
 20
27.2937499917
 11
18.7395823672
 21
27.2937499917
  0
LINE
  5
246
100
AcDbEntity
  8
0
100
AcDbLine
 62
7
  6
BYLAYER
 10
20.4025225313
 20
27.54375
 11
7.7025225313
 21
27.54375
  0
LINE
  5
247
100
AcDbEntity
  8
0
100
AcDbLine
 62
7
  6
BYLAYER
 10
18.7755649084
 20
25.9239884742
 11
18.7671021133
 21
25.9605458472
  0
LINE
  5
248
100
AcDbEntity
  8
0
100
AcDbLine
 62
7
  6
BYLAYER
 10
18.6912669063
 20
26.0937500105
 11
18.6912669063
 21
27.2937499909
  0
LINE
  5
249
100
AcDbEntity
  8
0
100
AcDbLine
 62
7
  6
BYLAYER
 10
18.7395823687
 20
26.093745975
 11
18.7395823687
 21
27.2937499917
  0
LINE
  5
24A
100
AcDbEntity
  8
0
100
AcDbLine
 62
7
  6
BYLAYER
 10
7.7025225313
 20
28.14375
 11
20.4025225313
 21
28.14375
  0
LINE
  5
24B
100
AcDbEntity
  8
0
100
AcDbLine
 62
7
  6
BYLAYER
 10
20.0525225313
 20
28.24375
 11
8.0525225313
 21
28.24375
  0
LINE
  5
24C
100
AcDbEntity
  8
0
100
AcDbLine
 62
7
  6
BYLAYER
 10
20.0525225313
 20
29.24375
 11
8.0525225313
 21
29.24375
  0
LINE
  5
24D
100
AcDbEntity
  8
0
100
AcDbLine
 62
7
  6
BYLAYER
 10
20.4025225313
 20
29.34375
 11
7.7025225313
 21
29.34375
  0
LINE
  5
24E
100
AcDbEntity
  8
0
100
AcDbLine
 62
7
  6
BYLAYER
 10
19.5525225313
 20
30.49375
 11
19.5525225313
 21
31.79375
  0
LINE
  5
24F
100
AcDbEntity
  8
0
100
AcDbLine
 62
7
  6
BYLAYER
 10
19.8025225313
 20
25.59375
 11
19.8025225313
 21
24.19375
  0
LINE
  5
250
100
AcDbEntity
  8
0
100
AcDbLine
 62
7
  6
BYLAYER
 10
20.003829874
 20
31.94375
 11
20.003829874
 21
33.94375
  0
LINE
  5
251
100
AcDbEntity
  8
0
100
AcDbLine
 62
7
  6
BYLAYER
 10
20.4025225313
 20
27.54375
 11
20.4025225313
 21
28.14375
  0
LINE
  5
252
100
AcDbEntity
  8
0
100
AcDbLine
 62
7
  6
BYLAYER
 10
20.4025225313
 20
29.34375
 11
20.4025225313
 21
30.49375
  0
LINE
  5
253
100
AcDbEntity
  8
0
100
AcDbLine
 62
7
  6
BYLAYER
 10
20.7525225313
 20
31.79375
 11
20.7525225313
 21
31.94375
  0
LINE
  5
254
100
AcDbEntity
  8
0
100
AcDbLine
 62
7
  6
BYLAYER
 10
20.7979108395
 20
33.94375
 11
20.7979108395
 21
32.14375
  0
LINE
  5
255
100
AcDbEntity
  8
0
100
AcDbLine
 62
7
  6
BYLAYER
 10
20.9739452184
 20
32.14375
 11
20.9739452184
 21
33.94375
  0
LWPOLYLINE
  5
256
100
AcDbEntity
  8
0
100
AcDbPolyline
 62
7
  6
BYLAYER
 90
4
 70
0
 10
18.7395759939
 20
27.2937499737
 10
18.7489803726
 20
27.3830895065
 10
18.7950030897
 20
27.4992356851
 10
18.8274718846
 20
27.5390933855
  0
LINE
  5
257
100
AcDbEntity
  8
0
100
AcDbLine
 62
7
  6
BYLAYER
 10
7.7025225313
 20
30.49375
 11
20.4025225313
 21
30.49375
  0
LINE
  5
258
100
AcDbEntity
  8
0
100
AcDbLine
 62
7
  6
BYLAYER
 10
21.3556488796
 20
33.94375
 11
21.3556488796
 21
32.14375
  0
LINE
  5
259
100
AcDbEntity
  8
0
100
AcDbLine
 62
7
  6
BYLAYER
 10
21.415690928
 20
32.14375
 11
21.415690928
 21
33.94375
  0
LINE
  5
25A
100
AcDbEntity
  8
0
100
AcDbLine
 62
7
  6
BYLAYER
 10
22.0525225313
 20
33.94375
 11
22.0525225313
 21
34.19375
  0
LINE
  5
25B
100
AcDbEntity
  8
0
100
AcDbLine
 62
7
  6
BYLAYER
 10
20.7525225313
 20
31.79375
 11
7.3525225313
 21
31.79375
  0
LINE
  5
25C
100
AcDbEntity
  8
0
100
AcDbLine
 62
7
  6
BYLAYER
 10
21.2260719696
 20
31.94375
 11
20.003829874
 21
31.94375
  0
LINE
  5
25D
100
AcDbEntity
  8
0
100
AcDbLine
 62
7
  6
BYLAYER
 10
17.1301743818
 20
31.94375
 11
16.0845038167
 21
31.94375
  0
LINE
  5
25E
100
AcDbEntity
  8
0
100
AcDbLine
 62
7
  6
BYLAYER
 10
15.4849942545
 20
31.94375
 11
14.3628515162
 21
31.94375
  0
LINE
  5
25F
100
AcDbEntity
  8
0
100
AcDbLine
 62
7
  6
BYLAYER
 10
13.7421935465
 20
31.94375
 11
12.6200508082
 21
31.94375
  0
LINE
  5
260
100
AcDbEntity
  8
0
100
AcDbLine
 62
7
  6
BYLAYER
 10
12.020541246
 20
31.94375
 11
10.9748706809
 21
31.94375
  0
LINE
  5
261
100
AcDbEntity
  8
0
100
AcDbLine
 62
7
  6
BYLAYER
 10
8.1012151886
 20
31.94375
 11
6.9638195252
 21
31.94375
  0
LINE
  5
262
100
AcDbEntity
  8
0
100
AcDbLine
 62
7
  6
BYLAYER
 10
21.415690928
 20
32.14375
 11
21.3556488796
 21
32.14375
  0
LINE
  5
263
100
AcDbEntity
  8
0
100
AcDbLine
 62
7
  6
BYLAYER
 10
20.9739452184
 20
32.14375
 11
20.7979108395
 21
32.14375
  0
LINE
  5
264
100
AcDbEntity
  8
0
100
AcDbLine
 62
7
  6
BYLAYER
 10
17.0955040581
 20
32.14375
 11
16.6705194732
 21
32.14375
  0
LINE
  5
265
100
AcDbEntity
  8
0
100
AcDbLine
 62
7
  6
BYLAYER
 10
15.2459820162
 20
32.14375
 11
14.78991738
 21
32.14375
  0
LINE
  5
266
100
AcDbEntity
  8
0
100
AcDbLine
 62
7
  6
BYLAYER
 10
13.3151276827
 20
32.14375
 11
12.8590630465
 21
32.14375
  0
LINE
  5
267
100
AcDbEntity
  8
0
100
AcDbLine
 62
7
  6
BYLAYER
 10
11.4345255895
 20
32.14375
 11
11.0095410046
 21
32.14375
  0
LINE
  5
268
100
AcDbEntity
  8
0
100
AcDbLine
 62
7
  6
BYLAYER
 10
7.3071342232
 20
32.14375
 11
7.1310998443
 21
32.14375
  0
LINE
  5
269
100
AcDbEntity
  8
0
100
AcDbLine
 62
7
  6
BYLAYER
 10
6.7493961831
 20
32.14375
 11
6.6893541347
 21
32.14375
  0
LINE
  5
26A
100
AcDbEntity
  8
0
100
AcDbLine
 62
7
  6
BYLAYER
 10
22.0525225313
 20
33.94375
 11
6.0525225313
 21
33.94375
  0
LINE
  5
26B
100
AcDbEntity
  8
0
100
AcDbLine
 62
7
  6
BYLAYER
 10
32.2025225313
 20
34.44375
 11
22.3025225314
 21
34.44375
  0
LINE
  5
26C
100
AcDbEntity
  8
0
100
AcDbLine
 62
7
  6
BYLAYER
 10
32.2025225313
 20
34.59375
 11
36.7025225313
 21
34.59375
  0
LINE
  5
26D
100
AcDbEntity
  8
0
100
AcDbLine
 62
7
  6
BYLAYER
 10
38.1025225313
 20
43.69375
 11
37.4025225313
 21
43.44375
  0
LINE
  5
26E
100
AcDbEntity
  8
0
100
AcDbLine
 62
7
  6
BYLAYER
 10
36.9525225313
 20
35.54375
 11
37.4025225313
 21
35.54375
  0
LINE
  5
26F
100
AcDbEntity
  8
0
100
AcDbLine
 62
7
  6
BYLAYER
 10
36.7025225313
 20
38.8080412172
 11
16.3329293152
 21
38.8080412172
  0
LINE
  5
270
100
AcDbEntity
  8
0
100
AcDbLine
 62
7
  6
BYLAYER
 10
46.4025225313
 20
39.44375
 11
38.5025225313
 21
39.44375
  0
LINE
  5
271
100
AcDbEntity
  8
0
100
AcDbLine
 62
7
  6
BYLAYER
 10
36.7025225313
 20
39.8381987245
 11
14.0525225313
 21
39.838198717
  0
LINE
  5
272
100
AcDbEntity
  8
0
100
AcDbLine
 62
7
  6
BYLAYER
 10
47.4025225313
 20
39.94375
 11
46.7025225313
 21
39.94375
  0
LINE
  5
273
100
AcDbEntity
  8
0
100
AcDbLine
 62
7
  6
BYLAYER
 10
32.2025225313
 20
34.59375
 11
32.2025225313
 21
34.443798976
  0
LINE
  5
274
100
AcDbEntity
  8
0
100
AcDbLine
 62
7
  6
BYLAYER
 10
38.0431961957
 20
35.8289962933
 11
37.4025225313
 21
35.54375
  0
LINE
  5
275
100
AcDbEntity
  8
0
100
AcDbLine
 62
7
  6
BYLAYER
 10
36.9525225313
 20
35.54375
 11
36.7025225313
 21
35.44375
  0
LINE
  5
276
100
AcDbEntity
  8
0
100
AcDbLine
 62
7
  6
BYLAYER
 10
36.7025225313
 20
52.4437468981
 11
36.7025225313
 21
34.59375
  0
LINE
  5
277
100
AcDbEntity
  8
0
100
AcDbLine
 62
7
  6
BYLAYER
 10
38.1025225313
 20
38.04375
 11
38.5025225313
 21
38.44375
  0
LINE
  5
278
100
AcDbEntity
  8
0
100
AcDbLine
 62
7
  6
BYLAYER
 10
47.4025225313
 20
46.94375
 11
46.7025225313
 21
46.94375
  0
LINE
  5
279
100
AcDbEntity
  8
0
100
AcDbLine
 62
7
  6
BYLAYER
 10
37.4025225313
 20
43.44375
 11
38.1025225313
 21
43.19375
  0
LINE
  5
27A
100
AcDbEntity
  8
0
100
AcDbLine
 62
7
  6
BYLAYER
 10
36.9525225313
 20
35.54375
 11
36.9525225313
 21
51.34375
  0
LINE
  5
27B
100
AcDbEntity
  8
0
100
AcDbLine
 62
7
  6
BYLAYER
 10
37.4025225313
 20
51.34375
 11
37.4025225313
 21
35.54375
  0
LINE
  5
27C
100
AcDbEntity
  8
0
100
AcDbLine
 62
7
  6
BYLAYER
 10
38.0025225313
 20
43.6580357143
 11
38.0025225313
 21
43.2294642857
  0
LINE
  5
27D
100
AcDbEntity
  8
0
100
AcDbLine
 62
7
  6
BYLAYER
 10
38.0431961957
 20
51.0585037067
 11
38.0431961957
 21
50.1497482853
  0
LINE
  5
27E
100
AcDbEntity
  8
0
100
AcDbLine
 62
7
  6
BYLAYER
 10
38.0431961957
 20
49.9209361114
 11
38.0431961957
 21
43.6725619269
  0
LINE
  5
27F
100
AcDbEntity
  8
0
100
AcDbLine
 62
7
  6
BYLAYER
 10
38.0431961957
 20
43.2149376036
 11
38.0431961957
 21
36.9665636416
  0
LINE
  5
280
100
AcDbEntity
  8
0
100
AcDbLine
 62
7
  6
BYLAYER
 10
38.0431961957
 20
36.7377514922
 11
38.0431961957
 21
35.8289962933
  0
LINE
  5
281
100
AcDbEntity
  8
0
100
AcDbLine
 62
7
  6
BYLAYER
 10
38.1025225313
 20
49.8306065864
 11
38.1025225313
 21
43.69375
  0
LINE
  5
282
100
AcDbEntity
  8
0
100
AcDbLine
 62
7
  6
BYLAYER
 10
38.1025225313
 20
43.19375
 11
38.1025225313
 21
37.0568934136
  0
LINE
  5
283
100
AcDbEntity
  8
0
100
AcDbLine
 62
7
  6
BYLAYER
 10
38.1025225313
 20
37.0004729405
 11
38.1025225313
 21
35.9203565477
  0
LINE
  5
284
100
AcDbEntity
  8
0
100
AcDbLine
 62
7
  6
BYLAYER
 10
38.1025225313
 20
49.8870270595
 11
38.1025225313
 21
50.9671434523
  0
LINE
  5
285
100
AcDbEntity
  8
0
100
AcDbLine
 62
7
  6
BYLAYER
 10
38.5025225313
 20
48.44375
 11
38.5025225313
 21
38.44375
  0
LINE
  5
286
100
AcDbEntity
  8
0
100
AcDbLine
 62
7
  6
BYLAYER
 10
46.4025225313
 20
47.44375
 11
38.5025225313
 21
47.44375
  0
LINE
  5
287
100
AcDbEntity
  8
0
100
AcDbLine
 62
7
  6
BYLAYER
 10
14.0525225313
 20
49.8313762352
 11
36.7025225313
 21
49.8313762352
  0
LINE
  5
288
100
AcDbEntity
  8
0
100
AcDbLine
 62
7
  6
BYLAYER
 10
36.9525225313
 20
51.34375
 11
37.4025225313
 21
51.34375
  0
LINE
  5
289
100
AcDbEntity
  8
0
100
AcDbLine
 62
7
  6
BYLAYER
 10
14.0525225313
 20
51.7901389447
 11
36.7025225313
 21
51.7901389447
  0
LINE
  5
28A
100
AcDbEntity
  8
0
100
AcDbLine
 62
7
  6
BYLAYER
 10
8.0525249129
 20
52.44375
 11
36.7025225313
 21
52.44375
  0
LINE
  5
28B
100
AcDbEntity
  8
0
100
AcDbLine
 62
7
  6
BYLAYER
 10
36.9525225313
 20
51.34375
 11
36.7025225313
 21
51.44375
  0
LINE
  5
28C
100
AcDbEntity
  8
0
100
AcDbLine
 62
7
  6
BYLAYER
 10
38.1025225313
 20
48.84375
 11
38.5025225313
 21
48.44375
  0
LINE
  5
28D
100
AcDbEntity
  8
0
100
AcDbLine
 62
7
  6
BYLAYER
 10
38.0431961957
 20
51.0585037067
 11
37.4025225313
 21
51.34375
  0
LINE
  5
28E
100
AcDbEntity
  8
0
100
AcDbLine
 62
7
  6
BYLAYER
 10
46.4025225313
 20
47.44375
 11
46.4025225313
 21
39.44375
  0
LINE
  5
28F
100
AcDbEntity
  8
0
100
AcDbLine
 62
7
  6
BYLAYER
 10
46.7025225313
 20
39.7437505806
 11
46.7025225313
 21
47.1437494194
  0
LINE
  5
290
100
AcDbEntity
  8
0
100
AcDbLine
 62
7
  6
BYLAYER
 10
47.4025225313
 20
46.94375
 11
47.4025225313
 21
39.94375
  0
LINE
  5
291
100
AcDbEntity
  8
0
100
AcDbLine
 62
7
  6
BYLAYER
 10
47.7025225313
 20
40.2437507637
 11
47.7025225313
 21
46.6437492363
  0
ARC
  5
292
100
AcDbEntity
  8
0
100
AcDbCircle
 62
7
  6
BYLAYER
 10
-13.1995389763
 20
126.3111236098
 40
102.9964473049
100
AcDbArc
 50
299.4260032362
 51
299.8360251272
  0
ARC
  5
293
100
AcDbEntity
  8
0
100
AcDbCircle
 62
7
  6
BYLAYER
 10
-13.1982364337
 20
-39.4213314791
 40
102.9938142076
100
AcDbArc
 50
60.163980684
 51
60.574002451
  0
ARC
  5
294
100
AcDbEntity
  8
0
100
AcDbCircle
 62
7
  6
BYLAYER
 10
22.6511182428
 20
107.8798323269
 40
72.7881317877
100
AcDbArc
 50
281.6926816803
 51
282.2081563892
  0
ARC
  5
295
100
AcDbEntity
  8
0
100
AcDbCircle
 62
7
  6
BYLAYER
 10
22.8733891847
 20
-19.9421626128
 40
71.7147050244
100
AcDbArc
 50
77.787971729
 51
78.3111756423
  0
ARC
  5
296
100
AcDbEntity
  8
0
100
AcDbCircle
 62
7
  6
BYLAYER
 10
46.7025225313
 20
43.44375
 40
3.0
100
AcDbArc
 50
291.8500044757
 51
70.3727215764
  0
ARC
  5
297
100
AcDbEntity
  8
0
100
AcDbCircle
 62
7
  6
BYLAYER
 10
8.0525250443
 20
50.4437489101
 40
2.000000393
100
AcDbArc
 50
90.0001356052
 51
179.9999687719
  0
ARC
  5
298
100
AcDbEntity
  8
0
100
AcDbCircle
 62
7
  6
BYLAYER
 10
19.3457456532
 20
27.2935935336
 40
0.6544787657
100
AcDbArc
 50
172.6189097168
 51
179.9863030838
  0
ARC
  5
299
100
AcDbEntity
  8
0
100
AcDbCircle
 62
7
  6
BYLAYER
 10
8.7594462399
 20
27.2936058307
 40
0.6543319325
100
AcDbArc
 50
0.0126219532
 51
7.3280089804
  0
ARC
  5
29A
100
AcDbEntity
  8
0
100
AcDbCircle
 62
7
  6
BYLAYER
 10
19.342535718
 20
26.0937992384
 40
0.6512688136
100
AcDbArc
 50
180.0043308546
 51
180.4385456923
  0
ARC
  5
29B
100
AcDbEntity
  8
0
100
AcDbCircle
 62
7
  6
BYLAYER
 10
8.762526101
 20
26.0937996664
 40
0.6512520574
100
AcDbArc
 50
359.5678673524
 51
359.9956314419
  0
ARC
  5
29C
100
AcDbEntity
  8
0
100
AcDbCircle
 62
7
  6
BYLAYER
 10
8.8303936717
 20
26.0717042526
 40
0.5795902218
100
AcDbArc
 50
332.5652072335
 51
335.4720702759
  0
ARC
  5
29D
100
AcDbEntity
  8
0
100
AcDbCircle
 62
7
  6
BYLAYER
 10
19.2709937008
 20
26.0699795122
 40
0.5755466054
100
AcDbArc
 50
204.5236861238
 51
208.7754395729
  0
ARC
  5
29E
100
AcDbEntity
  8
0
100
AcDbCircle
 62
7
  6
BYLAYER
 10
20.0525225313
 20
28.74375
 40
0.5
100
AcDbArc
 50
270.0
 51
90.0
  0
ARC
  5
29F
100
AcDbEntity
  8
0
100
AcDbCircle
 62
7
  6
BYLAYER
 10
8.0525225313
 20
28.74375
 40
0.5
100
AcDbArc
 50
90.0
 51
270.0
  0
ARC
  5
2A0
100
AcDbEntity
  8
0
100
AcDbCircle
 62
7
  6
BYLAYER
 10
46.4025225313
 20
39.74375
 40
0.3
100
AcDbArc
 50
270.0
 51
0.0001108935
  0
ARC
  5
2A1
100
AcDbEntity
  8
0
100
AcDbCircle
 62
7
  6
BYLAYER
 10
46.4025225313
 20
47.14375
 40
0.3
100
AcDbArc
 50
359.9998891065
 51
90.0
  0
ARC
  5
2A2
100
AcDbEntity
  8
0
100
AcDbCircle
 62
7
  6
BYLAYER
 10
47.4025225313
 20
40.24375
 40
0.3
100
AcDbArc
 50
270.0
 51
0.0001458571
  0
ARC
  5
2A3
100
AcDbEntity
  8
0
100
AcDbCircle
 62
7
  6
BYLAYER
 10
47.4025225313
 20
46.64375
 40
0.3
100
AcDbArc
 50
359.9998541429
 51
90.0
  0
ARC
  5
2A4
100
AcDbEntity
  8
0
100
AcDbCircle
 62
7
  6
BYLAYER
 10
19.5525225313
 20
25.59375
 40
0.25
100
AcDbArc
 50
0.0
 51
90.0
  0
ARC
  5
2A5
100
AcDbEntity
  8
0
100
AcDbCircle
 62
7
  6
BYLAYER
 10
8.5525225313
 20
25.59375
 40
0.25
100
AcDbArc
 50
90.0
 51
180.0
  0
ARC
  5
2A6
100
AcDbEntity
  8
0
100
AcDbCircle
 62
7
  6
BYLAYER
 10
19.9025225313
 20
28.39375
 40
0.25
100
AcDbArc
 50
211.6563736642
 51
269.9999632251
  0
ARC
  5
2A7
100
AcDbEntity
  8
0
100
AcDbCircle
 62
7
  6
BYLAYER
 10
8.2025225313
 20
28.39375
 40
0.25
100
AcDbArc
 50
270.0000367749
 51
328.3436263358
  0
ARC
  5
2A8
100
AcDbEntity
  8
0
100
AcDbCircle
 62
7
  6
BYLAYER
 10
8.2025225313
 20
29.09375
 40
0.25
100
AcDbArc
 50
31.6563789643
 51
89.9999873184
  0
ARC
  5
2A9
100
AcDbEntity
  8
0
100
AcDbCircle
 62
7
  6
BYLAYER
 10
19.5525225313
 20
24.19375
 40
0.25
100
AcDbArc
 50
269.9999654747
 51
360.0
  0
ARC
  5
2AA
100
AcDbEntity
  8
0
100
AcDbCircle
 62
7
  6
BYLAYER
 10
8.5525225313
 20
24.19375
 40
0.25
100
AcDbArc
 50
180.0
 51
270.0000345253
  0
ARC
  5
2AB
100
AcDbEntity
  8
0
100
AcDbCircle
 62
7
  6
BYLAYER
 10
19.9025225313
 20
29.09375
 40
0.25
100
AcDbArc
 50
90.0000126816
 51
148.3436210357
  0
ARC
  5
2AC
100
AcDbEntity
  8
0
100
AcDbCircle
 62
7
  6
BYLAYER
 10
38.0025225313
 20
35.920350839
 40
0.1
100
AcDbArc
 50
294.0000000011
 51
360.0
  0
ARC
  5
2AD
100
AcDbEntity
  8
0
100
AcDbCircle
 62
7
  6
BYLAYER
 10
38.0025225313
 20
50.967149161
 40
0.1
100
AcDbArc
 50
0.0
 51
65.9999999989
  0
SPLINE
  5
2AE
100
AcDbEntity
  8
0
100
AcDbSpline
 62
7
  6
BYLAYER
 70
0
 71
3
 72
13
 73
9
 74
0
 42
0.0000001
 43
0.0000001
 44
0.0000000001
 40
0.0
 40
0.0
 40
0.0
 40
0.0
 40
0.2394773833
 40
0.3684528628
 40
0.5000038636
 40
0.631554277
 40
0.7605281619
 40
1.0
 40
1.0
 40
1.0
 40
1.0
 10
22.052517955
 20
34.1937499999
 30
0.0
 10
22.0525174457
 20
34.2249785688
 30
0.0
 10
22.0617445767
 20
34.2736740068
 30
0.0
 10
22.0921225275
 20
34.3317199923
 30
0.0
 10
22.1244315512
 20
34.3718429605
 30
0.0
 10
22.1645547776
 20
34.4041513247
 30
0.0
 10
22.2226002182
 20
34.4345281189
 30
0.0
 10
22.2712946853
 20
34.4437547957
 30
0.0
 10
22.302522531
 20
34.4437542644
 30
0.0
  0
SPLINE
  5
2AF
100
AcDbEntity
  8
0
100
AcDbSpline
 62
7
  6
BYLAYER
 70
0
 71
3
 72
11
 73
7
 74
0
 42
0.0000001
 43
0.0000001
 44
0.0000000001
 40
0.0
 40
0.0
 40
0.0
 40
0.0
 40
0.2333426736
 40
0.4810194242
 40
0.7388432976
 40
1.0
 40
1.0
 40
1.0
 40
1.0
 10
38.1025225313
 20
37.0568934136
 30
0.0
 10
38.1025225313
 20
37.0481319772
 30
0.0
 10
38.0992861337
 20
37.0299970131
 30
0.0
 10
38.0866890797
 20
37.0049300466
 30
0.0
 10
38.0675949439
 20
36.9830372963
 30
0.0
 10
38.0517053138
 20
36.9714454866
 30
0.0
 10
38.0431995611
 20
36.9665663911
 30
0.0
  0
SPLINE
  5
2B0
100
AcDbEntity
  8
0
100
AcDbSpline
 62
7
  6
BYLAYER
 70
0
 71
3
 72
11
 73
7
 74
0
 42
0.0000001
 43
0.0000001
 44
0.0000000001
 40
0.0
 40
0.0
 40
0.0
 40
0.0
 40
0.2611362341
 40
0.5189824116
 40
0.7666787818
 40
1.0
 40
1.0
 40
1.0
 40
1.0
 10
38.043183025
 20
49.9209468491
 30
0.0
 10
38.0516898071
 20
49.9160671631
 30
0.0
 10
38.0675851066
 20
49.9044763173
 30
0.0
 10
38.0866834783
 20
49.8825786594
 30
0.0
 10
38.0992887959
 20
49.8575082845
 30
0.0
 10
38.1025225313
 20
49.8393689644
 30
0.0
 10
38.1025225313
 20
49.8306065864
 30
0.0
  0
SPLINE
  5
2B1
100
AcDbEntity
  8
0
100
AcDbSpline
 62
7
  6
BYLAYER
 70
0
 71
3
 72
13
 73
9
 74
0
 42
0.0000001
 43
0.0000001
 44
0.0000000001
 40
0.0
 40
0.0
 40
0.0
 40
0.0
 40
0.2951435911
 40
0.4335039823
 40
0.5625846978
 40
0.7925000371
 40
0.8980278516
 40
1.0
 40
1.0
 40
1.0
 40
1.0
 10
7.1310998443
 20
32.14375
 30
0.0
 10
7.1310998443
 20
32.1165290626
 30
0.0
 10
7.137277572
 20
32.0761038904
 30
0.0
 10
7.1577360921
 20
32.0281825939
 30
0.0
 10
7.1828331458
 20
31.9896108156
 30
0.0
 10
7.2163460151
 20
31.9605509295
 30
0.0
 10
7.2543730585
 20
31.9461415947
 30
0.0
 10
7.2735872428
 20
31.94375
 30
0.0
 10
7.2829920801
 20
31.94375
 30
0.0
  0
SPLINE
  5
2B2
100
AcDbEntity
  8
0
100
AcDbSpline
 62
7
  6
BYLAYER
 70
0
 71
3
 72
13
 73
9
 74
0
 42
0.0000001
 43
0.0000001
 44
0.0000000001
 40
0.0
 40
0.0
 40
0.0
 40
0.0
 40
0.1019542656
 40
0.2074566517
 40
0.4374084788
 40
0.5665606187
 40
0.7049588921
 40
1.0
 40
1.0
 40
1.0
 40
1.0
 10
20.8220528914
 20
31.94375
 30
0.0
 10
20.8314560937
 20
31.94375
 30
0.0
 10
20.8506667358
 20
31.9461377311
 30
0.0
 10
20.8886931199
 20
31.9605467885
 30
0.0
 10
20.9222169947
 20
31.9896080878
 30
0.0
 10
20.9473105009
 20
32.028198445
 30
0.0
 10
20.9677742169
 20
32.07611783
 30
0.0
 10
20.9739452184
 20
32.1165384732
 30
0.0
 10
20.9739452184
 20
32.14375
 30
0.0
  0
SPLINE
  5
2B3
100
AcDbEntity
  8
0
100
AcDbSpline
 62
7
  6
BYLAYER
 70
0
 71
3
 72
11
 73
7
 74
0
 42
0.0000001
 43
0.0000001
 44
0.0000000001
 40
0.0
 40
0.0
 40
0.0
 40
0.0
 40
0.2314915562
 40
0.4727161218
 40
0.7297748385
 40
1.0
 40
1.0
 40
1.0
 40
1.0
 10
21.2260720025
 20
31.94375
 30
0.0
 10
21.2495437233
 20
31.94375
 30
0.0
 10
21.2979793211
 20
31.9533501063
 30
0.0
 10
21.3609315747
 20
31.9957051779
 30
0.0
 10
21.4050916201
 20
32.0622773117
 30
0.0
 10
21.415690928
 20
32.1163509464
 30
0.0
 10
21.415690928
 20
32.14375
 30
0.0
  0
SPLINE
  5
2B4
100
AcDbEntity
  8
0
100
AcDbSpline
 62
7
  6
BYLAYER
 70
0
 71
3
 72
11
 73
7
 74
0
 42
0.0000001
 43
0.0000001
 44
0.0000000001
 40
0.0
 40
0.0
 40
0.0
 40
0.0
 40
0.2703205273
 40
0.5272762955
 40
0.7684608431
 40
1.0
 40
1.0
 40
1.0
 40
1.0
 10
6.6893541347
 20
32.14375
 30
0.0
 10
6.6893541347
 20
32.1163413444
 30
0.0
 10
6.6999566579
 20
32.0622677547
 30
0.0
 10
6.7441186636
 20
31.995704984
 30
0.0
 10
6.8070603938
 20
31.9533545483
 30
0.0
 10
6.855496457
 20
31.94375
 30
0.0
 10
6.8789729464
 20
31.94375
 30
0.0
  0
SPLINE
  5
2B5
100
AcDbEntity
  8
0
100
AcDbSpline
 62
7
  6
BYLAYER
 70
0
 71
3
 72
11
 73
7
 74
0
 42
0.0000001
 43
0.0000001
 44
0.0000000001
 40
0.0
 40
0.0
 40
0.0
 40
0.0
 40
0.2574538349
 40
0.5044264579
 40
0.7484980978
 40
1.0
 40
1.0
 40
1.0
 40
1.0
 10
38.0431830251
 20
36.7377458318
 30
0.0
 10
38.051444066
 20
36.7395341832
 30
0.0
 10
38.0672742521
 20
36.7452816391
 30
0.0
 10
38.0869558842
 20
36.7607844535
 30
0.0
 10
38.0997365966
 20
36.7821898781
 30
0.0
 10
38.1025225313
 20
36.7986364239
 30
0.0
 10
38.1025225313
 20
36.8068934136
 30
0.0
  0
SPLINE
  5
2B6
100
AcDbEntity
  8
0
100
AcDbSpline
 62
7
  6
BYLAYER
 70
0
 71
3
 72
9
 73
5
 74
0
 42
0.0000001
 43
0.0000001
 44
0.0000000001
 40
0.0
 40
0.0
 40
0.0
 40
0.0
 40
0.5190886447
 40
1.0
 40
1.0
 40
1.0
 40
1.0
 10
18.6912859815
 20
26.0888144325
 30
0.0
 10
18.691637131
 20
26.0429273123
 30
0.0
 10
18.7016505783
 20
25.9543367438
 30
0.0
 10
18.729714988
 20
25.8697632468
 30
0.0
 10
18.7473672937
 20
25.8310877361
 30
0.0
  0
SPLINE
  5
2B7
100
AcDbEntity
  8
0
100
AcDbSpline
 62
7
  6
BYLAYER
 70
0
 71
3
 72
11
 73
7
 74
0
 42
0.0000001
 43
0.0000001
 44
0.0000000001
 40
0.0
 40
0.0
 40
0.0
 40
0.0
 40
0.3038757773
 40
0.5673953081
 40
0.7960829776
 40
1.0
 40
1.0
 40
1.0
 40
1.0
 10
18.7665195569
 20
25.792924043
 30
0.0
 10
18.7834212553
 20
25.7621859
 30
0.0
 10
18.8204958915
 20
25.7075344583
 30
0.0
 10
18.887619372
 20
25.6436474566
 30
0.0
 10
18.9584634625
 20
25.6037179353
 30
0.0
 10
19.0086290441
 20
25.5937414224
 30
0.0
 10
19.0321686034
 20
25.59375
 30
0.0
  0
SPLINE
  5
2B8
100
AcDbEntity
  8
0
100
AcDbSpline
 62
7
  6
BYLAYER
 70
0
 71
3
 72
14
 73
10
 74
0
 42
0.0000001
 43
0.0000001
 44
0.0000000001
 40
0.0
 40
0.0
 40
0.0
 40
0.0
 40
0.1391861137
 40
0.2805805218
 40
0.420183901
 40
0.5545075048
 40
0.7957917953
 40
0.9024921199
 40
1.0
 40
1.0
 40
1.0
 40
1.0
 10
9.0728804289
 20
25.5937500001
 30
0.0
 10
9.0728800392
 20
25.6103104028
 30
0.0
 10
9.0758559779
 20
25.6437507386
 30
0.0
 10
9.0887057015
 20
25.6923353267
 30
0.0
 10
9.110352604
 20
25.7371139215
 30
0.0
 10
9.146820713
 20
25.7867148312
 30
0.0
 10
9.1942909538
 20
25.8221994075
 30
0.0
 10
9.2446503399
 20
25.839580812
 30
0.0
 10
9.2688790477
 20
25.8429901642
 30
0.0
 10
9.2804674687
 20
25.8435412049
 30
0.0
  0
SPLINE
  5
2B9
100
AcDbEntity
  8
0
100
AcDbSpline
 62
7
  6
BYLAYER
 70
0
 71
3
 72
9
 73
5
 74
0
 42
0.0000001
 43
0.0000001
 44
0.0000000001
 40
0.0
 40
0.0
 40
0.0
 40
0.0
 40
0.2383026113
 40
1.0
 40
1.0
 40
1.0
 40
1.0
 10
9.3632676157
 20
27.54375
 30
0.0
 10
9.3686787693
 20
27.5311182181
 30
0.0
 10
9.3895536591
 20
27.4773428938
 30
0.0
 10
9.4028232028
 20
27.4206299
 30
0.0
 10
9.4084337257
 20
27.3770655284
 30
0.0
  0
SPLINE
  5
2BA
100
AcDbEntity
  8
0
100
AcDbSpline
 62
7
  6
BYLAYER
 70
0
 71
3
 72
15
 73
11
 74
0
 42
0.0000001
 43
0.0000001
 44
0.0000000001
 40
0.0
 40
0.0
 40
0.0
 40
0.0
 40
0.1372991475
 40
0.2768732118
 40
0.4150622456
 40
0.5487670853
 40
0.674878874
 40
0.7924038101
 40
0.9007084735
 40
1.0
 40
1.0
 40
1.0
 40
1.0
 10
19.0321660235
 20
25.5937500001
 30
0.0
 10
19.0321663619
 20
25.6095319132
 30
0.0
 10
19.0294584439
 20
25.6414055067
 30
0.0
 10
19.0177690081
 20
25.6878959401
 30
0.0
 10
18.9980410405
 20
25.7311679358
 30
0.0
 10
18.9718859624
 20
25.7690125103
 30
0.0
 10
18.9407194125
 20
25.7995734271
 30
0.0
 10
18.9067060993
 20
25.8219292069
 30
0.0
 10
18.8719933852
 20
25.8363427788
 30
0.0
 10
18.8484767827
 20
25.8412212141
 30
0.0
 10
18.8371381161
 20
25.8425226417
 30
0.0
  0
SPLINE
  5
2BB
100
AcDbEntity
  8
0
100
AcDbSpline
 62
7
  6
BYLAYER
 70
0
 71
3
 72
9
 73
5
 74
0
 42
0.0000001
 43
0.0000001
 44
0.0000000001
 40
0.0
 40
0.0
 40
0.0
 40
0.0
 40
0.5190888673
 40
1.0
 40
1.0
 40
1.0
 40
1.0
 10
9.4137596356
 20
26.0888878804
 30
0.0
 10
9.4134135351
 20
26.0429894427
 30
0.0
 10
9.4034053235
 20
25.9543759129
 30
0.0
 10
9.375337206
 20
25.869780262
 30
0.0
 10
9.3576811005
 20
25.8310950411
 30
0.0
  0
SPLINE
  5
2BC
100
AcDbEntity
  8
0
100
AcDbSpline
 62
7
  6
BYLAYER
 70
0
 71
3
 72
11
 73
7
 74
0
 42
0.0000001
 43
0.0000001
 44
0.0000000001
 40
0.0
 40
0.0
 40
0.0
 40
0.0
 40
0.3055099782
 40
0.569536559
 40
0.7975917414
 40
1.0
 40
1.0
 40
1.0
 40
1.0
 10
9.3448007231
 20
25.8046645353
 30
0.0
 10
9.3279236323
 20
25.7721718961
 30
0.0
 10
9.290498781
 20
25.7143836658
 30
0.0
 10
9.2218143025
 20
25.6467201644
 30
0.0
 10
9.148959388
 20
25.6043777092
 30
0.0
 10
9.0971343857
 20
25.593741169
 30
0.0
 10
9.0728764595
 20
25.59375
 30
0.0
  0
SPLINE
  5
2BD
100
AcDbEntity
  8
0
100
AcDbSpline
 62
7
  6
BYLAYER
 70
0
 71
3
 72
39
 73
35
 74
0
 42
0.0000001
 43
0.0000001
 44
0.0000000001
 40
0.0
 40
0.0
 40
0.0
 40
0.0
 40
0.0078005152
 40
0.0156126775
 40
0.0234278182
 40
0.0312428467
 40
0.0468607901
 40
0.0624848312
 40
0.0781104281
 40
0.0937365066
 40
0.1249847866
 40
0.156235499
 40
0.1874871083
 40
0.218739137
 40
0.2499913549
 40
0.3124938385
 40
0.3749974141
 40
0.4999996811
 40
0.6250021727
 40
0.687505851
 40
0.7500083961
 40
0.7812606376
 40
0.8125126807
 40
0.8437642953
 40
0.8750150157
 40
0.9062633038
 40
0.9218893895
 40
0.9375149973
 40
0.9531390454
 40
0.9687570225
 40
0.9765720573
 40
0.9843872521
 40
0.992199356
 40
1.0
 40
1.0
 40
1.0
 40
1.0
 10
12.9848147061
 20
24.19375
 30
0.0
 10
12.9848147061
 20
24.1879197568
 30
0.0
 10
12.9871333367
 20
24.1761717462
 30
0.0
 10
12.9958716466
 20
24.1607819832
 30
0.0
 10
13.0075731754
 20
24.1476282559
 30
0.0
 10
13.0254527704
 20
24.1325227425
 30
0.0
 10
13.0503720203
 20
24.1170740447
 30
0.0
 10
13.0820316602
 20
24.1020071088
 30
0.0
 10
13.114720252
 20
24.08932831
 30
0.0
 10
13.1591305535
 20
24.0747934206
 30
0.0
 10
13.2156783154
 20
24.0600349028
 30
0.0
 10
13.2843421595
 20
24.045966971
 30
0.0
 10
13.3534996555
 20
24.0345849982
 30
0.0
 10
13.4229618439
 20
24.025278827
 30
0.0
 10
13.5158449414
 20
24.0151006411
 30
0.0
 10
13.6322894339
 20
24.0057994981
 30
0.0
 10
13.8189221033
 20
23.9962449939
 30
0.0
 10
14.0525219894
 20
23.9920863019
 30
0.0
 10
14.2861219457
 20
23.9962450209
 30
0.0
 10
14.472754919
 20
24.0057993119
 30
0.0
 10
14.5891995419
 20
24.0151005904
 30
0.0
 10
14.6820827178
 20
24.0252787364
 30
0.0
 10
14.7515449402
 20
24.0345849037
 30
0.0
 10
14.8207024491
 20
24.0459669204
 30
0.0
 10
14.8893663253
 20
24.0600347738
 30
0.0
 10
14.9459141056
 20
24.0747932937
 30
0.0
 10
14.9903244342
 20
24.0893281593
 30
0.0
 10
15.0230130616
 20
24.1020069229
 30
0.0
 10
15.0546727229
 20
24.1170738982
 30
0.0
 10
15.07959205
 20
24.1325225371
 30
0.0
 10
15.0974717062
 20
24.1476280923
 30
0.0
 10
15.1091732394
 20
24.1607818095
 30
0.0
 10
15.1179117183
 20
24.1761715821
 30
0.0
 10
15.1202303566
 20
24.1879196606
 30
0.0
 10
15.1202303566
 20
24.19375
 30
0.0
  0
SPLINE
  5
2BE
100
AcDbEntity
  8
0
100
AcDbSpline
 62
7
  6
BYLAYER
 70
0
 71
3
 72
11
 73
7
 74
0
 42
0.0000001
 43
0.0000001
 44
0.0000000001
 40
0.0
 40
0.0
 40
0.0
 40
0.0
 40
0.2515201901
 40
0.4955792554
 40
0.7425312788
 40
1.0
 40
1.0
 40
1.0
 40
1.0
 10
38.1025225313
 20
50.0806065864
 30
0.0
 10
38.1025225313
 20
50.0888624958
 30
0.0
 10
38.0997335615
 20
50.1053048378
 30
0.0
 10
38.0869615071
 20
50.1267084371
 30
0.0
 10
38.0672845907
 20
50.1422081767
 30
0.0
 10
38.0514593982
 20
50.147958743
 30
0.0
 10
38.0431995611
 20
50.1497468339
 30
0.0
  0
SPLINE
  5
2BF
100
AcDbEntity
  8
0
100
AcDbSpline
 62
7
  6
BYLAYER
 70
0
 71
3
 72
40
 73
36
 74
0
 42
0.0000001
 43
0.0000001
 44
0.0000000001
 40
0.0
 40
0.0
 40
0.0
 40
0.0
 40
0.0000383209
 40
0.0000801546
 40
0.0001608425
 40
0.0002860008
 40
0.0004566689
 40
0.0006730381
 40
0.0012424867
 40
0.0019928854
 40
0.0029222013
 40
0.0040282366
 40
0.0053087263
 40
0.0083838785
 40
0.0121292009
 40
0.0165262345
 40
0.021557773
 40
0.0334893922
 40
0.0478692296
 40
0.0646452488
 40
0.0837636882
 40
0.1051388939
 40
0.128657052
 40
0.1542033727
 40
0.181664539
 40
0.2419307244
 40
0.3086835138
 40
0.3811603103
 40
0.4586418349
 40
0.540576103
 40
0.6264539669
 40
0.7157536789
 40
0.8079843563
 40
0.9028196356
 40
1.0
 40
1.0
 40
1.0
 40
1.0
 10
22.3025225314
 20
34.44375
 30
0.0
 10
22.3025932732
 20
34.44375
 30
0.0
 10
22.3027826578
 20
34.4438003785
 30
0.0
 10
22.3026877029
 20
34.4441554818
 30
0.0
 10
22.3024390809
 20
34.4445039734
 30
0.0
 10
22.3019915018
 20
34.4450557349
 30
0.0
 10
22.3013435477
 20
34.4457366413
 30
0.0
 10
22.3000870339
 20
34.4469816449
 30
0.0
 10
22.298000069
 20
34.4488998587
 30
0.0
 10
22.2948890549
 20
34.4516508931
 30
0.0
 10
22.2909952577
 20
34.4550098633
 30
0.0
 10
22.2863337414
 20
34.4589772672
 30
0.0
 10
22.2786299954
 20
34.4654817078
 30
0.0
 10
22.26717601
 20
34.4750967781
 30
0.0
 10
22.251328169
 20
34.4884258556
 30
0.0
 10
22.2327662786
 20
34.5041388501
 30
0.0
 10
22.2027969045
 20
34.529765127
 30
0.0
 10
22.1590129355
 20
34.5675911134
 30
0.0
 10
22.0989201362
 20
34.6197028021
 30
0.0
 10
22.0287821047
 20
34.680481312
 30
0.0
 10
21.9487405853
 20
34.7495501022
 30
0.0
 10
21.8591028133
 20
34.8265488073
 30
0.0
 10
21.7603144503
 20
34.9111051877
 30
0.0
 10
21.6528444219
 20
35.0027958938
 30
0.0
 10
21.4935799983
 20
35.1382977468
 30
0.0
 10
21.2758774292
 20
35.3225028676
 30
0.0
 10
20.9935065809
 20
35.5589255299
 30
0.0
 10
20.685430206
 20
35.8141421711
 30
0.0
 10
20.3543382404
 20
36.0855003426
 30
0.0
 10
20.0015545473
 20
36.3693992026
 30
0.0
 10
19.6282575962
 20
36.6625580326
 30
0.0
 10
19.2363925162
 20
36.9627877032
 30
0.0
 10
18.8276366523
 20
37.2681117678
 30
0.0
 10
18.4018163956
 20
37.5747841176
 30
0.0
 10
18.1096371661
 20
37.7755666166
 30
0.0
 10
17.960268817
 20
37.8749292407
 30
0.0
  0
SPLINE
  5
2C0
100
AcDbEntity
  8
0
100
AcDbSpline
 62
7
  6
BYLAYER
 70
0
 71
3
 72
11
 73
7
 74
0
 42
0.0000001
 43
0.0000001
 44
0.0000000001
 40
0.0
 40
0.0
 40
0.0
 40
0.0
 40
0.2446036578
 40
0.4931689976
 40
0.745212578
 40
1.0
 40
1.0
 40
1.0
 40
1.0
 10
17.960268817
 20
37.8749292407
 30
0.0
 10
17.8328212385
 20
37.9597097576
 30
0.0
 10
17.5736347848
 20
38.1273394673
 30
0.0
 10
17.1739306115
 20
38.3677667928
 30
0.0
 10
16.7600674822
 20
38.5964177606
 30
0.0
 10
16.4767319634
 20
38.7391714693
 30
0.0
 10
16.3329293152
 20
38.8080412172
 30
0.0
  0
SPLINE
  5
2C1
100
AcDbEntity
  8
0
100
AcDbSpline
 62
7
  6
BYLAYER
 70
0
 71
3
 72
9
 73
5
 74
0
 42
0.0000001
 43
0.0000001
 44
0.0000000001
 40
0.0
 40
0.0
 40
0.0
 40
0.0
 40
0.260942409
 40
1.0
 40
1.0
 40
1.0
 40
1.0
 10
18.6966901501
 20
27.377673309
 30
0.0
 10
18.6986195609
 20
27.3925440529
 30
0.0
 10
18.7079918731
 20
27.4492570342
 30
0.0
 10
18.725053792
 20
27.5047103381
 30
0.0
 10
18.7417774538
 20
27.54375
 30
0.0
  0
SPLINE
  5
2C2
100
AcDbEntity
  8
0
100
AcDbSpline
 62
7
  6
BYLAYER
 70
0
 71
3
 72
40
 73
36
 74
0
 42
0.0000001
 43
0.0000001
 44
0.0000000001
 40
0.0
 40
0.0
 40
0.0
 40
0.0
 40
0.0000191987
 40
0.0000764902
 40
0.0001718545
 40
0.0003052717
 40
0.0006861845
 40
0.0012190681
 40
0.0019037623
 40
0.0027401068
 40
0.0037279412
 40
0.0048671052
 40
0.0075987809
 40
0.0109338521
 40
0.0148709118
 40
0.0194070351
 40
0.0245382861
 40
0.0302607128
 40
0.0434632965
 40
0.0589824334
 40
0.0767755007
 40
0.0967927019
 40
0.1189839894
 40
0.1432926414
 40
0.1696537983
 40
0.1980022477
 40
0.2282690633
 40
0.2942487036
 40
0.366956188
 40
0.4456938385
 40
0.5297193874
 40
0.6182436966
 40
0.7104200187
 40
0.8053787561
 40
1.0
 40
1.0
 40
1.0
 40
1.0
 10
6.0525225313
 20
50.44375
 30
0.0
 10
6.0525579116
 20
50.4437127222
 30
0.0
 10
6.05279748
 20
50.4437516127
 30
0.0
 10
6.053216364
 20
50.4436141164
 30
0.0
 10
6.0539936308
 20
50.4435366032
 30
0.0
 10
6.0555947973
 20
50.443267271
 30
0.0
 10
6.0583754404
 20
50.4428630216
 30
0.0
 10
6.0626016968
 20
50.4422125929
 30
0.0
 10
6.0680396844
 20
50.4413922788
 30
0.0
 10
6.0746797243
 20
50.4403867169
 30
0.0
 10
6.0825237866
 20
50.4392025525
 30
0.0
 10
6.0953848307
 20
50.43726295
 30
0.0
 10
6.1144602099
 20
50.4343929467
 30
0.0
 10
6.1409436375
 20
50.4304190518
 30
0.0
 10
6.1722058345
 20
50.4257401544
 30
0.0
 10
6.208226264
 20
50.4203687989
 30
0.0
 10
6.2489780903
 20
50.4143213106
 30
0.0
 10
6.3126861058
 20
50.4049197196
 30
0.0
 10
6.4039231909
 20
50.3915867963
 30
0.0
 10
6.5271687215
 20
50.3738241405
 30
0.0
 10
6.6685180685
 20
50.3537933551
 30
0.0
 10
6.8276136183
 20
50.3316958979
 30
0.0
 10
7.0040584463
 20
50.3077303711
 30
0.0
 10
7.197417559
 20
50.2821209725
 30
0.0
 10
7.4072176764
 20
50.2551211611
 30
0.0
 10
7.6329510412
 20
50.2269830349
 30
0.0
 10
7.9641003671
 20
50.1871353505
 30
0.0
 10
8.4135241285
 20
50.1362707862
 30
0.0
 10
8.9925240775
 20
50.076746768
 30
0.0
 10
9.6202714154
 20
50.0193757349
 30
0.0
 10
10.2908872388
 20
49.9663565878
 30
0.0
 10
10.998041611
 20
49.9197893143
 30
0.0
 10
11.7350053559
 20
49.8814563772
 30
0.0
 10
12.7562611922
 20
49.8431100897
 30
0.0
 10
13.531526543
 20
49.8313769414
 30
0.0
 10
14.0525225313
 20
49.8313762352
 30
0.0
  0
SPLINE
  5
2C3
100
AcDbEntity
  8
0
100
AcDbSpline
 62
7
  6
BYLAYER
 70
0
 71
3
 72
33
 73
29
 74
0
 42
0.0000001
 43
0.0000001
 44
0.0000000001
 40
0.0
 40
0.0
 40
0.0
 40
0.0
 40
0.0000761711
 40
0.0003033505
 40
0.0006813467
 40
0.0012099687
 40
0.0027183249
 40
0.0048268899
 40
0.0075341355
 40
0.0108385344
 40
0.0147385602
 40
0.0192326874
 40
0.0299930141
 40
0.0430866899
 40
0.0584768507
 40
0.0761267455
 40
0.0959963668
 40
0.1180323701
 40
0.1683777685
 40
0.2266912976
 40
0.2924130572
 40
0.3649449597
 40
0.4436085575
 40
0.5276904878
 40
0.6163967802
 40
0.7089001215
 40
0.804297552
 40
1.0
 40
1.0
 40
1.0
 40
1.0
 10
8.0525203108
 20
52.4437493031
 30
0.0
 10
8.0526619332
 20
52.4436900181
 30
0.0
 10
8.0532794913
 20
52.4436234172
 30
0.0
 10
8.0546020932
 20
52.443270531
 30
0.0
 10
8.0568464334
 20
52.4428208522
 30
0.0
 10
8.0615972805
 20
52.4417703088
 30
0.0
 10
8.0697700639
 20
52.4400237829
 30
0.0
 10
8.0822299046
 20
52.4373369187
 30
0.0
 10
8.0982347333
 20
52.4339109851
 30
0.0
 10
8.1177720004
 20
52.4297384331
 30
0.0
 10
8.1408354621
 20
52.4248316588
 30
0.0
 10
8.1786035155
 20
52.4168233113
 30
0.0
 10
8.234513423
 20
52.4050378793
 30
0.0
 10
8.3119528518
 20
52.388911882
 30
0.0
 10
8.4030428154
 20
52.3702233377
 30
0.0
 10
8.507581791
 20
52.3491341837
 30
0.0
 10
8.6253354398
 20
52.3258149232
 30
0.0
 10
8.8078850416
 20
52.2904600994
 30
0.0
 10
9.0668740712
 20
52.2422735525
 30
0.0
 10
9.4131133866
 20
52.1817470974
 30
0.0
 10
9.8042464947
 20
52.118503165
 30
0.0
 10
10.2368317402
 20
52.0549064387
 30
0.0
 10
10.7070695416
 20
51.9933685924
 30
0.0
 10
11.2107064091
 20
51.9363533216
 30
0.0
 10
11.7430865796
 20
51.8860243633
 30
0.0
 10
12.2991152589
 20
51.8445793663
 30
0.0
 10
13.0712171693
 20
51.8028782822
 30
0.0
 10
13.6580645803
 20
51.7901377996
 30
0.0
 10
14.0525225313
 20
51.790138097
 30
0.0
  0
SPLINE
  5
2C4
100
AcDbEntity
  8
0
100
AcDbSpline
 62
7
  6
BYLAYER
 70
0
 71
3
 72
11
 73
7
 74
0
 42
0.0000001
 43
0.0000001
 44
0.0000000001
 40
0.0
 40
0.0
 40
0.0
 40
0.0
 40
0.2501068455
 40
0.5003080765
 40
0.7502902164
 40
1.0
 40
1.0
 40
1.0
 40
1.0
 10
7.5317491963
 20
31.94375
 30
0.0
 10
7.5040967044
 20
31.94375
 30
0.0
 10
7.448332824
 20
31.9528754211
 30
0.0
 10
7.3742119218
 20
31.9939010434
 30
0.0
 10
7.3205676071
 20
32.0601390709
 30
0.0
 10
7.3071342232
 20
32.1161414084
 30
0.0
 10
7.3071342232
 20
32.14375
 30
0.0
  0
SPLINE
  5
2C5
100
AcDbEntity
  8
0
100
AcDbSpline
 62
7
  6
BYLAYER
 70
0
 71
3
 72
18
 73
14
 74
0
 42
0.0000001
 43
0.0000001
 44
0.0000000001
 40
0.0
 40
0.0
 40
0.0
 40
0.0
 40
0.2057388678
 40
0.401494086
 40
0.5766328148
 40
0.7251745891
 40
0.8430307094
 40
0.889865372
 40
0.9283830444
 40
0.9584952578
 40
0.980246519
 40
0.993795207
 40
1.0
 40
1.0
 40
1.0
 40
1.0
 10
11.0095410046
 20
32.14375
 30
0.0
 10
11.0095410046
 20
32.1299740991
 30
0.0
 10
11.0094024753
 20
32.1030905336
 30
0.0
 10
11.0088139451
 20
32.0644843008
 30
0.0
 10
11.0078718891
 20
32.0297147231
 30
0.0
 10
11.0066548248
 20
32.0001766978
 30
0.0
 10
11.0053911213
 20
31.9792332664
 30
0.0
 10
11.0042426337
 20
31.9656831159
 30
0.0
 10
11.0034051855
 20
31.9579781067
 30
0.0
 10
11.0025949057
 20
31.9520278826
 30
0.0
 10
11.001686746
 20
31.9476231535
 30
0.0
 10
11.001015881
 20
31.9451473412
 30
0.0
 10
11.0001495653
 20
31.94375
 30
0.0
 10
10.9997341036
 20
31.94375
 30
0.0
  0
SPLINE
  5
2C6
100
AcDbEntity
  8
0
100
AcDbSpline
 62
7
  6
BYLAYER
 70
0
 71
3
 72
11
 73
7
 74
0
 42
0.0000001
 43
0.0000001
 44
0.0000000001
 40
0.0
 40
0.0
 40
0.0
 40
0.0
 40
0.2163650364
 40
0.4509237197
 40
0.7140404422
 40
1.0
 40
1.0
 40
1.0
 40
1.0
 10
11.6002868866
 20
31.94375
 30
0.0
 10
11.5796492125
 20
31.94375
 30
0.0
 10
11.5361198238
 20
31.9538681346
 30
0.0
 10
11.4811385802
 20
31.9971945935
 30
0.0
 10
11.4434198694
 20
32.0636191771
 30
0.0
 10
11.4345255895
 20
32.1164741506
 30
0.0
 10
11.4345255895
 20
32.14375
 30
0.0
  0
SPLINE
  5
2C7
100
AcDbEntity
  8
0
100
AcDbSpline
 62
7
  6
BYLAYER
 70
0
 71
3
 72
15
 73
11
 74
0
 42
0.0000001
 43
0.0000001
 44
0.0000000001
 40
0.0
 40
0.0
 40
0.0
 40
0.0
 40
0.1854821683
 40
0.3628612185
 40
0.5234625366
 40
0.6628215631
 40
0.7784543015
 40
0.8706240126
 40
0.9420177612
 40
1.0
 40
1.0
 40
1.0
 40
1.0
 10
12.8590630465
 20
32.14375
 30
0.0
 10
12.8590630465
 20
32.1299655732
 30
0.0
 10
12.8581028728
 20
32.1029903648
 30
0.0
 10
12.854022581
 20
32.0642685299
 30
0.0
 10
12.8474771776
 20
32.0293585166
 30
0.0
 10
12.8389850302
 20
31.9996076828
 30
0.0
 10
12.8289426242
 20
31.975747755
 30
0.0
 10
12.8177194006
 20
31.9581415472
 30
0.0
 10
12.8054178229
 20
31.9467521355
 30
0.0
 10
12.7957647277
 20
31.94375
 30
0.0
 10
12.7914556778
 20
31.94375
 30
0.0
  0
SPLINE
  5
2C8
100
AcDbEntity
  8
0
100
AcDbSpline
 62
7
  6
BYLAYER
 70
0
 71
3
 72
14
 73
10
 74
0
 42
0.0000001
 43
0.0000001
 44
0.0000000001
 40
0.0
 40
0.0
 40
0.0
 40
0.0
 40
0.0882499517
 40
0.1823899328
 40
0.286744266
 40
0.4041431632
 40
0.5360843935
 40
0.6817068606
 40
1.0
 40
1.0
 40
1.0
 40
1.0
 10
13.435928195
 20
31.94375
 30
0.0
 10
13.4284179251
 20
31.94375
 30
0.0
 10
13.4128095359
 20
31.9462257805
 30
0.0
 10
13.3905876163
 20
31.9570012832
 30
0.0
 10
13.3699577285
 20
31.9746197627
 30
0.0
 10
13.3515571236
 20
31.9986706208
 30
0.0
 10
13.3360968182
 20
32.0286914756
 30
0.0
 10
13.3198610991
 20
32.0768682556
 30
0.0
 10
13.3151276827
 20
32.1166625362
 30
0.0
 10
13.3151276827
 20
32.14375
 30
0.0
  0
SPLINE
  5
2C9
100
AcDbEntity
  8
0
100
AcDbSpline
 62
7
  6
BYLAYER
 70
0
 71
3
 72
9
 73
5
 74
0
 42
0.0000001
 43
0.0000001
 44
0.0000000001
 40
0.0
 40
0.0
 40
0.0
 40
0.0
 40
0.4960709698
 40
1.0
 40
1.0
 40
1.0
 40
1.0
 10
16.2638264915
 20
38.6792725177
 30
0.0
 10
15.8936187615
 20
38.8619929551
 30
0.0
 10
15.1544693953
 20
39.2447233148
 30
0.0
 10
14.4217607416
 20
39.6393364716
 30
0.0
 10
14.0525237127
 20
39.8382009104
 30
0.0
  0
SPLINE
  5
2CA
100
AcDbEntity
  8
0
100
AcDbSpline
 62
7
  6
BYLAYER
 70
0
 71
3
 72
15
 73
11
 74
0
 42
0.0000001
 43
0.0000001
 44
0.0000000001
 40
0.0
 40
0.0
 40
0.0
 40
0.0
 40
0.1620945315
 40
0.3188433476
 40
0.4643320895
 40
0.5961121991
 40
0.7134054559
 40
0.8176883566
 40
0.9117908865
 40
1.0
 40
1.0
 40
1.0
 40
1.0
 10
14.78991738
 20
32.14375
 30
0.0
 10
14.78991738
 20
32.1299464964
 30
0.0
 10
14.7881813456
 20
32.1027676345
 30
0.0
 10
14.7808014479
 20
32.0638118568
 30
0.0
 10
14.7689417096
 20
32.0286714163
 30
0.0
 10
14.7534854171
 20
31.9986719349
 30
0.0
 10
14.7350924222
 20
31.9746252785
 30
0.0
 10
14.7144640217
 20
31.9570066498
 30
0.0
 10
14.692239832
 20
31.9462295497
 30
0.0
 10
14.6766285081
 20
31.94375
 30
0.0
 10
14.669116874
 20
31.94375
 30
0.0
  0
SPLINE
  5
2CB
100
AcDbEntity
  8
0
100
AcDbSpline
 62
7
  6
BYLAYER
 70
0
 71
3
 72
15
 73
11
 74
0
 42
0.0000001
 43
0.0000001
 44
0.0000000001
 40
0.0
 40
0.0
 40
0.0
 40
0.0
 40
0.0579694844
 40
0.1293428191
 40
0.2215126673
 40
0.3371714318
 40
0.4766172881
 40
0.6372623142
 40
0.8145563609
 40
1.0
 40
1.0
 40
1.0
 40
1.0
 10
15.3135893885
 20
31.94375
 30
0.0
 10
15.3092812655
 20
31.94375
 30
0.0
 10
15.2996297738
 20
31.9467480158
 30
0.0
 10
15.2873293992
 20
31.9581361852
 30
0.0
 10
15.2761052516
 20
31.9757419843
 30
0.0
 10
15.2660574263
 20
31.99960921
 30
0.0
 10
15.2575674537
 20
32.0293730241
 30
0.0
 10
15.2510203482
 20
32.0642860652
 30
0.0
 10
15.2469376788
 20
32.1030020569
 30
0.0
 10
15.2459820162
 20
32.1299683696
 30
0.0
 10
15.2459820162
 20
32.14375
 30
0.0
  0
SPLINE
  5
2CC
100
AcDbEntity
  8
0
100
AcDbSpline
 62
7
  6
BYLAYER
 70
0
 71
3
 72
26
 73
22
 74
0
 42
0.0000001
 43
0.0000001
 44
0.0000000001
 40
0.0
 40
0.0
 40
0.0
 40
0.0
 40
0.0003472013
 40
0.0013805157
 40
0.0030947068
 40
0.0054845386
 40
0.0122701804
 40
0.0216955552
 40
0.0337183766
 40
0.0482742603
 40
0.0652657153
 40
0.0845925468
 40
0.1298511629
 40
0.1832219903
 40
0.2438378251
 40
0.3108531504
 40
0.3835145754
 40
0.4611020656
 40
0.6286659615
 40
0.809373115
 40
1.0
 40
1.0
 40
1.0
 40
1.0
 10
22.0525179549
 20
34.1937522135
 30
0.0
 10
22.0520421695
 20
34.1942299934
 30
0.0
 10
22.0500220545
 20
34.1959963051
 30
0.0
 10
22.0456466579
 20
34.2001148851
 30
0.0
 10
22.0382786417
 20
34.2068430298
 30
0.0
 10
22.0227276666
 20
34.2211742643
 30
0.0
 10
21.9961155876
 20
34.2456021285
 30
0.0
 10
21.955725276
 20
34.2826834403
 30
0.0
 10
21.9041856517
 20
34.3299338788
 30
0.0
 10
21.841780706
 20
34.3870759173
 30
0.0
 10
21.7688484638
 20
34.4537252038
 30
0.0
 10
21.6517796646
 20
34.5604641949
 30
0.0
 10
21.4821980843
 20
34.7144680783
 30
0.0
 10
21.2525907157
 20
34.9216435399
 30
0.0
 10
20.9906338725
 20
35.1560345302
 30
0.0
 10
20.6994817509
 20
35.4139728288
 30
0.0
 10
20.3819087219
 20
35.6917821035
 30
0.0
 10
19.9143779752
 20
36.094715187
 30
0.0
 10
19.2803333351
 20
36.6258422466
 30
0.0
 10
18.46001889
 20
37.2759484981
 30
0.0
 10
17.8761800037
 20
37.7000183262
 30
0.0
 10
17.5694020876
 20
37.9072309793
 30
0.0
  0
SPLINE
  5
2CD
100
AcDbEntity
  8
0
100
AcDbSpline
 62
7
  6
BYLAYER
 70
0
 71
3
 72
9
 73
5
 74
0
 42
0.0000001
 43
0.0000001
 44
0.0000000001
 40
0.0
 40
0.0
 40
0.0
 40
0.0
 40
0.246219879
 40
1.0
 40
1.0
 40
1.0
 40
1.0
 10
17.5694020876
 20
37.9072309793
 30
0.0
 10
17.4662045678
 20
37.976935579
 30
0.0
 10
17.0440367131
 20
38.2553440173
 30
0.0
 10
16.605757717
 20
38.5106532893
 30
0.0
 10
16.2638360697
 20
38.679290473
 30
0.0
  0
SPLINE
  5
2CE
100
AcDbEntity
  8
0
100
AcDbSpline
 62
7
  6
BYLAYER
 70
0
 71
3
 72
11
 73
7
 74
0
 42
0.0000001
 43
0.0000001
 44
0.0000000001
 40
0.0
 40
0.0
 40
0.0
 40
0.0
 40
0.2860590739
 40
0.5490699567
 40
0.7835896374
 40
1.0
 40
1.0
 40
1.0
 40
1.0
 10
16.6705194732
 20
32.14375
 30
0.0
 10
16.6705194732
 20
32.1164647286
 30
0.0
 10
16.6616231979
 20
32.0636094853
 30
0.0
 10
16.6239005044
 20
31.997193935
 30
0.0
 10
16.5689299002
 20
31.9538723347
 30
0.0
 10
16.5254001291
 20
31.94375
 30
0.0
 10
16.5047581848
 20
31.94375
 30
0.0
  0
SPLINE
  5
2CF
100
AcDbEntity
  8
0
100
AcDbSpline
 62
7
  6
BYLAYER
 70
0
 71
3
 72
18
 73
14
 74
0
 42
0.0000001
 43
0.0000001
 44
0.0000000001
 40
0.0
 40
0.0
 40
0.0
 40
0.0
 40
0.0062013266
 40
0.0197398436
 40
0.041479725
 40
0.0715844376
 40
0.1101005922
 40
0.1569340599
 40
0.2748149251
 40
0.423454003
 40
0.5986412267
 40
0.7943027287
 40
1.0
 40
1.0
 40
1.0
 40
1.0
 10
17.1053109596
 20
31.94375
 30
0.0
 10
17.1048957294
 20
31.94375
 30
0.0
 10
17.1040292299
 20
31.9451455196
 30
0.0
 10
17.1033586201
 20
31.9476202793
 30
0.0
 10
17.1024505826
 20
31.9520227608
 30
0.0
 10
17.1016405321
 20
31.9579717635
 30
0.0
 10
17.1008031378
 20
31.9656760605
 30
0.0
 10
17.0996542143
 20
31.9792276916
 30
0.0
 10
17.0983898504
 20
32.0001792194
 30
0.0
 10
17.0971731285
 20
32.0297287361
 30
0.0
 10
17.0962308029
 20
32.0645018398
 30
0.0
 10
17.0956419338
 20
32.1031023156
 30
0.0
 10
17.0955040581
 20
32.1299768638
 30
0.0
 10
17.0955040581
 20
32.14375
 30
0.0
  0
SPLINE
  5
2D0
100
AcDbEntity
  8
0
100
AcDbSpline
 62
7
  6
BYLAYER
 70
0
 71
3
 72
11
 73
7
 74
0
 42
0.0000001
 43
0.0000001
 44
0.0000000001
 40
0.0
 40
0.0
 40
0.0
 40
0.0
 40
0.2497965598
 40
0.499686242
 40
0.749841835
 40
1.0
 40
1.0
 40
1.0
 40
1.0
 10
20.7979108395
 20
32.14375
 30
0.0
 10
20.7979108395
 20
32.1161318502
 30
0.0
 10
20.7844743265
 20
32.0601287579
 30
0.0
 10
20.7308270244
 20
31.9939034754
 30
0.0
 10
20.6567185575
 20
31.9528785662
 30
0.0
 10
20.6009537291
 20
31.94375
 30
0.0
 10
20.5732955993
 20
31.94375
 30
0.0
  0
SPLINE
  5
2D1
100
AcDbEntity
  8
0
100
AcDbSpline
 62
7
  6
BYLAYER
 70
0
 71
3
 72
12
 73
8
 74
0
 42
0.0000001
 43
0.0000001
 44
0.0000000001
 40
0.0
 40
0.0
 40
0.0
 40
0.0
 40
0.2551353416
 40
0.3821255103
 40
0.507869096
 40
0.755193833
 40
1.0
 40
1.0
 40
1.0
 40
1.0
 10
21.3556488796
 20
32.14375
 30
0.0
 10
21.3556488796
 20
32.1161963997
 30
0.0
 10
21.346093201
 20
32.0742463162
 30
0.0
 10
21.3173307876
 20
32.0272199354
 30
0.0
 10
21.2802806877
 20
31.9874537866
 30
0.0
 10
21.2212494011
 20
31.9529676275
 30
0.0
 10
21.1676635245
 20
31.94375
 30
0.0
 10
21.141225434
 20
31.94375
 30
0.0
  0
SPLINE
  5
2D2
100
AcDbEntity
  8
0
100
AcDbSpline
 62
7
  6
BYLAYER
 70
0
 71
3
 72
9
 73
5
 74
0
 42
0.0000001
 43
0.0000001
 44
0.0000000001
 40
0.0
 40
0.0
 40
0.0
 40
0.0
 40
0.5127360268
 40
1.0
 40
1.0
 40
1.0
 40
1.0
 10
16.2638264227
 20
38.6792725516
 30
0.0
 10
16.2739324779
 20
38.7021337325
 30
0.0
 10
16.2954458899
 20
38.7459292057
 30
0.0
 10
16.3199634286
 20
38.7881382043
 30
0.0
 10
16.332929374
 20
38.8080408925
 30
0.0
  0
SPLINE
  5
2D3
100
AcDbEntity
  8
0
100
AcDbSpline
 62
7
  6
BYLAYER
 70
0
 71
3
 72
10
 73
6
 74
0
 42
0.0000001
 43
0.0000001
 44
0.0000000001
 40
0.0
 40
0.0
 40
0.0
 40
0.0
 40
0.5032984067
 40
0.7529252962
 40
1.0
 40
1.0
 40
1.0
 40
1.0
 10
14.0525225313
 20
39.8381987245
 30
0.0
 10
14.433309062
 20
39.6614271218
 30
0.0
 10
15.0029492201
 20
39.3969315158
 30
0.0
 10
15.7634789857
 20
39.0543104633
 30
0.0
 10
16.1432851814
 20
38.8887220417
 30
0.0
 10
16.3329293152
 20
38.8080412172
 30
0.0
  0
SPLINE
  5
2D4
100
AcDbEntity
  8
0
100
AcDbSpline
 62
7
  6
BYLAYER
 70
0
 71
3
 72
12
 73
8
 74
0
 42
0.0000001
 43
0.0000001
 44
0.0000000001
 40
0.0
 40
0.0
 40
0.0
 40
0.0
 40
0.2447561106
 40
0.4921258461
 40
0.6179291167
 40
0.7449525754
 40
1.0
 40
1.0
 40
1.0
 40
1.0
 10
6.9638193737
 20
31.94375
 30
0.0
 10
6.9373866921
 20
31.94375
 30
0.0
 10
6.8838029072
 20
31.9529654153
 30
0.0
 10
6.8247587704
 20
31.9874475883
 30
0.0
 10
6.78771042
 20
32.0272357959
 30
0.0
 10
6.7589444514
 20
32.0742602049
 30
0.0
 10
6.7493961831
 20
32.1162058976
 30
0.0
 10
6.7493961831
 20
32.14375
 30
0.0
  0
ELLIPSE
  5
2D5
100
AcDbEntity
  8
0
100
AcDbEllipse
 62
7
  6
BYLAYER
 10
37.4025225313
 20
43.44375
 30
0.0
 11
20.4047686873
 21
-4.0147354537
 31
0.0
 40
0.2987966333
 41
4.8043933932
 42
4.8053643247
  0
ELLIPSE
  5
2D6
100
AcDbEntity
  8
0
100
AcDbEllipse
 62
7
  6
BYLAYER
 10
37.4025225313
 20
43.44375
 30
0.0
 11
20.4047686873
 21
4.0147354537
 31
0.0
 40
0.2987966333
 41
7.7610062897
 42
7.7619776672
  0
ENDSEC
  0
SECTION
  2
OBJECTS
  0
DICTIONARY
  5
C
100
AcDbDictionary
280
0
281
1
  3
ACAD_GROUP
350
D
  3
ACAD_MLINESTYLE
350
17
  3
ACAD_LAYOUT
350
1A
  3
ACAD_PLOTSETTINGS
350
19
  3
ACAD_PLOTSTYLENAME
350
E
  0
DICTIONARY
  5
D
102
{ACAD_REACTORS
330
C
102
}
100
AcDbDictionary
280
0
281
1
  0
ACDBDICTIONARYWDFLT
  5
E
102
{ACAD_REACTORS
330
C
102
}
100
AcDbDictionary
281
1
  3
Normal
350
F
100
AcDbDictionaryWithDefault
340
F
  0
DICTIONARY
  5
17
102
{ACAD_REACTORS
330
C
102
}
100
AcDbDictionary
280
0
281
1
  3
Standard
350
18
  0
DICTIONARY
  5
19
102
{ACAD_REACTORS
330
C
102
}
100
AcDbDictionary
281
1
  0
DICTIONARY
  5
1A
102
{ACAD_REACTORS
330
C
102
}
100
AcDbDictionary
281
1
  3
Model
350
2D7
  3
Layout1
350
2D8
  0
ACDBPLACEHOLDER
  5
F
102
{ACAD_REACTORS
330
E
102
}
  0
MLINESTYLE
  5
18
102
{ACAD_REACTORS
330
17
102
}
100
AcDbMlineStyle
  2
STANDARD
 70
0
  3

 62
256
 51
90.0
 52
90.0
 71
2
 49
0.5
 62
256
  6
BYLAYER
 49
-0.5
 62
256
  6
BYLAYER
  0
LAYOUT
  5
2D7
102
{ACAD_REACTORS
330
1A
102
}
100
AcDbPlotSettings
  1

  2
none_device
  4

  6

 40
0.0
 41
0.0
 42
0.0
 43
0.0
 44
210.0
 45
297.0
 46
0.0
 47
0.0
 48
0.0
 49
0.0
140
0.0
141
0.0
142
1.0
143
1.0
 70
1024
 72
1
 73
0
 74
0
  7

 75
0
147
1.0
148
0.0
149
0.0
100
AcDbLayout
  1
Model
 70
0
 71
0
 10
0.0
 20
0.0
 11
210.0
 21
297.0
 12
0.0
 22
0.0
 32
0.0
 14
0.0
 24
0.0
 34
0.0
 15
0.0
 25
0.0
 35
0.0
146
0.0
 13
0.0
 23
0.0
 33
0.0
 16
1.0
 26
0.0
 36
0.0
 17
0.0
 27
1.0
 37
0.0
 76
0
330
210
345
0
346
0
  0
LAYOUT
  5
2D8
102
{ACAD_REACTORS
330
1A
102
}
100
AcDbPlotSettings
  1

  2
none_device
  4

  6

 40
0.0
 41
0.0
 42
0.0
 43
0.0
 44
210.0
 45
297.0
 46
0.0
 47
0.0
 48
0.0
 49
0.0
140
0.0
141
0.0
142
1.0
143
1.0
 70
0
 72
1
 73
0
 74
0
  7

 75
0
147
1.0
148
0.0
149
0.0
100
AcDbLayout
  1
Layout1
 70
0
 71
1
 10
0.0
 20
0.0
 11
210.0
 21
297.0
 12
0.0
 22
0.0
 32
0.0
 14
0.0
 24
0.0
 34
0.0
 15
0.0
 25
0.0
 35
0.0
146
0.0
 13
0.0
 23
0.0
 33
0.0
 16
1.0
 26
0.0
 36
0.0
 17
0.0
 27
1.0
 37
0.0
 76
0
330
211
345
0
346
0
  0
ENDSEC
  0
EOF
