999
DXF file: C:\Users\sesa63760\Dev\_Creo\CAD\MCADID0003635_3D-CAD\drw0001_6.dxf
999
Pro/ENGINEER 2019471 by Parametric Technology Corporation
  0
SECTION
  2
HEADER
  9
$ACADVER
  1
AC1024
  9
$DWGCODEPAGE
  3
ANSI_1252
  9
$EXTMAX
 10
79.8328964128
 20
112.9065249267
 30
0.0
  9
$EXTMIN
 10
0.0
 20
0.0
 30
0.0
  9
$LIMMIN
 10
0.0
 20
0.0
  9
$LIMMAX
 10
79.8328964128
 20
112.9065249267
  9
$VIEWCTR
 10
39.9164482064
 20
56.4532624633
  9
$VIEWSIZE
 40
112.9065249267
  9
$CLAYER
  8
0
  9
$LTSCALE
 40
7.359832736
  9
$CELTYPE
  6
BYLAYER
  9
$DIMSCALE
 40
1.0
  9
$DIMASZ
 40
0.950391624
  9
$DIMEXO
 40
1.0
  9
$DIMDLI
 40
5.0849753448
  9
$DIMEXE
 40
1.0
  9
$DIMCEN
 40
1.2043362659
  9
$DIMLFAC
 40
1.0
  9
$DIMBLK
  1
_FILLED
  9
$DIMALT
 70
0
  9
$DIMALTF
 40
0.0393700787
  9
$DIMTXT
 40
1.3305482735
  9
$DIMTOL
 70
1
  9
$DIMLIM
 70
0
  9
$DIMTFAC
 40
1.0
  9
$DIMTP
 40
0.01
  9
$DIMTM
 40
0.01
  9
$DIMGAP
 40
0.625
  9
$DIMDSEP
 70
46
  9
$AUNITS
 70
0
  9
$PDMODE
 70
3
  9
$PDSIZE
 40
0.3125
  9
$HANDSEED
  5
300
  9
$TILEMODE
 70
1
  9
$MEASUREMENT
 70
1
  9
$INSUNITS
 70
4
  0
ENDSEC
  0
SECTION
  2
CLASSES
  0
CLASS
  1
ACDBDICTIONARYWDFLT
  2
AcDbDictionaryWithDefault
  3
AutoCAD 2000
 90
0
 91
1
280
0
281
0
  0
CLASS
  1
ACDBPLACEHOLDER
  2
AcDbPlaceHolder
  3
AutoCAD 2000
 90
0
 91
1
280
0
281
0
  0
CLASS
  1
LAYOUT
  2
AcDbLayout
  3
AutoCAD 2000
 90
0
 91
0
280
0
281
0
  0
ENDSEC
  0
SECTION
  2
TABLES
  0
TABLE
  2
VPORT
  5
8
100
AcDbSymbolTable
 70
2
  0
VPORT
  5
1F4
100
AcDbSymbolTableRecord
100
AcDbViewportTableRecord
  2
*ACTIVE
 70
0
 10
0.0
 20
0.0
 11
1.0
 21
1.0
 12
39.9164482064
 22
56.4532624633
 13
0.0
 23
0.0
 14
1.0
 24
1.0
 15
0.0
 25
0.0
 16
0.0
 26
0.0
 36
1.0
 17
0.0
 27
0.0
 37
0.0
 40
112.9065249267
 41
0.7070707071
 42
50.0
 43
0.0
 44
0.0
 50
0.0
 51
0.0
 71
0
 72
100
 73
1
 74
1
 75
0
 76
0
 77
0
 78
0
  0
ENDTAB
  0
TABLE
  2
LTYPE
  5
5
100
AcDbSymbolTable
 70
6
  0
LTYPE
  5
14
100
AcDbSymbolTableRecord
100
AcDbLinetypeTableRecord
  2
BYBLOCK
 70
0
  3

 72
65
 73
0
 40
0.0
  0
LTYPE
  5
15
100
AcDbSymbolTableRecord
100
AcDbLinetypeTableRecord
  2
BYLAYER
 70
0
  3

 72
65
 73
0
 40
0.0
  0
LTYPE
  5
16
100
AcDbSymbolTableRecord
100
AcDbLinetypeTableRecord
  2
CONTINUOUS
 70
64
  3
Solid line
 72
65
 73
0
 40
0.0
  0
LTYPE
  5
1F5
100
AcDbSymbolTableRecord
100
AcDbLinetypeTableRecord
  2
CENTER
 70
64
  3
____ _ ____ _ ____ _ ____ _ ____ _ ____ _ ____
 72
65
 73
4
 40
0.6
 49
0.375
 74
0
 49
-0.075
 74
0
 49
0.075
 74
0
 49
-0.075
 74
0
  0
LTYPE
  5
1F6
100
AcDbSymbolTableRecord
100
AcDbLinetypeTableRecord
  2
HIDDEN
 70
64
  3
- - - - - - - - - - - - - - - - - - - -
 72
65
 73
2
 40
0.2
 49
0.1
 74
0
 49
-0.1
 74
0
  0
LTYPE
  5
1F7
100
AcDbSymbolTableRecord
100
AcDbLinetypeTableRecord
  2
PHANTOM
 70
64
  3
_____ _ _ _____ _ _ _____ _ _ _____
 72
65
 73
6
 40
0.8
 49
0.45
 74
0
 49
-0.05
 74
0
 49
0.1
 74
0
 49
-0.05
 74
0
 49
0.1
 74
0
 49
-0.05
 74
0
  0
LTYPE
  5
1F8
100
AcDbSymbolTableRecord
100
AcDbLinetypeTableRecord
  2
DOT
 70
64
  3
. . . . . . . . . . . . . . . . . . . .
 72
65
 73
2
 40
0.2
 49
0.1
 74
0
 49
-0.1
 74
0
  0
LTYPE
  5
1F9
100
AcDbSymbolTableRecord
100
AcDbLinetypeTableRecord
  2
DASHED
 70
64
  3
- - - - - - - - - - - - - - - - - - - -
 72
65
 73
2
 40
0.2
 49
0.1
 74
0
 49
-0.1
 74
0
  0
ENDTAB
  0
TABLE
  2
LAYER
  5
2
100
AcDbSymbolTable
 70
36
  0
LAYER
  5
10
100
AcDbSymbolTableRecord
100
AcDbLayerTableRecord
  2
0
 70
0
 62
7
  6
CONTINUOUS
370
-3
390
F
  0
LAYER
  5
1FA
100
AcDbSymbolTableRecord
100
AcDbLayerTableRecord
  2
DEFAULT_1
 70
0
 62
7
  6
CENTER
370
-3
390
F
  0
LAYER
  5
1FB
100
AcDbSymbolTableRecord
100
AcDbLayerTableRecord
  2
DEFAULT_2
 70
0
 62
7
  6
HIDDEN
370
-3
390
F
  0
LAYER
  5
1FC
100
AcDbSymbolTableRecord
100
AcDbLayerTableRecord
  2
DEFAULT_3
 70
0
 62
7
  6
PHANTOM
370
-3
390
F
  0
LAYER
  5
1FD
100
AcDbSymbolTableRecord
100
AcDbLayerTableRecord
  2
00_COMPONENTS
 70
0
 62
7
  6
CONTINUOUS
370
-3
390
F
  0
LAYER
  5
1FE
100
AcDbSymbolTableRecord
100
AcDbLayerTableRecord
  2
01_1_DEFAULT_DATUMS
 70
0
 62
7
  6
CONTINUOUS
370
-3
390
F
  0
LAYER
  5
1FF
100
AcDbSymbolTableRecord
100
AcDbLayerTableRecord
  2
01_PLANES
 70
0
 62
7
  6
CONTINUOUS
370
-3
390
F
  0
LAYER
  5
200
100
AcDbSymbolTableRecord
100
AcDbLayerTableRecord
  2
02_COORD_SYS
 70
0
 62
7
  6
CONTINUOUS
370
-3
390
F
  0
LAYER
  5
201
100
AcDbSymbolTableRecord
100
AcDbLayerTableRecord
  2
03_AXES
 70
0
 62
7
  6
CONTINUOUS
370
-3
390
F
  0
LAYER
  5
202
100
AcDbSymbolTableRecord
100
AcDbLayerTableRecord
  2
04_POINTS
 70
0
 62
7
  6
CONTINUOUS
370
-3
390
F
  0
LAYER
  5
203
100
AcDbSymbolTableRecord
100
AcDbLayerTableRecord
  2
05_CURVES
 70
0
 62
7
  6
CONTINUOUS
370
-3
390
F
  0
LAYER
  5
204
100
AcDbSymbolTableRecord
100
AcDbLayerTableRecord
  2
06_SURFS
 70
0
 62
7
  6
CONTINUOUS
370
-3
390
F
  0
LAYER
  5
205
100
AcDbSymbolTableRecord
100
AcDbLayerTableRecord
  2
07_COSMETICS
 70
0
 62
7
  6
CONTINUOUS
370
-3
390
F
  0
LAYER
  5
206
100
AcDbSymbolTableRecord
100
AcDbLayerTableRecord
  2
10_NOTES
 70
0
 62
7
  6
CONTINUOUS
370
-3
390
F
  0
LAYER
  5
207
100
AcDbSymbolTableRecord
100
AcDbLayerTableRecord
  2
11_NOTES_PUB
 70
0
 62
7
  6
CONTINUOUS
370
-3
390
F
  0
LAYER
  5
208
100
AcDbSymbolTableRecord
100
AcDbLayerTableRecord
  2
13_REF_GTOL
 70
0
 62
7
  6
CONTINUOUS
370
-3
390
F
  0
LAYER
  5
209
100
AcDbSymbolTableRecord
100
AcDbLayerTableRecord
  2
16_MISC
 70
0
 62
7
  6
CONTINUOUS
370
-3
390
F
  0
LAYER
  5
20A
100
AcDbSymbolTableRecord
100
AcDbLayerTableRecord
  2
17_NO_PRINT
 70
0
 62
7
  6
CONTINUOUS
370
-3
390
F
  0
LAYER
  5
20B
100
AcDbSymbolTableRecord
100
AcDbLayerTableRecord
  2
18_DATUM_CAMS_JOINTS
 70
0
 62
7
  6
CONTINUOUS
370
-3
390
F
  0
LAYER
  5
20C
100
AcDbSymbolTableRecord
100
AcDbLayerTableRecord
  2
19_DATUM_FUNCTIONAL
 70
0
 62
7
  6
CONTINUOUS
370
-3
390
F
  0
LAYER
  5
20D
100
AcDbSymbolTableRecord
100
AcDbLayerTableRecord
  2
20_DATUM_KINEMATIC_SCHEME
 70
0
 62
7
  6
CONTINUOUS
370
-3
390
F
  0
ENDTAB
  0
TABLE
  2
STYLE
  5
3
100
AcDbSymbolTable
 70
1
  0
STYLE
  5
11
100
AcDbSymbolTableRecord
100
AcDbTextStyleTableRecord
  2
STANDARD
 70
0
 40
0.0
 41
1.0
 50
0.0
 71
0
 42
0.2
  3
ARIAL.TTF
  4

  0
STYLE
  5
20E
100
AcDbSymbolTableRecord
100
AcDbTextStyleTableRecord
  2
TEXTSTYLE_1
 70
0
 40
0.0
 41
0.8
 50
0.0
 71
0
 42
0.2
  3
gdt
  4

  0
ENDTAB
  0
TABLE
  2
VIEW
  5
6
100
AcDbSymbolTable
 70
0
  0
ENDTAB
  0
TABLE
  2
UCS
  5
7
100
AcDbSymbolTable
 70
0
  0
ENDTAB
  0
TABLE
  2
APPID
  5
9
100
AcDbSymbolTable
 70
1
  0
APPID
  5
20F
100
AcDbSymbolTableRecord
100
AcDbRegAppTableRecord
  2
ACAD
 70
0
  0
ENDTAB
  0
TABLE
  2
BLOCK_RECORD
  5
1
100
AcDbSymbolTable
 70
0
  0
BLOCK_RECORD
  5
210
100
AcDbSymbolTableRecord
100
AcDbBlockTableRecord
  2
*Model_Space
  0
BLOCK_RECORD
  5
211
100
AcDbSymbolTableRecord
100
AcDbBlockTableRecord
  2
*Paper_Space
  0
BLOCK_RECORD
  5
212
100
AcDbSymbolTableRecord
100
AcDbBlockTableRecord
  2
_FILLED
  0
ENDTAB
  0
TABLE
  2
DIMSTYLE
  5
A
100
AcDbSymbolTable
 70
1
100
AcDbDimStyleTable
 71
0
  0
DIMSTYLE
105
213
100
AcDbSymbolTableRecord
100
AcDbDimStyleTableRecord
  2
STANDARD
 70
0
  3

  4

 40
1.0
 41
0.950391624
 42
1.0
 43
0.38
 44
1.0
 45
0.0
 46
0.0
 47
0.01
 48
0.01
140
1.3305482735
141
0.09
142
0.0
143
25.4
144
1.0
145
0.0
146
1.0
147
0.625
 71
1
 72
0
 73
0
 74
0
 75
0
 76
0
 77
1
 78
8
 79
2
170
0
171
1
172
0
173
0
174
0
175
0
176
0
177
0
178
0
270
2
179
2
271
2
272
2
273
2
274
2
275
0
280
0
281
0
282
0
283
1
284
8
285
0
286
0
287
3
288
0
340
11
278
46
341
212
342
212
343
212
344
212
  0
ENDTAB
  0
ENDSEC
  0
SECTION
  2
BLOCKS
  0
BLOCK
  5
20
100
AcDbEntity
  8
0
100
AcDbBlockBegin
  2
*Model_Space
 70
0
 10
0.0
 20
0.0
 30
0.0
  3
*Model_Space
  1

  0
ENDBLK
  5
21
100
AcDbEntity
  8
0
100
AcDbBlockEnd
  0
BLOCK
  5
1C
100
AcDbEntity
  8
0
100
AcDbBlockBegin
  2
*Paper_Space
 70
0
 10
0.0
 20
0.0
 30
0.0
  3
*Paper_Space
  1

  0
ENDBLK
  5
1D
100
AcDbEntity
  8
0
100
AcDbBlockEnd
  0
BLOCK
  5
214
100
AcDbEntity
  8
0
100
AcDbBlockBegin
  2
_FILLED
 70
64
 10
0.0
 20
0.0
  3
_FILLED
  1

  0
SOLID
  5
215
100
AcDbEntity
  8
0
  6
BYBLOCK
 62
0
100
AcDbTrace
 10
0.0
 20
0.0
 11
-1.0
 21
0.25
 12
-1.0
 22
-0.25
 13
-1.0
 23
-0.25
  0
ENDBLK
  5
216
100
AcDbEntity
  8
0
  6
BYBLOCK
 62
0
100
AcDbBlockEnd
  0
ENDSEC
  0
SECTION
  2
ENTITIES
  0
LWPOLYLINE
  5
217
100
AcDbEntity
  8
0
100
AcDbPolyline
 62
7
  6
BYLAYER
 90
4
 70
0
 10
54.7827072278
 20
10.1374514633
 10
55.126599922
 20
10.2132729692
 10
55.4485179637
 20
10.4769816914
 10
55.5783320527
 20
10.7217019585
  0
LINE
  5
218
100
AcDbEntity
  8
0
100
AcDbLine
 62
7
  6
BYLAYER
 10
51.6074306111
 20
9.3282624633
 11
29.6074306111
 21
9.3282624633
  0
LINE
  5
219
100
AcDbEntity
  8
0
100
AcDbLine
 62
7
  6
BYLAYER
 10
25.6074306111
 20
9.9282624633
 11
55.6074306111
 21
9.9282624633
  0
LINE
  5
21A
100
AcDbEntity
  8
0
100
AcDbLine
 62
7
  6
BYLAYER
 10
54.7827223406
 20
10.1374512355
 11
51.8074306111
 21
10.1374512355
  0
LINE
  5
21B
100
AcDbEntity
  8
0
100
AcDbLine
 62
7
  6
BYLAYER
 10
29.4074306111
 20
10.1374512355
 11
26.4321388817
 21
10.1374512355
  0
LINE
  5
21C
100
AcDbEntity
  8
0
100
AcDbLine
 62
7
  6
BYLAYER
 10
29.4074306111
 20
10.1782624633
 11
51.8074306111
 21
10.1782624633
  0
LINE
  5
21D
100
AcDbEntity
  8
0
100
AcDbLine
 62
7
  6
BYLAYER
 10
54.5931688706
 20
12.6165067036
 11
51.8074306111
 21
12.6165067025
  0
LINE
  5
21E
100
AcDbEntity
  8
0
100
AcDbLine
 62
7
  6
BYLAYER
 10
29.4074306111
 20
12.6165067025
 11
26.6216923516
 21
12.616506703
  0
LINE
  5
21F
100
AcDbEntity
  8
0
100
AcDbLine
 62
7
  6
BYLAYER
 10
25.6074306111
 20
12.6782624633
 11
25.6290642913
 21
12.6782624633
  0
LINE
  5
220
100
AcDbEntity
  8
0
100
AcDbLine
 62
7
  6
BYLAYER
 10
55.5854219603
 20
12.6782624633
 11
55.6074306111
 21
12.6782624633
  0
LINE
  5
221
100
AcDbEntity
  8
0
100
AcDbLine
 62
7
  6
BYLAYER
 10
51.8074306111
 20
13.1782624633
 11
51.6074306111
 21
13.1782624633
  0
LINE
  5
222
100
AcDbEntity
  8
0
100
AcDbLine
 62
7
  6
BYLAYER
 10
29.6074306111
 20
13.1782624633
 11
29.4074306111
 21
13.1782624633
  0
LINE
  5
223
100
AcDbEntity
  8
0
100
AcDbLine
 62
7
  6
BYLAYER
 10
55.6074306111
 20
13.6782624633
 11
55.5354947753
 21
13.6782624633
  0
LINE
  5
224
100
AcDbEntity
  8
0
100
AcDbLine
 62
7
  6
BYLAYER
 10
51.8074306111
 20
13.6782624633
 11
51.6074306111
 21
13.6782624633
  0
LINE
  5
225
100
AcDbEntity
  8
0
100
AcDbLine
 62
7
  6
BYLAYER
 10
29.6074306111
 20
13.6782624633
 11
29.4074306111
 21
13.6782624633
  0
LINE
  5
226
100
AcDbEntity
  8
0
100
AcDbLine
 62
7
  6
BYLAYER
 10
25.679295879
 20
13.6782624633
 11
25.6074306111
 21
13.6782624633
  0
LINE
  5
227
100
AcDbEntity
  8
0
100
AcDbLine
 62
7
  6
BYLAYER
 10
29.6074306111
 20
14.6723973551
 11
51.6074306111
 21
14.6723973551
  0
LINE
  5
228
100
AcDbEntity
  8
0
100
AcDbLine
 62
7
  6
BYLAYER
 10
51.6074306111
 20
14.8720063479
 11
29.6074306111
 21
14.8720063479
  0
LINE
  5
229
100
AcDbEntity
  8
0
100
AcDbLine
 62
7
  6
BYLAYER
 10
51.8074306111
 20
15.2782624633
 11
29.4074306111
 21
15.2782624633
  0
LINE
  5
22A
100
AcDbEntity
  8
0
100
AcDbLine
 62
7
  6
BYLAYER
 10
29.4074306111
 20
15.5468285655
 11
51.8074306111
 21
15.5468285655
  0
LINE
  5
22B
100
AcDbEntity
  8
0
100
AcDbLine
 62
7
  6
BYLAYER
 10
26.6729524717
 20
15.9393439212
 11
29.4074306111
 21
15.9393439212
  0
LINE
  5
22C
100
AcDbEntity
  8
0
100
AcDbLine
 62
7
  6
BYLAYER
 10
51.8074306111
 20
15.9393439212
 11
54.5419087505
 21
15.9393439212
  0
LINE
  5
22D
100
AcDbEntity
  8
0
100
AcDbLine
 62
7
  6
BYLAYER
 10
55.338864509
 20
16.0782624633
 11
51.8074306111
 21
16.0782624633
  0
LINE
  5
22E
100
AcDbEntity
  8
0
100
AcDbLine
 62
7
  6
BYLAYER
 10
29.4074306111
 20
16.0782624633
 11
25.8759967132
 21
16.0782624633
  0
LINE
  5
22F
100
AcDbEntity
  8
0
100
AcDbLine
 62
7
  6
BYLAYER
 10
51.8074306111
 20
16.343784324
 11
29.4074306111
 21
16.343784324
  0
LINE
  5
230
100
AcDbEntity
  8
0
100
AcDbLine
 62
7
  6
BYLAYER
 10
33.9074306111
 20
97.3782624633
 11
31.9074306111
 21
95.3782624633
  0
LWPOLYLINE
  5
231
100
AcDbEntity
  8
0
100
AcDbPolyline
 62
7
  6
BYLAYER
 90
4
 70
0
 10
25.6365248848
 20
10.7217136332
 10
25.7644042697
 20
10.47961388
 10
26.0864681364
 20
10.2141057267
 10
26.4321542368
 20
10.1374514634
  0
LINE
  5
232
100
AcDbEntity
  8
0
100
AcDbLine
 62
7
  6
BYLAYER
 10
25.6365930636
 20
10.7215174823
 11
25.6365236176
 21
10.721706653
  0
LINE
  5
233
100
AcDbEntity
  8
0
100
AcDbLine
 62
7
  6
BYLAYER
 10
55.6034336799
 20
12.5560381122
 11
55.6036065595
 21
12.5559154825
  0
LINE
  5
234
100
AcDbEntity
  8
0
100
AcDbLine
 62
7
  6
BYLAYER
 10
47.3074306111
 20
99.7782624633
 11
49.3074306111
 21
101.7782624633
  0
LINE
  5
235
100
AcDbEntity
  8
0
100
AcDbLine
 62
7
  6
BYLAYER
 10
25.6365236176
 20
10.721706653
 11
25.590593432
 21
10.9973076532
  0
LWPOLYLINE
  5
236
100
AcDbEntity
  8
0
100
AcDbPolyline
 62
7
  6
BYLAYER
 90
4
 70
0
 10
25.6195554705
 20
15.1347527091
 10
25.6356510351
 20
15.0034363148
 10
25.6635378935
 20
14.6128023374
 10
25.6784238024
 20
14.1360461498
  0
LINE
  5
237
100
AcDbEntity
  8
0
100
AcDbLine
 62
7
  6
BYLAYER
 10
25.6074393986
 20
15.2927920702
 11
25.6195785143
 21
15.1347562304
  0
LINE
  5
238
100
AcDbEntity
  8
0
100
AcDbLine
 62
7
  6
BYLAYER
 10
25.6784238024
 20
14.1360461498
 11
25.6793154076
 21
13.6680111996
  0
LINE
  5
239
100
AcDbEntity
  8
0
100
AcDbLine
 62
7
  6
BYLAYER
 10
25.6074306111
 20
10.8244770312
 11
25.6074306111
 21
9.9282624633
  0
LINE
  5
23A
100
AcDbEntity
  8
0
100
AcDbLine
 62
7
  6
BYLAYER
 10
25.6074306111
 20
12.5361019253
 11
25.6074306111
 21
103.0782624633
  0
LINE
  5
23B
100
AcDbEntity
  8
0
100
AcDbLine
 62
7
  6
BYLAYER
 10
25.8759967132
 20
57.262740602
 11
25.8759967132
 21
16.0782624633
  0
LINE
  5
23C
100
AcDbEntity
  8
0
100
AcDbLine
 62
7
  6
BYLAYER
 10
25.9574306111
 20
102.2782624633
 11
25.9574306111
 21
101.0782624633
  0
LINE
  5
23D
100
AcDbEntity
  8
0
100
AcDbLine
 62
7
  6
BYLAYER
 10
26.1074306111
 20
70.5282624633
 11
26.1074306111
 21
101.0782624633
  0
LINE
  5
23E
100
AcDbEntity
  8
0
100
AcDbLine
 62
7
  6
BYLAYER
 10
26.5167865821
 20
102.6728187501
 11
26.5167865821
 21
103.0782624633
  0
LINE
  5
23F
100
AcDbEntity
  8
0
100
AcDbLine
 62
7
  6
BYLAYER
 10
26.6729526205
 20
15.9393439212
 11
26.6729524717
 21
58.0596963612
  0
LINE
  5
240
100
AcDbEntity
  8
0
100
AcDbLine
 62
7
  6
BYLAYER
 10
27.5074306111
 20
66.4282624633
 11
27.5074306111
 21
62.4282624633
  0
LINE
  5
241
100
AcDbEntity
  8
0
100
AcDbLine
 62
7
  6
BYLAYER
 10
25.8247365931
 20
12.7554252446
 11
25.8759967132
 21
16.0782624633
  0
LINE
  5
242
100
AcDbEntity
  8
0
100
AcDbLine
 62
7
  6
BYLAYER
 10
26.6729524717
 20
15.9393439212
 11
26.6216923516
 21
12.616506703
  0
LWPOLYLINE
  5
243
100
AcDbEntity
  8
0
100
AcDbPolyline
 62
7
  6
BYLAYER
 90
5
 70
0
 10
25.6793154076
 20
13.6680111996
 10
25.6689757879
 20
13.2493674073
 10
25.6502460628
 20
12.9043426919
 10
25.6276952181
 20
12.6636498811
 10
25.6163233405
 20
12.5833375179
  0
LINE
  5
244
100
AcDbEntity
  8
0
100
AcDbLine
 62
7
  6
BYLAYER
 10
28.3074306111
 20
103.208697552
 11
28.3074306111
 21
102.9382153893
  0
LINE
  5
245
100
AcDbEntity
  8
0
100
AcDbLine
 62
7
  6
BYLAYER
 10
28.9074306111
 20
103.208697552
 11
28.9074306111
 21
102.9382153893
  0
LINE
  5
246
100
AcDbEntity
  8
0
100
AcDbLine
 62
7
  6
BYLAYER
 10
29.4074306111
 20
16.343784324
 11
29.4074306111
 21
10.1374717197
  0
LINE
  5
247
100
AcDbEntity
  8
0
100
AcDbLine
 62
7
  6
BYLAYER
 10
29.6074306111
 20
9.3282624633
 11
29.6074306111
 21
14.8720063479
  0
LINE
  5
248
100
AcDbEntity
  8
0
100
AcDbLine
 62
7
  6
BYLAYER
 10
30.6074306111
 20
58.3282624633
 11
30.6074306111
 21
57.2627406027
  0
LINE
  5
249
100
AcDbEntity
  8
0
100
AcDbLine
 62
7
  6
BYLAYER
 10
30.6074306111
 20
101.0782624633
 11
30.6074306111
 21
103.0782624633
  0
LINE
  5
24A
100
AcDbEntity
  8
0
100
AcDbLine
 62
7
  6
BYLAYER
 10
31.143328996
 20
100.5782624633
 11
31.143328996
 21
103.5782624633
  0
LINE
  5
24B
100
AcDbEntity
  8
0
100
AcDbLine
 62
7
  6
BYLAYER
 10
25.5861600183
 20
12.3451002563
 11
25.6114301049
 21
12.5560653733
  0
LINE
  5
24C
100
AcDbEntity
  8
0
100
AcDbLine
 62
7
  6
BYLAYER
 10
25.8759967132
 20
57.262740602
 11
25.6074306111
 21
57.5313067049
  0
LINE
  5
24D
100
AcDbEntity
  8
0
100
AcDbLine
 62
7
  6
BYLAYER
 10
31.7074306111
 20
62.4282624633
 11
31.7074306111
 21
62.6394080813
  0
LINE
  5
24E
100
AcDbEntity
  8
0
100
AcDbLine
 62
7
  6
BYLAYER
 10
31.7074306111
 20
66.2171168453
 11
31.7074306111
 21
66.4282624633
  0
LINE
  5
24F
100
AcDbEntity
  8
0
100
AcDbLine
 62
7
  6
BYLAYER
 10
31.9074306111
 20
101.7782624633
 11
31.9074306111
 21
95.3782624633
  0
LINE
  5
250
100
AcDbEntity
  8
0
100
AcDbLine
 62
7
  6
BYLAYER
 10
33.9074306111
 20
99.7782624633
 11
33.9074306111
 21
97.3782624633
  0
LWPOLYLINE
  5
251
100
AcDbEntity
  8
0
100
AcDbPolyline
 62
7
  6
BYLAYER
 90
3
 70
0
 10
25.6163233405
 20
12.5833375179
 10
25.6111395435
 20
12.5553749043
 10
25.6114379798
 20
12.5560762929
  0
LINE
  5
252
100
AcDbEntity
  8
0
100
AcDbLine
 62
7
  6
BYLAYER
 10
45.4419087498
 20
70.1596963612
 11
45.7104748526
 21
70.4282624633
  0
LINE
  5
253
100
AcDbEntity
  8
0
100
AcDbLine
 62
7
  6
BYLAYER
 10
26.4043863696
 20
58.3282624633
 11
26.672952473
 21
58.0596963612
  0
LINE
  5
254
100
AcDbEntity
  8
0
100
AcDbLine
 62
7
  6
BYLAYER
 10
34.7074306111
 20
62.4282624633
 11
34.7074306111
 21
69.6313067049
  0
LINE
  5
255
100
AcDbEntity
  8
0
100
AcDbLine
 62
7
  6
BYLAYER
 10
34.9759967132
 20
69.362740602
 11
34.9759967132
 21
62.4282624635
  0
LINE
  5
256
100
AcDbEntity
  8
0
100
AcDbLine
 62
7
  6
BYLAYER
 10
35.7729524717
 20
62.4282654066
 11
35.7729524717
 21
70.1596963612
  0
LWPOLYLINE
  5
257
100
AcDbEntity
  8
0
100
AcDbPolyline
 62
7
  6
BYLAYER
 90
8
 70
0
 10
25.6117207389
 20
12.5571255996
 10
25.5790598171
 20
12.3970714896
 10
25.5522957762
 20
12.1158024863
 10
25.5407384598
 20
11.7434607488
 10
25.5417469331
 20
11.5305355903
 10
25.5593399042
 20
11.1389984811
 10
25.5954658319
 20
10.8667193039
 10
25.6365930636
 20
10.7215174823
  0
LINE
  5
258
100
AcDbEntity
  8
0
100
AcDbLine
 62
7
  6
BYLAYER
 10
25.6114301049
 20
12.5560653733
 11
25.6117207389
 21
12.5571255996
  0
LINE
  5
259
100
AcDbEntity
  8
0
100
AcDbLine
 62
7
  6
BYLAYER
 10
46.5074306111
 20
69.6313067049
 11
46.238864509
 21
69.3627406014
  0
LINE
  5
25A
100
AcDbEntity
  8
0
100
AcDbLine
 62
7
  6
BYLAYER
 10
39.9074306111
 20
63.8782624633
 11
39.9074306111
 21
64.9782624633
  0
LINE
  5
25B
100
AcDbEntity
  8
0
100
AcDbLine
 62
7
  6
BYLAYER
 10
40.0574306111
 20
61.8871013114
 11
40.0574306111
 21
63.8782624633
  0
LINE
  5
25C
100
AcDbEntity
  8
0
100
AcDbLine
 62
7
  6
BYLAYER
 10
40.0574306111
 20
64.9782624633
 11
40.0574306111
 21
66.9694236153
  0
LINE
  5
25D
100
AcDbEntity
  8
0
100
AcDbLine
 62
7
  6
BYLAYER
 10
41.1574306111
 20
66.9694236153
 11
41.1574306111
 21
64.9782624633
  0
LINE
  5
25E
100
AcDbEntity
  8
0
100
AcDbLine
 62
7
  6
BYLAYER
 10
41.1574306111
 20
63.8782624633
 11
41.1574306111
 21
61.8871013114
  0
LINE
  5
25F
100
AcDbEntity
  8
0
100
AcDbLine
 62
7
  6
BYLAYER
 10
41.3074306111
 20
63.8782624633
 11
41.3074306111
 21
64.9782624633
  0
LINE
  5
260
100
AcDbEntity
  8
0
100
AcDbLine
 62
7
  6
BYLAYER
 10
25.8759967132
 20
57.2627406027
 11
30.6074276679
 21
57.2627406028
  0
LINE
  5
261
100
AcDbEntity
  8
0
100
AcDbLine
 62
7
  6
BYLAYER
 10
50.6074335543
 20
57.2627406027
 11
55.338864509
 21
57.2627406027
  0
LINE
  5
262
100
AcDbEntity
  8
0
100
AcDbLine
 62
7
  6
BYLAYER
 10
54.5419087498
 20
58.0596963612
 11
50.6074306113
 21
58.0596963612
  0
LINE
  5
263
100
AcDbEntity
  8
0
100
AcDbLine
 62
7
  6
BYLAYER
 10
30.6074306109
 20
58.0596963612
 11
26.672952473
 21
58.0596963612
  0
LINE
  5
264
100
AcDbEntity
  8
0
100
AcDbLine
 62
7
  6
BYLAYER
 10
30.6074306111
 20
58.3282624633
 11
26.4043863696
 21
58.3282624633
  0
LINE
  5
265
100
AcDbEntity
  8
0
100
AcDbLine
 62
7
  6
BYLAYER
 10
50.6074306111
 20
58.3282624633
 11
54.8104748526
 21
58.3282624633
  0
LINE
  5
266
100
AcDbEntity
  8
0
100
AcDbLine
 62
7
  6
BYLAYER
 10
55.603104178
 20
12.5572575789
 11
55.6034420168
 21
12.5560254978
  0
LINE
  5
267
100
AcDbEntity
  8
0
100
AcDbLine
 62
7
  6
BYLAYER
 10
45.4419087505
 20
70.1596963612
 11
45.4419087505
 21
62.4282654065
  0
LINE
  5
268
100
AcDbEntity
  8
0
100
AcDbLine
 62
7
  6
BYLAYER
 10
46.238864509
 20
62.4282624635
 11
46.238864509
 21
69.3627406014
  0
LINE
  5
269
100
AcDbEntity
  8
0
100
AcDbLine
 62
7
  6
BYLAYER
 10
46.5074306111
 20
62.4282624633
 11
46.5074306111
 21
69.6313067049
  0
LINE
  5
26A
100
AcDbEntity
  8
0
100
AcDbLine
 62
7
  6
BYLAYER
 10
47.3074306111
 20
97.3782624633
 11
47.3074306111
 21
99.7782624633
  0
LINE
  5
26B
100
AcDbEntity
  8
0
100
AcDbLine
 62
7
  6
BYLAYER
 10
46.5074306111
 20
62.4282624633
 11
45.4419087505
 21
62.4282624633
  0
LINE
  5
26C
100
AcDbEntity
  8
0
100
AcDbLine
 62
7
  6
BYLAYER
 10
35.7729524717
 20
62.4282624633
 11
34.7074306111
 21
62.4282624633
  0
LINE
  5
26D
100
AcDbEntity
  8
0
100
AcDbLine
 62
7
  6
BYLAYER
 10
34.9759967132
 20
69.362740602
 11
34.7074306111
 21
69.6313067049
  0
LINE
  5
26E
100
AcDbEntity
  8
0
100
AcDbLine
 62
7
  6
BYLAYER
 10
35.5043863696
 20
70.4282624633
 11
35.772952473
 21
70.1596963612
  0
LINE
  5
26F
100
AcDbEntity
  8
0
100
AcDbLine
 62
7
  6
BYLAYER
 10
49.3074306111
 20
95.3782624633
 11
49.3074306111
 21
101.7782624633
  0
LINE
  5
270
100
AcDbEntity
  8
0
100
AcDbLine
 62
7
  6
BYLAYER
 10
49.5074306111
 20
66.4282624633
 11
49.5074306111
 21
66.2171168453
  0
LINE
  5
271
100
AcDbEntity
  8
0
100
AcDbLine
 62
7
  6
BYLAYER
 10
49.5074306111
 20
62.6394080813
 11
49.5074306111
 21
62.4282624633
  0
LINE
  5
272
100
AcDbEntity
  8
0
100
AcDbLine
 62
7
  6
BYLAYER
 10
50.0715322262
 20
103.5782624633
 11
50.0715322262
 21
100.5782624633
  0
LINE
  5
273
100
AcDbEntity
  8
0
100
AcDbLine
 62
7
  6
BYLAYER
 10
50.6074306111
 20
57.2627406027
 11
50.6074306111
 21
58.3282624633
  0
LINE
  5
274
100
AcDbEntity
  8
0
100
AcDbLine
 62
7
  6
BYLAYER
 10
50.6074306111
 20
101.0782624633
 11
50.6074306111
 21
103.0782624633
  0
LINE
  5
275
100
AcDbEntity
  8
0
100
AcDbLine
 62
7
  6
BYLAYER
 10
54.5419087498
 20
58.0596963612
 11
54.8104748526
 21
58.3282624633
  0
LINE
  5
276
100
AcDbEntity
  8
0
100
AcDbLine
 62
7
  6
BYLAYER
 10
55.6074306111
 20
57.5313067049
 11
55.338864509
 21
57.2627406014
  0
LINE
  5
277
100
AcDbEntity
  8
0
100
AcDbLine
 62
7
  6
BYLAYER
 10
38.9091414455
 20
63.8782624633
 11
42.3057197767
 21
63.8782624633
  0
LINE
  5
278
100
AcDbEntity
  8
0
100
AcDbLine
 62
7
  6
BYLAYER
 10
38.9091414455
 20
64.9782624633
 11
42.3057197767
 21
64.9782624633
  0
LWPOLYLINE
  5
279
100
AcDbEntity
  8
0
100
AcDbPolyline
 62
7
  6
BYLAYER
 90
4
 70
0
 10
55.6036065595
 20
12.5559154825
 10
55.5853557006
 20
12.6787082624
 10
55.5630592061
 20
12.9261635846
 10
55.5450927824
 20
13.270125295
  0
LINE
  5
27A
100
AcDbEntity
  8
0
100
AcDbLine
 62
7
  6
BYLAYER
 10
55.6034420168
 20
12.5560254978
 11
55.6287020855
 21
12.3450970384
  0
LINE
  5
27B
100
AcDbEntity
  8
0
100
AcDbLine
 62
7
  6
BYLAYER
 10
54.5931688706
 20
12.6165067036
 11
54.5419087505
 21
15.9393439212
  0
LINE
  5
27C
100
AcDbEntity
  8
0
100
AcDbLine
 62
7
  6
BYLAYER
 10
51.6074306111
 20
9.3282624633
 11
51.6074306111
 21
14.8720063479
  0
LINE
  5
27D
100
AcDbEntity
  8
0
100
AcDbLine
 62
7
  6
BYLAYER
 10
51.8074306111
 20
10.1374716506
 11
51.8074306111
 21
16.343784324
  0
LINE
  5
27E
100
AcDbEntity
  8
0
100
AcDbLine
 62
7
  6
BYLAYER
 10
52.3074306111
 20
103.208697552
 11
52.3074306111
 21
102.9382153893
  0
LINE
  5
27F
100
AcDbEntity
  8
0
100
AcDbLine
 62
7
  6
BYLAYER
 10
52.9074306111
 20
103.208697552
 11
52.9074306111
 21
102.9382153893
  0
LINE
  5
280
100
AcDbEntity
  8
0
100
AcDbLine
 62
7
  6
BYLAYER
 10
53.7074306111
 20
62.4282624633
 11
53.7074306111
 21
66.4282624633
  0
LINE
  5
281
100
AcDbEntity
  8
0
100
AcDbLine
 62
7
  6
BYLAYER
 10
34.9759967132
 20
69.3627406027
 11
46.238864509
 21
69.3627406027
  0
LWPOLYLINE
  5
282
100
AcDbEntity
  8
0
100
AcDbPolyline
 62
7
  6
BYLAYER
 90
6
 70
0
 10
55.5450927824
 20
13.270125295
 10
55.5353743932
 20
13.6833814862
 10
55.5365039425
 20
14.140296313
 10
55.550774114
 20
14.6014993193
 10
55.5779643419
 20
14.991072706
 10
55.5952572795
 20
15.1344332261
  0
LINE
  5
283
100
AcDbEntity
  8
0
100
AcDbLine
 62
7
  6
BYLAYER
 10
55.338864509
 20
16.0782624633
 11
55.3901246291
 21
12.7554252446
  0
LINE
  5
284
100
AcDbEntity
  8
0
100
AcDbLine
 62
7
  6
BYLAYER
 10
54.6981513461
 20
102.6727757047
 11
54.6980746401
 21
103.0782624633
  0
LINE
  5
285
100
AcDbEntity
  8
0
100
AcDbLine
 62
7
  6
BYLAYER
 10
54.5419087505
 20
58.0596963612
 11
54.5419086017
 21
15.9393439212
  0
LINE
  5
286
100
AcDbEntity
  8
0
100
AcDbLine
 62
7
  6
BYLAYER
 10
55.1074306111
 20
101.0782624633
 11
55.1074306111
 21
70.5282624633
  0
LINE
  5
287
100
AcDbEntity
  8
0
100
AcDbLine
 62
7
  6
BYLAYER
 10
55.2574306111
 20
102.2782624633
 11
55.2574306111
 21
101.0782624633
  0
LINE
  5
288
100
AcDbEntity
  8
0
100
AcDbLine
 62
7
  6
BYLAYER
 10
55.338864509
 20
16.0782624633
 11
55.338864509
 21
57.2627406014
  0
LINE
  5
289
100
AcDbEntity
  8
0
100
AcDbLine
 62
7
  6
BYLAYER
 10
55.6074306111
 20
10.8223619654
 11
55.6074306111
 21
9.9282624633
  0
LINE
  5
28A
100
AcDbEntity
  8
0
100
AcDbLine
 62
7
  6
BYLAYER
 10
55.6074306111
 20
12.5357406125
 11
55.6074306111
 21
103.0782624633
  0
LINE
  5
28B
100
AcDbEntity
  8
0
100
AcDbLine
 62
7
  6
BYLAYER
 10
45.4419087498
 20
70.1596963612
 11
35.772952473
 21
70.1596963612
  0
LINE
  5
28C
100
AcDbEntity
  8
0
100
AcDbLine
 62
7
  6
BYLAYER
 10
45.7104748526
 20
70.4282624633
 11
35.5043863696
 21
70.4282624633
  0
LINE
  5
28D
100
AcDbEntity
  8
0
100
AcDbLine
 62
7
  6
BYLAYER
 10
26.1074306111
 20
70.5282624633
 11
55.1074306111
 21
70.5282624633
  0
LINE
  5
28E
100
AcDbEntity
  8
0
100
AcDbLine
 62
7
  6
BYLAYER
 10
55.6074306111
 20
71.0282624633
 11
25.6074306111
 21
71.0282624633
  0
LINE
  5
28F
100
AcDbEntity
  8
0
100
AcDbLine
 62
7
  6
BYLAYER
 10
55.5952338301
 20
15.1344368155
 11
55.6074218232
 21
15.2927920275
  0
LINE
  5
290
100
AcDbEntity
  8
0
100
AcDbLine
 62
7
  6
BYLAYER
 10
55.6074306111
 20
74.0782624633
 11
25.6074306111
 21
74.0782624633
  0
LINE
  5
291
100
AcDbEntity
  8
0
100
AcDbLine
 62
7
  6
BYLAYER
 10
55.5783320527
 20
10.7217019585
 11
55.6242678142
 21
10.9973077188
  0
LINE
  5
292
100
AcDbEntity
  8
0
100
AcDbLine
 62
7
  6
BYLAYER
 10
33.9074306111
 20
99.7782624633
 11
31.9074306111
 21
101.7782624633
  0
LWPOLYLINE
  5
293
100
AcDbEntity
  8
0
100
AcDbPolyline
 62
7
  6
BYLAYER
 90
8
 70
0
 10
55.5783025423
 20
10.7216111236
 10
55.6168655211
 20
10.8549962995
 10
55.6541903775
 20
11.1229306933
 10
55.6727063658
 20
11.508366173
 10
55.674256168
 20
11.7219608801
 10
55.6634169817
 20
12.1009868034
 10
55.6370693051
 20
12.3883363247
 10
55.603104178
 20
12.5572575789
  0
LINE
  5
294
100
AcDbEntity
  8
0
100
AcDbLine
 62
7
  6
BYLAYER
 10
55.5783012991
 20
10.7216181715
 11
55.5783320527
 21
10.7217019585
  0
LINE
  5
295
100
AcDbEntity
  8
0
100
AcDbLine
 62
7
  6
BYLAYER
 10
47.3074306111
 20
97.3782624633
 11
49.3074306111
 21
95.3782624633
  0
LINE
  5
296
100
AcDbEntity
  8
0
100
AcDbLine
 62
7
  6
BYLAYER
 10
31.9074306111
 20
95.3782624633
 11
49.3074306111
 21
95.3782624633
  0
LINE
  5
297
100
AcDbEntity
  8
0
100
AcDbLine
 62
7
  6
BYLAYER
 10
33.9074306111
 20
97.3782624633
 11
47.3074306111
 21
97.3782624633
  0
LINE
  5
298
100
AcDbEntity
  8
0
100
AcDbLine
 62
7
  6
BYLAYER
 10
47.3074306111
 20
99.7782624633
 11
33.9074306111
 21
99.7782624633
  0
LINE
  5
299
100
AcDbEntity
  8
0
100
AcDbLine
 62
7
  6
BYLAYER
 10
25.6074306111
 20
100.5782624633
 11
31.143328996
 21
100.5782624633
  0
LINE
  5
29A
100
AcDbEntity
  8
0
100
AcDbLine
 62
7
  6
BYLAYER
 10
50.0715322262
 20
100.5782624633
 11
55.6074306111
 21
100.5782624633
  0
LINE
  5
29B
100
AcDbEntity
  8
0
100
AcDbLine
 62
7
  6
BYLAYER
 10
55.2574306111
 20
101.0782624633
 11
50.6062268913
 21
101.0782624633
  0
LINE
  5
29C
100
AcDbEntity
  8
0
100
AcDbLine
 62
7
  6
BYLAYER
 10
30.6086343309
 20
101.0782624633
 11
25.9574306111
 21
101.0782624633
  0
LINE
  5
29D
100
AcDbEntity
  8
0
100
AcDbLine
 62
7
  6
BYLAYER
 10
49.3074306111
 20
101.7782624633
 11
31.9074306111
 21
101.7782624633
  0
LINE
  5
29E
100
AcDbEntity
  8
0
100
AcDbLine
 62
7
  6
BYLAYER
 10
25.9574306111
 20
102.2782624633
 11
30.6074306111
 21
102.2782624633
  0
LINE
  5
29F
100
AcDbEntity
  8
0
100
AcDbLine
 62
7
  6
BYLAYER
 10
50.6074306111
 20
102.2782624633
 11
55.2574306111
 21
102.2782624633
  0
LINE
  5
2A0
100
AcDbEntity
  8
0
100
AcDbLine
 62
7
  6
BYLAYER
 10
26.2036835363
 20
102.4782624633
 11
26.2224777814
 21
102.4782624633
  0
LINE
  5
2A1
100
AcDbEntity
  8
0
100
AcDbLine
 62
7
  6
BYLAYER
 10
54.9923834408
 20
102.4782624633
 11
55.0111776859
 21
102.4782624633
  0
LINE
  5
2A2
100
AcDbEntity
  8
0
100
AcDbLine
 62
7
  6
BYLAYER
 10
25.6074306111
 20
103.0782624633
 11
27.3976013793
 21
103.0782624633
  0
LINE
  5
2A3
100
AcDbEntity
  8
0
100
AcDbLine
 62
7
  6
BYLAYER
 10
28.3074306111
 20
103.0782624633
 11
28.9074306111
 21
103.0782624633
  0
LINE
  5
2A4
100
AcDbEntity
  8
0
100
AcDbLine
 62
7
  6
BYLAYER
 10
29.8009886294
 20
103.0782624633
 11
51.3976013793
 21
103.0782624633
  0
LINE
  5
2A5
100
AcDbEntity
  8
0
100
AcDbLine
 62
7
  6
BYLAYER
 10
52.3074306111
 20
103.0782624633
 11
52.9074306111
 21
103.0782624633
  0
LINE
  5
2A6
100
AcDbEntity
  8
0
100
AcDbLine
 62
7
  6
BYLAYER
 10
53.8172598448
 20
103.0782624633
 11
55.6074306111
 21
103.0782624633
  0
LINE
  5
2A7
100
AcDbEntity
  8
0
100
AcDbLine
 62
7
  6
BYLAYER
 10
53.2880518158
 20
103.208697552
 11
52.9074306111
 21
103.208697552
  0
LINE
  5
2A8
100
AcDbEntity
  8
0
100
AcDbLine
 62
7
  6
BYLAYER
 10
52.3074306111
 20
103.208697552
 11
51.9268094064
 21
103.208697552
  0
LINE
  5
2A9
100
AcDbEntity
  8
0
100
AcDbLine
 62
7
  6
BYLAYER
 10
29.2880518158
 20
103.208697552
 11
28.9074306111
 21
103.208697552
  0
LINE
  5
2AA
100
AcDbEntity
  8
0
100
AcDbLine
 62
7
  6
BYLAYER
 10
28.3074306111
 20
103.208697552
 11
27.9268094064
 21
103.208697552
  0
LINE
  5
2AB
100
AcDbEntity
  8
0
100
AcDbLine
 62
7
  6
BYLAYER
 10
26.1074306111
 20
103.5782624633
 11
31.0927862115
 21
103.5782624633
  0
LINE
  5
2AC
100
AcDbEntity
  8
0
100
AcDbLine
 62
7
  6
BYLAYER
 10
31.1074605817
 20
103.5782624633
 11
50.1074006404
 21
103.5782624633
  0
LINE
  5
2AD
100
AcDbEntity
  8
0
100
AcDbLine
 62
7
  6
BYLAYER
 10
50.1220400418
 20
103.5782624633
 11
55.1074306111
 21
103.5782624633
  0
ARC
  5
2AE
100
AcDbEntity
  8
0
100
AcDbCircle
 62
7
  6
BYLAYER
 10
7.5630423084
 20
13.8691499318
 40
18.1204801836
100
AcDbArc
 50
359.389956551
 51
0.8154653144
  0
ARC
  5
2AF
100
AcDbEntity
  8
0
100
AcDbCircle
 62
7
  6
BYLAYER
 10
8.5785750173
 20
13.8835868043
 40
17.1048448623
100
AcDbArc
 50
0.8155246925
 51
1.2754160194
  0
ARC
  5
2B0
100
AcDbEntity
  8
0
100
AcDbCircle
 62
7
  6
BYLAYER
 10
8.8102439977
 20
13.8528982186
 40
16.8731764163
100
AcDbArc
 50
358.1045529337
 51
359.4000476535
  0
ARC
  5
2B1
100
AcDbEntity
  8
0
100
AcDbCircle
 62
7
  6
BYLAYER
 10
11.8802947366
 20
13.7571865086
 40
13.8016409809
100
AcDbArc
 50
357.2323243091
 51
358.080122447
  0
ARC
  5
2B2
100
AcDbEntity
  8
0
100
AcDbCircle
 62
7
  6
BYLAYER
 10
19.8981240329
 20
14.5005574737
 40
5.7661063017
100
AcDbArc
 50
5.2482892246
 51
5.5607114482
  0
ARC
  5
2B3
100
AcDbEntity
  8
0
100
AcDbCircle
 62
7
  6
BYLAYER
 10
21.2511020956
 20
14.6374025888
 40
4.4062378423
100
AcDbArc
 50
5.4944338304
 51
6.9610037325
  0
ARC
  5
2B4
100
AcDbEntity
  8
0
100
AcDbCircle
 62
7
  6
BYLAYER
 10
22.6596091381
 20
12.9263977739
 40
2.9869543804
100
AcDbArc
 50
351.9851044714
 51
352.5122562811
  0
ARC
  5
2B5
100
AcDbEntity
  8
0
100
AcDbCircle
 62
7
  6
BYLAYER
 10
26.4074306111
 20
57.5282624633
 40
0.8
100
AcDbArc
 50
90.0
 51
180.0
  0
ARC
  5
2B6
100
AcDbEntity
  8
0
100
AcDbCircle
 62
7
  6
BYLAYER
 10
32.8032983556
 20
64.4282624633
 40
9.5183251081
100
AcDbArc
 50
356.6874170517
 51
3.3125829483
  0
ARC
  5
2B7
100
AcDbEntity
  8
0
100
AcDbCircle
 62
7
  6
BYLAYER
 10
28.6074306111
 20
96.6321195991
 40
6.3132277097
100
AcDbArc
 50
87.2763204254
 51
92.7236795746
  0
ARC
  5
2B8
100
AcDbEntity
  8
0
100
AcDbCircle
 62
7
  6
BYLAYER
 10
30.6074306111
 20
62.4282624633
 40
5.1655215702
100
AcDbArc
 50
269.9999673542
 51
0.000032646
  0
ARC
  5
2B9
100
AcDbEntity
  8
0
100
AcDbCircle
 62
7
  6
BYLAYER
 10
30.6074306111
 20
62.4282624633
 40
4.3685660999
100
AcDbArc
 50
269.9999999987
 51
360.0
  0
ARC
  5
2BA
100
AcDbEntity
  8
0
100
AcDbCircle
 62
7
  6
BYLAYER
 10
30.6074306111
 20
62.4282624633
 40
4.1
100
AcDbArc
 50
270.0
 51
360.0
  0
ARC
  5
2BB
100
AcDbEntity
  8
0
100
AcDbCircle
 62
7
  6
BYLAYER
 10
30.6074306111
 20
66.4282624633
 40
4.1
100
AcDbArc
 50
0.0
 51
90.0
  0
ARC
  5
2BC
100
AcDbEntity
  8
0
100
AcDbCircle
 62
7
  6
BYLAYER
 10
28.6074306111
 20
99.2670124633
 40
4.01125
100
AcDbArc
 50
126.816300068
 51
131.3487066438
  0
ARC
  5
2BD
100
AcDbEntity
  8
0
100
AcDbCircle
 62
7
  6
BYLAYER
 10
28.6074306111
 20
99.2670124633
 40
4.0000158203
100
AcDbArc
 50
99.7968095851
 51
126.6007832227
  0
ARC
  5
2BE
100
AcDbEntity
  8
0
100
AcDbCircle
 62
7
  6
BYLAYER
 10
28.6074306111
 20
99.2670124633
 40
4.0000158203
100
AcDbArc
 50
59.9259405844
 51
80.2031904149
  0
ARC
  5
2BF
100
AcDbEntity
  8
0
100
AcDbCircle
 62
7
  6
BYLAYER
 10
30.6074306111
 20
64.4282624633
 40
2.1
100
AcDbArc
 50
301.5881355052
 51
58.4118644948
  0
ARC
  5
2C0
100
AcDbEntity
  8
0
100
AcDbCircle
 62
7
  6
BYLAYER
 10
29.6074306111
 20
66.4282624633
 40
2.1
100
AcDbArc
 50
0.0
 51
180.0
  0
ARC
  5
2C1
100
AcDbEntity
  8
0
100
AcDbCircle
 62
7
  6
BYLAYER
 10
29.6074306111
 20
62.4282624633
 40
2.1
100
AcDbArc
 50
180.0
 51
360.0
  0
ARC
  5
2C2
100
AcDbEntity
  8
0
100
AcDbCircle
 62
7
  6
BYLAYER
 10
31.1074306111
 20
103.0782624633
 40
0.5
100
AcDbArc
 50
90.0
 51
179.9999999994
  0
ARC
  5
2C3
100
AcDbEntity
  8
0
100
AcDbCircle
 62
7
  6
BYLAYER
 10
26.1074306111
 20
103.0782624633
 40
0.5
100
AcDbArc
 50
89.9999999997
 51
179.9999999998
  0
ARC
  5
2C4
100
AcDbEntity
  8
0
100
AcDbCircle
 62
7
  6
BYLAYER
 10
26.1074306111
 20
100.5782624633
 40
0.5
100
AcDbArc
 50
90.0
 51
180.0
  0
ARC
  5
2C5
100
AcDbEntity
  8
0
100
AcDbCircle
 62
7
  6
BYLAYER
 10
26.1074306111
 20
71.0282624633
 40
0.5
100
AcDbArc
 50
180.0
 51
270.0
  0
ARC
  5
2C6
100
AcDbEntity
  8
0
100
AcDbCircle
 62
7
  6
BYLAYER
 10
73.6481654856
 20
13.8691490945
 40
18.1168269899
100
AcDbArc
 50
179.1733293707
 51
180.6100922176
  0
ARC
  5
2C7
100
AcDbEntity
  8
0
100
AcDbCircle
 62
7
  6
BYLAYER
 10
72.701171951
 20
13.8822301045
 40
17.1697433038
100
AcDbArc
 50
178.6342890302
 51
179.1713831607
  0
ARC
  5
2C8
100
AcDbEntity
  8
0
100
AcDbCircle
 62
7
  6
BYLAYER
 10
71.986334352
 20
13.8436635691
 40
16.4548205425
100
AcDbArc
 50
180.5829707306
 51
181.8652163016
  0
ARC
  5
2C9
100
AcDbEntity
  8
0
100
AcDbCircle
 62
7
  6
BYLAYER
 10
68.9528890876
 20
13.7418619062
 40
13.4196693744
100
AcDbArc
 50
181.8523484035
 51
182.7721928689
  0
ARC
  5
2CA
100
AcDbEntity
  8
0
100
AcDbCircle
 62
7
  6
BYLAYER
 10
61.5763010726
 20
14.4763159047
 40
6.0267995194
100
AcDbArc
 50
174.5528146656
 51
174.873604173
  0
ARC
  5
2CB
100
AcDbEntity
  8
0
100
AcDbCircle
 62
7
  6
BYLAYER
 10
54.8074306111
 20
57.5282624633
 40
0.8
100
AcDbArc
 50
0.0
 51
90.0
  0
CIRCLE
  5
2CC
100
AcDbEntity
  8
0
100
AcDbCircle
 62
7
  6
BYLAYER
 10
40.6074306111
 20
64.4282624633
 40
3.0
  0
CIRCLE
  5
2CD
100
AcDbEntity
  8
0
100
AcDbCircle
 62
7
  6
BYLAYER
 10
40.6074306111
 20
64.4282624633
 40
2.6999982686
  0
CIRCLE
  5
2CE
100
AcDbEntity
  8
0
100
AcDbCircle
 62
7
  6
BYLAYER
 10
40.6074306111
 20
64.4282624633
 40
2.6
  0
ARC
  5
2CF
100
AcDbEntity
  8
0
100
AcDbCircle
 62
7
  6
BYLAYER
 10
48.4115628664
 20
64.4282624633
 40
9.5183251079
100
AcDbArc
 50
176.6874170516
 51
183.3125829484
  0
ARC
  5
2D0
100
AcDbEntity
  8
0
100
AcDbCircle
 62
7
  6
BYLAYER
 10
50.6074306111
 20
62.4282624633
 40
5.1655215702
100
AcDbArc
 50
179.9999673542
 51
270.0000326456
  0
ARC
  5
2D1
100
AcDbEntity
  8
0
100
AcDbCircle
 62
7
  6
BYLAYER
 10
50.6074306111
 20
62.4282624633
 40
4.3685660999
100
AcDbArc
 50
179.9999999987
 51
270.0000000012
  0
ARC
  5
2D2
100
AcDbEntity
  8
0
100
AcDbCircle
 62
7
  6
BYLAYER
 10
50.6074306111
 20
66.4282624633
 40
4.1
100
AcDbArc
 50
90.0
 51
180.0
  0
ARC
  5
2D3
100
AcDbEntity
  8
0
100
AcDbCircle
 62
7
  6
BYLAYER
 10
50.6074306111
 20
62.4282624633
 40
4.1
100
AcDbArc
 50
180.0
 51
270.0
  0
ARC
  5
2D4
100
AcDbEntity
  8
0
100
AcDbCircle
 62
7
  6
BYLAYER
 10
50.6074306111
 20
64.4282624633
 40
2.1
100
AcDbArc
 50
121.5881355052
 51
238.4118644948
  0
ARC
  5
2D5
100
AcDbEntity
  8
0
100
AcDbCircle
 62
7
  6
BYLAYER
 10
51.6074306111
 20
62.4282624633
 40
2.1
100
AcDbArc
 50
180.0
 51
360.0
  0
ARC
  5
2D6
100
AcDbEntity
  8
0
100
AcDbCircle
 62
7
  6
BYLAYER
 10
51.6074306111
 20
66.4282624633
 40
2.1
100
AcDbArc
 50
0.0
 51
180.0
  0
ARC
  5
2D7
100
AcDbEntity
  8
0
100
AcDbCircle
 62
7
  6
BYLAYER
 10
55.1074306111
 20
71.0282624633
 40
0.5
100
AcDbArc
 50
270.0
 51
360.0
  0
ARC
  5
2D8
100
AcDbEntity
  8
0
100
AcDbCircle
 62
7
  6
BYLAYER
 10
52.6074306111
 20
96.6321195991
 40
6.3132277097
100
AcDbArc
 50
87.2763204254
 51
92.7236795746
  0
ARC
  5
2D9
100
AcDbEntity
  8
0
100
AcDbCircle
 62
7
  6
BYLAYER
 10
52.6074306111
 20
99.2670124633
 40
4.01125
100
AcDbArc
 50
48.6511504783
 51
53.1836999315
  0
ARC
  5
2DA
100
AcDbEntity
  8
0
100
AcDbCircle
 62
7
  6
BYLAYER
 10
52.6074306111
 20
99.2670124633
 40
4.0000158203
100
AcDbArc
 50
99.7968095851
 51
120.1675149493
  0
ARC
  5
2DB
100
AcDbEntity
  8
0
100
AcDbCircle
 62
7
  6
BYLAYER
 10
52.6074306111
 20
99.2670124633
 40
4.0000158203
100
AcDbArc
 50
53.3992167773
 51
80.2031904149
  0
ARC
  5
2DC
100
AcDbEntity
  8
0
100
AcDbCircle
 62
7
  6
BYLAYER
 10
55.1074306111
 20
103.0782624633
 40
0.5
100
AcDbArc
 50
0.0000000002
 51
90.0000000003
  0
ARC
  5
2DD
100
AcDbEntity
  8
0
100
AcDbCircle
 62
7
  6
BYLAYER
 10
50.1074306111
 20
103.0782624633
 40
0.5
100
AcDbArc
 50
0.0000000006
 51
90.0
  0
ARC
  5
2DE
100
AcDbEntity
  8
0
100
AcDbCircle
 62
7
  6
BYLAYER
 10
55.1074306111
 20
100.5782624633
 40
0.5
100
AcDbArc
 50
0.0
 51
90.0
  0
SPLINE
  5
2DF
100
AcDbEntity
  8
0
100
AcDbSpline
 62
7
  6
BYLAYER
 70
0
 71
3
 72
22
 73
18
 74
0
 42
0.0000001
 43
0.0000001
 44
0.0000000001
 40
0.0
 40
0.0
 40
0.0
 40
0.0
 40
0.0041585597
 40
0.0114598361
 40
0.0219048322
 40
0.035387154
 40
0.0517669121
 40
0.0708446432
 40
0.1162032378
 40
0.1696857563
 40
0.2297970819
 40
0.295278399
 40
0.3650313129
 40
0.514156548
 40
0.6718615332
 40
0.8348137332
 40
1.0
 40
1.0
 40
1.0
 40
1.0
 10
50.6062268913
 20
101.0782624633
 30
0.0
 10
50.6052112827
 20
101.0782624633
 30
0.0
 10
50.6025578161
 20
101.0770194193
 30
0.0
 10
50.5980576145
 20
101.0742657265
 30
0.0
 10
50.5918717181
 20
101.0697333487
 30
0.0
 10
50.5841589006
 20
101.0636392496
 30
0.0
 10
50.57497201
 20
101.0559836783
 30
0.0
 10
50.5600222656
 20
101.0431002768
 30
0.0
 10
50.5385497414
 20
101.0239049144
 30
0.0
 10
50.5099263421
 20
100.9976820603
 30
0.0
 10
50.4779176172
 20
100.9678801879
 30
0.0
 10
50.4431744893
 20
100.9351856981
 30
0.0
 10
50.3927754787
 20
100.8874071157
 30
0.0
 10
50.3262923907
 20
100.8238582411
 30
0.0
 10
50.2435814532
 20
100.7443467295
 30
0.0
 10
50.1581847396
 20
100.6619694684
 30
0.0
 10
50.1005483914
 20
100.6062899267
 30
0.0
 10
50.0715322262
 20
100.5782624633
 30
0.0
  0
SPLINE
  5
2E0
100
AcDbEntity
  8
0
100
AcDbSpline
 62
7
  6
BYLAYER
 70
0
 71
3
 72
13
 73
9
 74
0
 42
0.0000001
 43
0.0000001
 44
0.0000000001
 40
0.0
 40
0.0
 40
0.0
 40
0.0
 40
0.2885495959
 40
0.5557555489
 40
0.6775964726
 40
0.7909720839
 40
0.8975439009
 40
1.0
 40
1.0
 40
1.0
 40
1.0
 10
26.5167865821
 20
103.0782624633
 30
0.0
 10
26.5167865821
 20
103.1426603637
 30
0.0
 10
26.5003147682
 20
103.2673104457
 30
0.0
 10
26.4376140866
 20
103.4081107977
 30
0.0
 10
26.3652695463
 20
103.4946687637
 30
0.0
 10
26.3045894962
 20
103.5420103849
 30
0.0
 10
26.2380954953
 20
103.5714638983
 30
0.0
 10
26.1912118503
 20
103.5782624633
 30
0.0
 10
26.1683459106
 20
103.5782624633
 30
0.0
  0
SPLINE
  5
2E1
100
AcDbEntity
  8
0
100
AcDbSpline
 62
7
  6
BYLAYER
 70
0
 71
3
 72
13
 73
9
 74
0
 42
0.0000001
 43
0.0000001
 44
0.0000000001
 40
0.0
 40
0.0
 40
0.0
 40
0.0
 40
0.1024560747
 40
0.2090278253
 40
0.3224033785
 40
0.444244284
 40
0.7114502849
 40
1.0
 40
1.0
 40
1.0
 40
1.0
 10
55.0465153116
 20
103.5782624633
 30
0.0
 10
55.0236493773
 20
103.5782624633
 30
0.0
 10
54.9767657504
 20
103.5714639143
 30
0.0
 10
54.9102717818
 20
103.5420104104
 30
0.0
 10
54.8495917433
 20
103.4946688294
 30
0.0
 10
54.7772471854
 20
103.4081108846
 30
0.0
 10
54.7145464649
 20
103.2673105112
 30
0.0
 10
54.6980746401
 20
103.1426603903
 30
0.0
 10
54.6980746401
 20
103.0782624633
 30
0.0
  0
SPLINE
  5
2E2
100
AcDbEntity
  8
0
100
AcDbSpline
 62
7
  6
BYLAYER
 70
0
 71
3
 72
22
 73
18
 74
0
 42
0.0000001
 43
0.0000001
 44
0.0000000001
 40
0.0
 40
0.0
 40
0.0
 40
0.0
 40
0.0041580354
 40
0.0114586908
 40
0.0219031947
 40
0.0353851237
 40
0.05176462
 40
0.0708423223
 40
0.1162013612
 40
0.1696845735
 40
0.2297961092
 40
0.2952776443
 40
0.3650306237
 40
0.5141559452
 40
0.6718610826
 40
0.834813461
 40
1.0
 40
1.0
 40
1.0
 40
1.0
 10
30.6086343309
 20
101.0782624633
 30
0.0
 10
30.6096498088
 20
101.0782624633
 30
0.0
 10
30.612302709
 20
101.0770183513
 30
0.0
 10
30.6168011437
 20
101.0742628518
 30
0.0
 10
30.6229849223
 20
101.0697281498
 30
0.0
 10
30.6306955789
 20
101.0636318691
 30
0.0
 10
30.6398808719
 20
101.0559746904
 30
0.0
 10
30.6548292832
 20
101.0430897779
 30
0.0
 10
30.6763018932
 20
101.0238942473
 30
0.0
 10
30.7049278112
 20
100.9976738132
 30
0.0
 10
30.7369402123
 20
100.9678756518
 30
0.0
 10
30.7716854624
 20
100.9351834127
 30
0.0
 10
30.8220834155
 20
100.8874038374
 30
0.0
 10
30.8885604919
 20
100.8238488986
 30
0.0
 10
30.9712642263
 20
100.7443301934
 30
0.0
 10
31.0566698058
 20
100.6619623644
 30
0.0
 10
31.1143128581
 20
100.6062899003
 30
0.0
 10
31.143328996
 20
100.5782624633
 30
0.0
  0
SPLINE
  5
2E3
100
AcDbEntity
  8
0
100
AcDbSpline
 62
7
  6
BYLAYER
 70
0
 71
3
 72
11
 73
7
 74
0
 42
0.0000001
 43
0.0000001
 44
0.0000000001
 40
0.0
 40
0.0
 40
0.0
 40
0.0
 40
0.2497773135
 40
0.5
 40
0.7502226865
 40
1.0
 40
1.0
 40
1.0
 40
1.0
 10
26.6729531115
 20
58.0596957221
 30
0.0
 10
26.5696318726
 20
58.0589108812
 30
0.0
 10
26.3609070938
 20
58.0161296686
 30
0.0
 10
26.0972307544
 20
57.8384623205
 30
0.0
 10
25.9195634061
 20
57.5747859813
 30
0.0
 10
25.8767821933
 20
57.3660612025
 30
0.0
 10
25.8759973524
 20
57.2627399636
 30
0.0
  0
SPLINE
  5
2E4
100
AcDbEntity
  8
0
100
AcDbSpline
 62
7
  6
BYLAYER
 70
0
 71
3
 72
16
 73
12
 74
0
 42
0.0000001
 43
0.0000001
 44
0.0000000001
 40
0.0
 40
0.0
 40
0.0
 40
0.0
 40
0.019755382
 40
0.0453114995
 40
0.0775134754
 40
0.1166305827
 40
0.2152003922
 40
0.3389837048
 40
0.4843068829
 40
0.6465386772
 40
1.0
 40
1.0
 40
1.0
 40
1.0
 10
25.8759967132
 20
16.0782624633
 30
0.0
 10
25.878385404
 20
16.073411383
 30
0.0
 10
25.88647067
 20
16.0636305086
 30
0.0
 10
25.9036412456
 20
16.0510408121
 30
0.0
 10
25.9271659687
 20
16.0386408848
 30
0.0
 10
25.9703289858
 20
16.0212180591
 30
0.0
 10
26.0393693413
 20
16.0017366841
 30
0.0
 10
26.138078797
 20
15.9819293061
 30
0.0
 10
26.2550019132
 20
15.965159873
 30
0.0
 10
26.4350639051
 20
15.9471599142
 30
0.0
 10
26.5762165394
 20
15.9407910837
 30
0.0
 10
26.6729524717
 20
15.9393439212
 30
0.0
  0
SPLINE
  5
2E5
100
AcDbEntity
  8
0
100
AcDbSpline
 62
7
  6
BYLAYER
 70
0
 71
3
 72
21
 73
17
 74
0
 42
0.0000001
 43
0.0000001
 44
0.0000000001
 40
0.0
 40
0.0
 40
0.0
 40
0.0
 40
0.0081122257
 40
0.0147095983
 40
0.023325915
 40
0.0340450684
 40
0.0468923218
 40
0.0618689455
 40
0.0789656165
 40
0.1194458258
 40
0.168085054
 40
0.2884385015
 40
0.4365707631
 40
0.6080571731
 40
0.797810952
 40
1.0
 40
1.0
 40
1.0
 40
1.0
 10
54.7827017031
 20
10.1374459535
 30
0.0
 10
54.7759397497
 20
10.1374563308
 30
0.0
 10
54.7655633743
 20
10.1477707776
 30
0.0
 10
54.7566507084
 20
10.1643418173
 30
0.0
 10
54.7483660952
 20
10.1845883572
 30
0.0
 10
54.7403560435
 20
10.2101240375
 30
0.0
 10
54.7322937687
 20
10.2412627278
 30
0.0
 10
54.7243301785
 20
10.2778474643
 30
0.0
 10
54.7131840268
 20
10.3372988711
 30
0.0
 10
54.6999577411
 20
10.4248642497
 30
0.0
 10
54.6789557339
 20
10.5982182189
 30
0.0
 10
54.655927992
 20
10.8616147684
 30
0.0
 10
54.6330642456
 20
11.2276582398
 30
0.0
 10
54.6144276506
 20
11.65185933
 30
0.0
 10
54.600614553
 20
12.1213157037
 30
0.0
 10
54.5950539302
 20
12.4479824447
 30
0.0
 10
54.5931449002
 20
12.616506703
 30
0.0
  0
SPLINE
  5
2E6
100
AcDbEntity
  8
0
100
AcDbSpline
 62
7
  6
BYLAYER
 70
0
 71
3
 72
21
 73
17
 74
0
 42
0.0000001
 43
0.0000001
 44
0.0000000001
 40
0.0
 40
0.0
 40
0.0
 40
0.0
 40
0.2021888905
 40
0.3919425374
 40
0.563428852
 40
0.7115610704
 40
0.8319145363
 40
0.880553799
 40
0.9210340602
 40
0.9381307637
 40
0.9531074241
 40
0.9659547182
 40
0.9766739159
 40
0.9852902796
 40
0.9918877003
 40
1.0
 40
1.0
 40
1.0
 40
1.0
 10
26.6217167741
 20
12.6165067027
 30
0.0
 10
26.6198077459
 20
12.4479825876
 30
0.0
 10
26.6142472032
 20
12.12131611
 30
0.0
 10
26.6004341812
 20
11.651860088
 30
0.0
 10
26.5817976438
 20
11.2276592511
 30
0.0
 10
26.5589339525
 20
10.8616159025
 30
0.0
 10
26.5359062425
 20
10.5982193609
 30
0.0
 10
26.5149042571
 20
10.4248653136
 30
0.0
 10
26.5016779779
 20
10.3372998402
 30
0.0
 10
26.4905318303
 20
10.2778483343
 30
0.0
 10
26.4825682393
 20
10.2412635069
 30
0.0
 10
26.4745059644
 20
10.2101247145
 30
0.0
 10
26.4664959063
 20
10.1845889228
 30
0.0
 10
26.4582112996
 20
10.1643422583
 30
0.0
 10
26.4492985992
 20
10.1477710748
 30
0.0
 10
26.4389223006
 20
10.1374564617
 30
0.0
 10
26.4321602862
 20
10.1374459538
 30
0.0
  0
SPLINE
  5
2E7
100
AcDbEntity
  8
0
100
AcDbSpline
 62
7
  6
BYLAYER
 70
0
 71
3
 72
9
 73
5
 74
0
 42
0.0000001
 43
0.0000001
 44
0.0000000001
 40
0.0
 40
0.0
 40
0.0
 40
0.0
 40
0.4356982522
 40
1.0
 40
1.0
 40
1.0
 40
1.0
 10
55.6287020856
 20
12.3450970384
 30
0.0
 10
55.6222701454
 20
12.3686024234
 30
0.0
 10
55.6106139821
 20
12.423379986
 30
0.0
 10
55.6018867033
 20
12.478633937
 30
0.0
 10
55.5974803001
 20
12.5098874079
 30
0.0
  0
SPLINE
  5
2E8
100
AcDbEntity
  8
0
100
AcDbSpline
 62
7
  6
BYLAYER
 70
0
 71
3
 72
9
 73
5
 74
0
 42
0.0000001
 43
0.0000001
 44
0.0000000001
 40
0.0
 40
0.0
 40
0.0
 40
0.0
 40
0.4398674398
 40
1.0
 40
1.0
 40
1.0
 40
1.0
 10
55.5974803001
 20
12.5098874079
 30
0.0
 10
55.5855037855
 20
12.5948337081
 30
0.0
 10
55.5662272319
 20
12.7890348468
 30
0.0
 10
55.5542241794
 20
12.9837065166
 30
0.0
 10
55.5489243795
 20
13.0928193624
 30
0.0
  0
SPLINE
  5
2E9
100
AcDbEntity
  8
0
100
AcDbSpline
 62
7
  6
BYLAYER
 70
0
 71
3
 72
9
 73
5
 74
0
 42
0.0000001
 43
0.0000001
 44
0.0000000001
 40
0.0
 40
0.0
 40
0.0
 40
0.0
 40
0.5391667363
 40
1.0
 40
1.0
 40
1.0
 40
1.0
 10
55.5363060157
 20
14.2914519805
 30
0.0
 10
55.5394205206
 20
14.4216106223
 30
0.0
 10
55.5480224685
 20
14.6629571308
 30
0.0
 10
55.5636629552
 20
14.9039945831
 30
0.0
 10
55.5736087113
 20
15.0148294723
 30
0.0
  0
SPLINE
  5
2EA
100
AcDbEntity
  8
0
100
AcDbSpline
 62
7
  6
BYLAYER
 70
0
 71
3
 72
9
 73
5
 74
0
 42
0.0000001
 43
0.0000001
 44
0.0000000001
 40
0.0
 40
0.0
 40
0.0
 40
0.0
 40
0.2637249257
 40
1.0
 40
1.0
 40
1.0
 40
1.0
 10
55.5767178259
 20
15.0484289291
 30
0.0
 10
55.5777476084
 20
15.0592199139
 30
0.0
 10
55.5817701608
 20
15.100126
 30
0.0
 10
55.5862743763
 20
15.140985962
 30
0.0
 10
55.589952725
 20
15.1710250493
 30
0.0
  0
SPLINE
  5
2EB
100
AcDbEntity
  8
0
100
AcDbSpline
 62
7
  6
BYLAYER
 70
0
 71
3
 72
9
 73
5
 74
0
 42
0.0000001
 43
0.0000001
 44
0.0000000001
 40
0.0
 40
0.0
 40
0.0
 40
0.0
 40
0.2720777864
 40
1.0
 40
1.0
 40
1.0
 40
1.0
 10
55.589952725
 20
15.1710250493
 30
0.0
 10
55.5913088027
 20
15.1820994036
 30
0.0
 10
55.5964804825
 20
15.2227782157
 30
0.0
 10
55.6024121928
 20
15.2633670392
 30
0.0
 10
55.6074305179
 20
15.2927920275
 30
0.0
  0
SPLINE
  5
2EC
100
AcDbEntity
  8
0
100
AcDbSpline
 62
7
  6
BYLAYER
 70
0
 71
3
 72
20
 73
16
 74
0
 42
0.0000001
 43
0.0000001
 44
0.0000000001
 40
0.0
 40
0.0
 40
0.0
 40
0.0
 40
0.0270259113
 40
0.0662054677
 40
0.1165348666
 40
0.1769097832
 40
0.2460388651
 40
0.3219925329
 40
0.4859856802
 40
0.6520298166
 40
0.802949836
 40
0.8675054446
 40
0.92269701
 40
0.9672627258
 40
1.0
 40
1.0
 40
1.0
 40
1.0
 10
55.6242675678
 20
10.9973193359
 30
0.0
 10
55.6284688163
 20
11.0087627634
 30
0.0
 10
55.6352999788
 20
11.0379722181
 30
0.0
 10
55.6436771529
 20
11.0898355112
 30
0.0
 10
55.6513156765
 20
11.1570467473
 30
0.0
 10
55.6580322735
 20
11.2378846344
 30
0.0
 10
55.663499989
 20
11.3304062896
 30
0.0
 10
55.6691773433
 20
11.4697060663
 30
0.0
 10
55.6723295317
 20
11.6528366062
 30
0.0
 10
55.6699481731
 20
11.8697838306
 30
0.0
 10
55.66324809
 20
12.0417838696
 30
0.0
 10
55.6545516889
 20
12.1635673635
 30
0.0
 10
55.6473077441
 20
12.2373475292
 30
0.0
 10
55.6392376124
 20
12.2965600297
 30
0.0
 10
55.6326034656
 20
12.3308615922
 30
0.0
 10
55.6287022607
 20
12.3451033547
 30
0.0
  0
SPLINE
  5
2ED
100
AcDbEntity
  8
0
100
AcDbSpline
 62
7
  6
BYLAYER
 70
0
 71
3
 72
27
 73
23
 74
0
 42
0.0000001
 43
0.0000001
 44
0.0000000001
 40
0.0
 40
0.0
 40
0.0
 40
0.0
 40
0.2241879645
 40
0.330357445
 40
0.4310454304
 40
0.5251584508
 40
0.611813686
 40
0.6901845953
 40
0.759452645
 40
0.8188806304
 40
0.8680229914
 40
0.8886349419
 40
0.9065629095
 40
0.9217906113
 40
0.9343287167
 40
0.9442536829
 40
0.9518051684
 40
0.957540629
 40
0.96264144
 40
0.9686660619
 40
0.97664309
 40
1.0
 40
1.0
 40
1.0
 40
1.0
 10
55.3901257899
 20
12.7554276045
 30
0.0
 10
55.3923450038
 20
12.6117165133
 30
0.0
 10
55.3975056678
 20
12.399967621
 30
0.0
 10
55.4084876933
 20
12.1238362699
 30
0.0
 10
55.4183157706
 20
11.9311279152
 30
0.0
 10
55.4298133
 20
11.7510458647
 30
0.0
 10
55.4428193068
 20
11.5854129758
 30
0.0
 10
55.4571722613
 20
11.4358844157
 30
0.0
 10
55.4726953756
 20
11.3040282216
 30
0.0
 10
55.4892682778
 20
11.1912101134
 30
0.0
 10
55.504465469
 20
11.109756506
 30
0.0
 10
55.5173773163
 20
11.0550345532
 30
0.0
 10
55.5266182144
 20
11.0218138555
 30
0.0
 10
55.5359618965
 20
10.9940284374
 30
0.0
 10
55.5453642346
 20
10.9717385732
 30
0.0
 10
55.5548720133
 20
10.9549211434
 30
0.0
 10
55.5644889848
 20
10.943442366
 30
0.0
 10
55.5750215449
 20
10.9371387875
 30
0.0
 10
55.586458969
 20
10.9379066553
 30
0.0
 10
55.5966993896
 20
10.945320883
 30
0.0
 10
55.6113328409
 20
10.9644130021
 30
0.0
 10
55.6191006753
 20
10.9832717365
 30
0.0
 10
55.6242674226
 20
10.9973263786
 30
0.0
  0
SPLINE
  5
2EE
100
AcDbEntity
  8
0
100
AcDbSpline
 62
7
  6
BYLAYER
 70
0
 71
3
 72
27
 73
23
 74
0
 42
0.0000001
 43
0.0000001
 44
0.0000000001
 40
0.0
 40
0.0
 40
0.0
 40
0.0
 40
0.0233569095
 40
0.0313339374
 40
0.0373585592
 40
0.0424593704
 40
0.0481948311
 40
0.0557463169
 40
0.0656712831
 40
0.0782093887
 40
0.0934370905
 40
0.1113650582
 40
0.1319770089
 40
0.1811193709
 40
0.2405473583
 40
0.3098154113
 40
0.3881863236
 40
0.4748415596
 40
0.5689545765
 40
0.6696425537
 40
0.7758120262
 40
1.0
 40
1.0
 40
1.0
 40
1.0
 10
25.5905938013
 20
10.9973264649
 30
0.0
 10
25.5957605483
 20
10.9832718237
 30
0.0
 10
25.6035283822
 20
10.9644130905
 30
0.0
 10
25.6181618331
 20
10.9453209729
 30
0.0
 10
25.6284022537
 20
10.9379067461
 30
0.0
 10
25.6398396775
 20
10.9371388789
 30
0.0
 10
25.6503722373
 20
10.9434424574
 30
0.0
 10
25.6599892087
 20
10.9549212346
 30
0.0
 10
25.6694969872
 20
10.9717386638
 30
0.0
 10
25.678899325
 20
10.9940285271
 30
0.0
 10
25.6882430069
 20
11.0218139441
 30
0.0
 10
25.6974839046
 20
11.0550346407
 30
0.0
 10
25.7103957514
 20
11.1097565919
 30
0.0
 10
25.725592942
 20
11.1912101981
 30
0.0
 10
25.7421658434
 20
11.3040283056
 30
0.0
 10
25.7576889569
 20
11.4358844996
 30
0.0
 10
25.7720419108
 20
11.5854130581
 30
0.0
 10
25.7850479169
 20
11.7510459402
 30
0.0
 10
25.7965454457
 20
11.9311279762
 30
0.0
 10
25.8063735224
 20
12.1238363101
 30
0.0
 10
25.8173555474
 20
12.3999676451
 30
0.0
 10
25.8225162105
 20
12.6117165294
 30
0.0
 10
25.8247354244
 20
12.7554276205
 30
0.0
  0
SPLINE
  5
2EF
100
AcDbEntity
  8
0
100
AcDbSpline
 62
7
  6
BYLAYER
 70
0
 71
3
 72
20
 73
16
 74
0
 42
0.0000001
 43
0.0000001
 44
0.0000000001
 40
0.0
 40
0.0
 40
0.0
 40
0.0
 40
0.0327372911
 40
0.0773029965
 40
0.1324945467
 40
0.1970501585
 40
0.3479701903
 40
0.5140143157
 40
0.6780074673
 40
0.7539611376
 40
0.8230902153
 40
0.883465127
 40
0.933794527
 40
0.9729740866
 40
1.0
 40
1.0
 40
1.0
 40
1.0
 10
25.5861589614
 20
12.3451033554
 30
0.0
 10
25.5822577611
 20
12.3308615837
 30
0.0
 10
25.5756236126
 20
12.2965600192
 30
0.0
 10
25.5675534778
 20
12.2373475227
 30
0.0
 10
25.5603095303
 20
12.1635673675
 30
0.0
 10
25.5516131347
 20
12.0417838729
 30
0.0
 10
25.5449130497
 20
11.869783832
 30
0.0
 10
25.5425316897
 20
11.6528366047
 30
0.0
 10
25.5456838808
 20
11.4697060667
 30
0.0
 10
25.5513612326
 20
11.3304062887
 30
0.0
 10
25.5568289481
 20
11.2378846363
 30
0.0
 10
25.5635455464
 20
11.157046753
 30
0.0
 10
25.5711840698
 20
11.0898355171
 30
0.0
 10
25.5795612436
 20
11.037972221
 30
0.0
 10
25.5863924056
 20
11.0087627636
 30
0.0
 10
25.5905936544
 20
10.9973193353
 30
0.0
  0
SPLINE
  5
2F0
100
AcDbEntity
  8
0
100
AcDbSpline
 62
7
  6
BYLAYER
 70
0
 71
3
 72
9
 73
5
 74
0
 42
0.0000001
 43
0.0000001
 44
0.0000000001
 40
0.0
 40
0.0
 40
0.0
 40
0.0
 40
0.2276079088
 40
1.0
 40
1.0
 40
1.0
 40
1.0
 10
25.6074307042
 20
15.2927920702
 30
0.0
 10
25.6089948919
 20
15.2836204521
 30
0.0
 10
25.6155525728
 20
15.2432711124
 30
0.0
 10
25.621020153
 20
15.2027501722
 30
0.0
 10
25.6248609755
 20
15.1714111872
 30
0.0
  0
SPLINE
  5
2F1
100
AcDbEntity
  8
0
100
AcDbSpline
 62
7
  6
BYLAYER
 70
0
 71
3
 72
9
 73
5
 74
0
 42
0.0000001
 43
0.0000001
 44
0.0000000001
 40
0.0
 40
0.0
 40
0.0
 40
0.0
 40
0.4589095143
 40
1.0
 40
1.0
 40
1.0
 40
1.0
 10
25.6400568521
 20
15.0279940875
 30
0.0
 10
25.6507630891
 20
14.9114955157
 30
0.0
 10
25.6673126577
 20
14.6570218538
 30
0.0
 10
25.6761089406
 20
14.4022183685
 30
0.0
 10
25.6791821847
 20
14.2643127792
 30
0.0
  0
SPLINE
  5
2F2
100
AcDbEntity
  8
0
100
AcDbSpline
 62
7
  6
BYLAYER
 70
0
 71
3
 72
9
 73
5
 74
0
 42
0.0000001
 43
0.0000001
 44
0.0000000001
 40
0.0
 40
0.0
 40
0.0
 40
0.0
 40
0.5545795976
 40
1.0
 40
1.0
 40
1.0
 40
1.0
 10
25.6658366242
 20
13.0907567462
 30
0.0
 10
25.6608372629
 20
12.98818692
 30
0.0
 10
25.6495549207
 20
12.8033448808
 30
0.0
 10
25.631845623
 20
12.6189301464
 30
0.0
 10
25.6210930413
 20
12.5371554817
 30
0.0
  0
SPLINE
  5
2F3
100
AcDbEntity
  8
0
100
AcDbSpline
 62
7
  6
BYLAYER
 70
0
 71
3
 72
9
 73
5
 74
0
 42
0.0000001
 43
0.0000001
 44
0.0000000001
 40
0.0
 40
0.0
 40
0.0
 40
0.0
 40
0.564306527
 40
1.0
 40
1.0
 40
1.0
 40
1.0
 10
25.6173865109
 20
12.5099251051
 30
0.0
 10
25.6129795368
 20
12.4786642055
 30
0.0
 10
25.604250918
 20
12.4233975936
 30
0.0
 10
25.5925923297
 20
12.3686075415
 30
0.0
 10
25.5861591366
 20
12.3450970384
 30
0.0
  0
SPLINE
  5
2F4
100
AcDbEntity
  8
0
100
AcDbSpline
 62
7
  6
BYLAYER
 70
0
 71
3
 72
11
 73
7
 74
0
 42
0.0000001
 43
0.0000001
 44
0.0000000001
 40
0.0
 40
0.0
 40
0.0
 40
0.0
 40
0.2497773135
 40
0.5
 40
0.7502226865
 40
1.0
 40
1.0
 40
1.0
 40
1.0
 10
55.3388638698
 20
57.2627399629
 30
0.0
 10
55.338079029
 20
57.3660612018
 30
0.0
 10
55.2952978164
 20
57.5747859807
 30
0.0
 10
55.1176304682
 20
57.83846232
 30
0.0
 10
54.853954129
 20
58.0161296683
 30
0.0
 10
54.6452293502
 20
58.0589108812
 30
0.0
 10
54.5419081113
 20
58.0596957221
 30
0.0
  0
SPLINE
  5
2F5
100
AcDbEntity
  8
0
100
AcDbSpline
 62
7
  6
BYLAYER
 70
0
 71
3
 72
16
 73
12
 74
0
 42
0.0000001
 43
0.0000001
 44
0.0000000001
 40
0.0
 40
0.0
 40
0.0
 40
0.0
 40
0.3470235345
 40
0.5152260769
 40
0.6672096007
 40
0.7943028279
 40
0.8921096249
 40
0.9292913233
 40
0.959073884
 40
0.9822565206
 40
1.0
 40
1.0
 40
1.0
 40
1.0
 10
26.6216923516
 20
12.6165090823
 30
0.0
 10
26.5267181443
 20
12.6179300186
 30
0.0
 10
26.3856904039
 20
12.6241745879
 30
0.0
 10
26.2039389208
 20
12.6423051012
 30
0.0
 10
26.0826794381
 20
12.6596618637
 30
0.0
 10
25.9816014809
 20
12.6804803942
 30
0.0
 10
25.9125242186
 20
12.7005313542
 30
0.0
 10
25.8709502816
 20
12.71815346
 30
0.0
 10
25.8493317089
 20
12.7301991838
 30
0.0
 10
25.8339774583
 20
12.7421119579
 30
0.0
 10
25.826882308
 20
12.7510683386
 30
0.0
 10
25.8247365933
 20
12.755425249
 30
0.0
  0
SPLINE
  5
2F6
100
AcDbEntity
  8
0
100
AcDbSpline
 62
7
  6
BYLAYER
 70
0
 71
3
 72
11
 73
7
 74
0
 42
0.0000001
 43
0.0000001
 44
0.0000000001
 40
0.0
 40
0.0
 40
0.0
 40
0.0
 40
0.2497773135
 40
0.5
 40
0.7502226865
 40
1.0
 40
1.0
 40
1.0
 40
1.0
 10
46.2388638698
 20
69.3627399629
 30
0.0
 10
46.238079029
 20
69.4660612018
 30
0.0
 10
46.1952978164
 20
69.6747859807
 30
0.0
 10
46.0176304682
 20
69.93846232
 30
0.0
 10
45.753954129
 20
70.1161296683
 30
0.0
 10
45.5452293502
 20
70.1589108812
 30
0.0
 10
45.4419081113
 20
70.1596957221
 30
0.0
  0
SPLINE
  5
2F7
100
AcDbEntity
  8
0
100
AcDbSpline
 62
7
  6
BYLAYER
 70
0
 71
3
 72
16
 73
12
 74
0
 42
0.0000001
 43
0.0000001
 44
0.0000000001
 40
0.0
 40
0.0
 40
0.0
 40
0.0
 40
0.3534613237
 40
0.5156931177
 40
0.6610162956
 40
0.7847996079
 40
0.8833694173
 40
0.9224865246
 40
0.9546885005
 40
0.980244618
 40
1.0
 40
1.0
 40
1.0
 40
1.0
 10
54.5419087505
 20
15.9393439212
 30
0.0
 10
54.6386446815
 20
15.9407911877
 30
0.0
 10
54.7797973176
 20
15.9471598952
 30
0.0
 10
54.9598593095
 20
15.9651598758
 30
0.0
 10
55.0767824255
 20
15.9819293057
 30
0.0
 10
55.175491881
 20
16.0017366842
 30
0.0
 10
55.2445322364
 20
16.0212180592
 30
0.0
 10
55.2876952534
 20
16.0386408848
 30
0.0
 10
55.3112199766
 20
16.0510408121
 30
0.0
 10
55.3283905521
 20
16.0636305086
 30
0.0
 10
55.3364758182
 20
16.073411383
 30
0.0
 10
55.338864509
 20
16.0782624633
 30
0.0
  0
SPLINE
  5
2F8
100
AcDbEntity
  8
0
100
AcDbSpline
 62
7
  6
BYLAYER
 70
0
 71
3
 72
16
 73
12
 74
0
 42
0.0000001
 43
0.0000001
 44
0.0000000001
 40
0.0
 40
0.0
 40
0.0
 40
0.0
 40
0.0177434793
 40
0.0409261157
 40
0.0707086763
 40
0.1078903748
 40
0.2056971711
 40
0.3327903985
 40
0.4847739229
 40
0.6529764647
 40
1.0
 40
1.0
 40
1.0
 40
1.0
 10
55.3901246289
 20
12.7554252486
 30
0.0
 10
55.3879789143
 20
12.7510683383
 30
0.0
 10
55.3808837641
 20
12.7421119575
 30
0.0
 10
55.3655295137
 20
12.7301991835
 30
0.0
 10
55.343910941
 20
12.7181534596
 30
0.0
 10
55.3023370041
 20
12.700531354
 30
0.0
 10
55.2332597421
 20
12.6804803935
 30
0.0
 10
55.1321817847
 20
12.6596618633
 30
0.0
 10
55.010922302
 20
12.6423051006
 30
0.0
 10
54.8291708186
 20
12.6241745873
 30
0.0
 10
54.6881430782
 20
12.6179300178
 30
0.0
 10
54.5931688707
 20
12.6165090817
 30
0.0
  0
SPLINE
  5
2F9
100
AcDbEntity
  8
0
100
AcDbSpline
 62
7
  6
BYLAYER
 70
0
 71
3
 72
11
 73
7
 74
0
 42
0.0000001
 43
0.0000001
 44
0.0000000001
 40
0.0
 40
0.0
 40
0.0
 40
0.0
 40
0.2497773135
 40
0.5
 40
0.7502226865
 40
1.0
 40
1.0
 40
1.0
 40
1.0
 10
35.7729531115
 20
70.1596957221
 30
0.0
 10
35.6696318726
 20
70.1589108812
 30
0.0
 10
35.4609070938
 20
70.1161296686
 30
0.0
 10
35.1972307544
 20
69.9384623205
 30
0.0
 10
35.0195634061
 20
69.6747859813
 30
0.0
 10
34.9767821933
 20
69.4660612025
 30
0.0
 10
34.9759973524
 20
69.3627399636
 30
0.0
  0
ELLIPSE
  5
2FA
100
AcDbEntity
  8
0
100
AcDbEllipse
 62
7
  6
BYLAYER
 10
26.4104864811
 20
57.5252065933
 30
0.0
 11
0.5699988863
 21
-0.5699988863
 31
0.0
 40
0.9924325091
 41
8.6431778956
 42
10.2063780259
  0
ELLIPSE
  5
2FB
100
AcDbEntity
  8
0
100
AcDbEllipse
 62
7
  6
BYLAYER
 10
35.5104864811
 20
69.6252065933
 30
0.0
 11
0.5699988863
 21
-0.5699988863
 31
0.0
 40
0.9924325091
 41
2.3599925885
 42
3.9231927187
  0
ELLIPSE
  5
2FC
100
AcDbEntity
  8
0
100
AcDbEllipse
 62
7
  6
BYLAYER
 10
45.7043747411
 20
69.6252065933
 30
0.0
 11
-0.5699988863
 21
-0.5699988863
 31
0.0
 40
0.9924325091
 41
2.3599925885
 42
3.9231927187
  0
ELLIPSE
  5
2FD
100
AcDbEntity
  8
0
100
AcDbEllipse
 62
7
  6
BYLAYER
 10
54.8043747411
 20
57.5252065933
 30
0.0
 11
-0.5699988863
 21
-0.5699988863
 31
0.0
 40
0.9924325091
 41
8.6431778957
 42
10.2063780259
  0
ENDSEC
  0
SECTION
  2
OBJECTS
  0
DICTIONARY
  5
C
100
AcDbDictionary
280
0
281
1
  3
ACAD_GROUP
350
D
  3
ACAD_MLINESTYLE
350
17
  3
ACAD_LAYOUT
350
1A
  3
ACAD_PLOTSETTINGS
350
19
  3
ACAD_PLOTSTYLENAME
350
E
  0
DICTIONARY
  5
D
102
{ACAD_REACTORS
330
C
102
}
100
AcDbDictionary
280
0
281
1
  0
ACDBDICTIONARYWDFLT
  5
E
102
{ACAD_REACTORS
330
C
102
}
100
AcDbDictionary
281
1
  3
Normal
350
F
100
AcDbDictionaryWithDefault
340
F
  0
DICTIONARY
  5
17
102
{ACAD_REACTORS
330
C
102
}
100
AcDbDictionary
280
0
281
1
  3
Standard
350
18
  0
DICTIONARY
  5
19
102
{ACAD_REACTORS
330
C
102
}
100
AcDbDictionary
281
1
  0
DICTIONARY
  5
1A
102
{ACAD_REACTORS
330
C
102
}
100
AcDbDictionary
281
1
  3
Model
350
2FE
  3
Layout1
350
2FF
  0
ACDBPLACEHOLDER
  5
F
102
{ACAD_REACTORS
330
E
102
}
  0
MLINESTYLE
  5
18
102
{ACAD_REACTORS
330
17
102
}
100
AcDbMlineStyle
  2
STANDARD
 70
0
  3

 62
256
 51
90.0
 52
90.0
 71
2
 49
0.5
 62
256
  6
BYLAYER
 49
-0.5
 62
256
  6
BYLAYER
  0
LAYOUT
  5
2FE
102
{ACAD_REACTORS
330
1A
102
}
100
AcDbPlotSettings
  1

  2
none_device
  4

  6

 40
0.0
 41
0.0
 42
0.0
 43
0.0
 44
210.0
 45
297.0
 46
0.0
 47
0.0
 48
0.0
 49
0.0
140
0.0
141
0.0
142
1.0
143
1.0
 70
1024
 72
1
 73
0
 74
0
  7

 75
0
147
1.0
148
0.0
149
0.0
100
AcDbLayout
  1
Model
 70
0
 71
0
 10
0.0
 20
0.0
 11
210.0
 21
297.0
 12
0.0
 22
0.0
 32
0.0
 14
0.0
 24
0.0
 34
0.0
 15
0.0
 25
0.0
 35
0.0
146
0.0
 13
0.0
 23
0.0
 33
0.0
 16
1.0
 26
0.0
 36
0.0
 17
0.0
 27
1.0
 37
0.0
 76
0
330
210
345
0
346
0
  0
LAYOUT
  5
2FF
102
{ACAD_REACTORS
330
1A
102
}
100
AcDbPlotSettings
  1

  2
none_device
  4

  6

 40
0.0
 41
0.0
 42
0.0
 43
0.0
 44
210.0
 45
297.0
 46
0.0
 47
0.0
 48
0.0
 49
0.0
140
0.0
141
0.0
142
1.0
143
1.0
 70
0
 72
1
 73
0
 74
0
  7

 75
0
147
1.0
148
0.0
149
0.0
100
AcDbLayout
  1
Layout1
 70
0
 71
1
 10
0.0
 20
0.0
 11
210.0
 21
297.0
 12
0.0
 22
0.0
 32
0.0
 14
0.0
 24
0.0
 34
0.0
 15
0.0
 25
0.0
 35
0.0
146
0.0
 13
0.0
 23
0.0
 33
0.0
 16
1.0
 26
0.0
 36
0.0
 17
0.0
 27
1.0
 37
0.0
 76
0
330
211
345
0
346
0
  0
ENDSEC
  0
EOF
