999
DXF file: C:\Users\sesa63760\Dev\_Creo\CAD\MCADID0004768_3D-CAD\drw0001_6.dxf
999
Pro/ENGINEER 2019471 by Parametric Technology Corporation
  0
SECTION
  2
HEADER
  9
$ACADVER
  1
AC1024
  9
$DWGCODEPAGE
  3
ANSI_1252
  9
$EXTMAX
 10
56.057606336
 20
79.281471818
 30
0.0
  9
$EXTMIN
 10
0.0
 20
0.0
 30
0.0
  9
$LIMMIN
 10
0.0
 20
0.0
  9
$LIMMAX
 10
56.057606336
 20
79.281471818
  9
$VIEWCTR
 10
28.028803168
 20
39.640735909
  9
$VIEWSIZE
 40
79.281471818
  9
$CLAYER
  8
0
  9
$LTSCALE
 40
5.1679774222
  9
$CELTYPE
  6
BYLAYER
  9
$DIMSCALE
 40
1.0
  9
$DIMASZ
 40
0.6673524564
  9
$DIMEXO
 40
1.0
  9
$DIMDLI
 40
3.5706025826
  9
$DIMEXE
 40
1.0
  9
$DIMCEN
 40
0.8456690327
  9
$DIMLFAC
 40
1.0
  9
$DIMBLK
  1
_FILLED
  9
$DIMALT
 70
0
  9
$DIMALTF
 40
0.0393700787
  9
$DIMTXT
 40
0.9342934389
  9
$DIMTOL
 70
1
  9
$DIMLIM
 70
0
  9
$DIMTFAC
 40
1.0
  9
$DIMTP
 40
0.01
  9
$DIMTM
 40
0.01
  9
$DIMGAP
 40
0.625
  9
$DIMDSEP
 70
46
  9
$AUNITS
 70
0
  9
$PDMODE
 70
3
  9
$PDSIZE
 40
0.3125
  9
$HANDSEED
  5
2FD
  9
$TILEMODE
 70
1
  9
$MEASUREMENT
 70
1
  9
$INSUNITS
 70
4
  0
ENDSEC
  0
SECTION
  2
CLASSES
  0
CLASS
  1
ACDBDICTIONARYWDFLT
  2
AcDbDictionaryWithDefault
  3
AutoCAD 2000
 90
0
 91
1
280
0
281
0
  0
CLASS
  1
ACDBPLACEHOLDER
  2
AcDbPlaceHolder
  3
AutoCAD 2000
 90
0
 91
1
280
0
281
0
  0
CLASS
  1
LAYOUT
  2
AcDbLayout
  3
AutoCAD 2000
 90
0
 91
0
280
0
281
0
  0
ENDSEC
  0
SECTION
  2
TABLES
  0
TABLE
  2
VPORT
  5
8
100
AcDbSymbolTable
 70
2
  0
VPORT
  5
1F4
100
AcDbSymbolTableRecord
100
AcDbViewportTableRecord
  2
*ACTIVE
 70
0
 10
0.0
 20
0.0
 11
1.0
 21
1.0
 12
28.028803168
 22
39.640735909
 13
0.0
 23
0.0
 14
1.0
 24
1.0
 15
0.0
 25
0.0
 16
0.0
 26
0.0
 36
1.0
 17
0.0
 27
0.0
 37
0.0
 40
79.281471818
 41
0.7070707071
 42
50.0
 43
0.0
 44
0.0
 50
0.0
 51
0.0
 71
0
 72
100
 73
1
 74
1
 75
0
 76
0
 77
0
 78
0
  0
ENDTAB
  0
TABLE
  2
LTYPE
  5
5
100
AcDbSymbolTable
 70
6
  0
LTYPE
  5
14
100
AcDbSymbolTableRecord
100
AcDbLinetypeTableRecord
  2
BYBLOCK
 70
0
  3

 72
65
 73
0
 40
0.0
  0
LTYPE
  5
15
100
AcDbSymbolTableRecord
100
AcDbLinetypeTableRecord
  2
BYLAYER
 70
0
  3

 72
65
 73
0
 40
0.0
  0
LTYPE
  5
16
100
AcDbSymbolTableRecord
100
AcDbLinetypeTableRecord
  2
CONTINUOUS
 70
64
  3
Solid line
 72
65
 73
0
 40
0.0
  0
LTYPE
  5
1F5
100
AcDbSymbolTableRecord
100
AcDbLinetypeTableRecord
  2
CENTER
 70
64
  3
____ _ ____ _ ____ _ ____ _ ____ _ ____ _ ____
 72
65
 73
4
 40
0.6
 49
0.375
 74
0
 49
-0.075
 74
0
 49
0.075
 74
0
 49
-0.075
 74
0
  0
LTYPE
  5
1F6
100
AcDbSymbolTableRecord
100
AcDbLinetypeTableRecord
  2
HIDDEN
 70
64
  3
- - - - - - - - - - - - - - - - - - - -
 72
65
 73
2
 40
0.2
 49
0.1
 74
0
 49
-0.1
 74
0
  0
LTYPE
  5
1F7
100
AcDbSymbolTableRecord
100
AcDbLinetypeTableRecord
  2
PHANTOM
 70
64
  3
_____ _ _ _____ _ _ _____ _ _ _____
 72
65
 73
6
 40
0.8
 49
0.45
 74
0
 49
-0.05
 74
0
 49
0.1
 74
0
 49
-0.05
 74
0
 49
0.1
 74
0
 49
-0.05
 74
0
  0
LTYPE
  5
1F8
100
AcDbSymbolTableRecord
100
AcDbLinetypeTableRecord
  2
DOT
 70
64
  3
. . . . . . . . . . . . . . . . . . . .
 72
65
 73
2
 40
0.2
 49
0.1
 74
0
 49
-0.1
 74
0
  0
LTYPE
  5
1F9
100
AcDbSymbolTableRecord
100
AcDbLinetypeTableRecord
  2
DASHED
 70
64
  3
- - - - - - - - - - - - - - - - - - - -
 72
65
 73
2
 40
0.2
 49
0.1
 74
0
 49
-0.1
 74
0
  0
ENDTAB
  0
TABLE
  2
LAYER
  5
2
100
AcDbSymbolTable
 70
36
  0
LAYER
  5
10
100
AcDbSymbolTableRecord
100
AcDbLayerTableRecord
  2
0
 70
0
 62
7
  6
CONTINUOUS
370
-3
390
F
  0
LAYER
  5
1FA
100
AcDbSymbolTableRecord
100
AcDbLayerTableRecord
  2
DEFAULT_1
 70
0
 62
7
  6
CENTER
370
-3
390
F
  0
LAYER
  5
1FB
100
AcDbSymbolTableRecord
100
AcDbLayerTableRecord
  2
DEFAULT_2
 70
0
 62
7
  6
HIDDEN
370
-3
390
F
  0
LAYER
  5
1FC
100
AcDbSymbolTableRecord
100
AcDbLayerTableRecord
  2
DEFAULT_3
 70
0
 62
7
  6
PHANTOM
370
-3
390
F
  0
LAYER
  5
1FD
100
AcDbSymbolTableRecord
100
AcDbLayerTableRecord
  2
00_COMPONENTS
 70
0
 62
7
  6
CONTINUOUS
370
-3
390
F
  0
LAYER
  5
1FE
100
AcDbSymbolTableRecord
100
AcDbLayerTableRecord
  2
01_1_DEFAULT_DATUMS
 70
0
 62
7
  6
CONTINUOUS
370
-3
390
F
  0
LAYER
  5
1FF
100
AcDbSymbolTableRecord
100
AcDbLayerTableRecord
  2
01_PLANES
 70
0
 62
7
  6
CONTINUOUS
370
-3
390
F
  0
LAYER
  5
200
100
AcDbSymbolTableRecord
100
AcDbLayerTableRecord
  2
02_COORD_SYS
 70
0
 62
7
  6
CONTINUOUS
370
-3
390
F
  0
LAYER
  5
201
100
AcDbSymbolTableRecord
100
AcDbLayerTableRecord
  2
03_AXES
 70
0
 62
7
  6
CONTINUOUS
370
-3
390
F
  0
LAYER
  5
202
100
AcDbSymbolTableRecord
100
AcDbLayerTableRecord
  2
04_POINTS
 70
0
 62
7
  6
CONTINUOUS
370
-3
390
F
  0
LAYER
  5
203
100
AcDbSymbolTableRecord
100
AcDbLayerTableRecord
  2
05_CURVES
 70
0
 62
7
  6
CONTINUOUS
370
-3
390
F
  0
LAYER
  5
204
100
AcDbSymbolTableRecord
100
AcDbLayerTableRecord
  2
06_SURFS
 70
0
 62
7
  6
CONTINUOUS
370
-3
390
F
  0
LAYER
  5
205
100
AcDbSymbolTableRecord
100
AcDbLayerTableRecord
  2
07_COSMETICS
 70
0
 62
7
  6
CONTINUOUS
370
-3
390
F
  0
LAYER
  5
206
100
AcDbSymbolTableRecord
100
AcDbLayerTableRecord
  2
10_NOTES
 70
0
 62
7
  6
CONTINUOUS
370
-3
390
F
  0
LAYER
  5
207
100
AcDbSymbolTableRecord
100
AcDbLayerTableRecord
  2
11_NOTES_PUB
 70
0
 62
7
  6
CONTINUOUS
370
-3
390
F
  0
LAYER
  5
208
100
AcDbSymbolTableRecord
100
AcDbLayerTableRecord
  2
13_REF_GTOL
 70
0
 62
7
  6
CONTINUOUS
370
-3
390
F
  0
LAYER
  5
209
100
AcDbSymbolTableRecord
100
AcDbLayerTableRecord
  2
16_MISC
 70
0
 62
7
  6
CONTINUOUS
370
-3
390
F
  0
LAYER
  5
20A
100
AcDbSymbolTableRecord
100
AcDbLayerTableRecord
  2
17_NO_PRINT
 70
0
 62
7
  6
CONTINUOUS
370
-3
390
F
  0
LAYER
  5
20B
100
AcDbSymbolTableRecord
100
AcDbLayerTableRecord
  2
18_DATUM_CAMS_JOINTS
 70
0
 62
7
  6
CONTINUOUS
370
-3
390
F
  0
LAYER
  5
20C
100
AcDbSymbolTableRecord
100
AcDbLayerTableRecord
  2
19_DATUM_FUNCTIONAL
 70
0
 62
7
  6
CONTINUOUS
370
-3
390
F
  0
LAYER
  5
20D
100
AcDbSymbolTableRecord
100
AcDbLayerTableRecord
  2
20_DATUM_KINEMATIC_SCHEME
 70
0
 62
7
  6
CONTINUOUS
370
-3
390
F
  0
ENDTAB
  0
TABLE
  2
STYLE
  5
3
100
AcDbSymbolTable
 70
1
  0
STYLE
  5
11
100
AcDbSymbolTableRecord
100
AcDbTextStyleTableRecord
  2
STANDARD
 70
0
 40
0.0
 41
1.0
 50
0.0
 71
0
 42
0.2
  3
ARIAL.TTF
  4

  0
STYLE
  5
20E
100
AcDbSymbolTableRecord
100
AcDbTextStyleTableRecord
  2
TEXTSTYLE_1
 70
0
 40
0.0
 41
0.8
 50
0.0
 71
0
 42
0.2
  3
gdt
  4

  0
ENDTAB
  0
TABLE
  2
VIEW
  5
6
100
AcDbSymbolTable
 70
0
  0
ENDTAB
  0
TABLE
  2
UCS
  5
7
100
AcDbSymbolTable
 70
0
  0
ENDTAB
  0
TABLE
  2
APPID
  5
9
100
AcDbSymbolTable
 70
1
  0
APPID
  5
20F
100
AcDbSymbolTableRecord
100
AcDbRegAppTableRecord
  2
ACAD
 70
0
  0
ENDTAB
  0
TABLE
  2
BLOCK_RECORD
  5
1
100
AcDbSymbolTable
 70
0
  0
BLOCK_RECORD
  5
210
100
AcDbSymbolTableRecord
100
AcDbBlockTableRecord
  2
*Model_Space
  0
BLOCK_RECORD
  5
211
100
AcDbSymbolTableRecord
100
AcDbBlockTableRecord
  2
*Paper_Space
  0
BLOCK_RECORD
  5
212
100
AcDbSymbolTableRecord
100
AcDbBlockTableRecord
  2
_FILLED
  0
ENDTAB
  0
TABLE
  2
DIMSTYLE
  5
A
100
AcDbSymbolTable
 70
1
100
AcDbDimStyleTable
 71
0
  0
DIMSTYLE
105
213
100
AcDbSymbolTableRecord
100
AcDbDimStyleTableRecord
  2
STANDARD
 70
0
  3

  4

 40
1.0
 41
0.6673524564
 42
1.0
 43
0.38
 44
1.0
 45
0.0
 46
0.0
 47
0.01
 48
0.01
140
0.9342934389
141
0.09
142
0.0
143
25.4
144
1.0
145
0.0
146
1.0
147
0.625
 71
1
 72
0
 73
0
 74
0
 75
0
 76
0
 77
1
 78
8
 79
2
170
0
171
1
172
0
173
0
174
0
175
0
176
0
177
0
178
0
270
2
179
2
271
2
272
2
273
2
274
2
275
0
280
0
281
0
282
0
283
1
284
8
285
0
286
0
287
3
288
0
340
11
278
46
341
212
342
212
343
212
344
212
  0
ENDTAB
  0
ENDSEC
  0
SECTION
  2
BLOCKS
  0
BLOCK
  5
20
100
AcDbEntity
  8
0
100
AcDbBlockBegin
  2
*Model_Space
 70
0
 10
0.0
 20
0.0
 30
0.0
  3
*Model_Space
  1

  0
ENDBLK
  5
21
100
AcDbEntity
  8
0
100
AcDbBlockEnd
  0
BLOCK
  5
1C
100
AcDbEntity
  8
0
100
AcDbBlockBegin
  2
*Paper_Space
 70
0
 10
0.0
 20
0.0
 30
0.0
  3
*Paper_Space
  1

  0
ENDBLK
  5
1D
100
AcDbEntity
  8
0
100
AcDbBlockEnd
  0
BLOCK
  5
214
100
AcDbEntity
  8
0
100
AcDbBlockBegin
  2
_FILLED
 70
64
 10
0.0
 20
0.0
  3
_FILLED
  1

  0
SOLID
  5
215
100
AcDbEntity
  8
0
  6
BYBLOCK
 62
0
100
AcDbTrace
 10
0.0
 20
0.0
 11
-1.0
 21
0.25
 12
-1.0
 22
-0.25
 13
-1.0
 23
-0.25
  0
ENDBLK
  5
216
100
AcDbEntity
  8
0
  6
BYBLOCK
 62
0
100
AcDbBlockEnd
  0
ENDSEC
  0
SECTION
  2
ENTITIES
  0
LINE
  5
217
100
AcDbEntity
  8
0
100
AcDbLine
 62
7
  6
BYLAYER
 10
38.4409268026
 20
6.5501828001
 11
25.6870769857
 21
6.5501828001
  0
LINE
  5
218
100
AcDbEntity
  8
0
100
AcDbLine
 62
7
  6
BYLAYER
 10
38.7916496288
 20
6.9633587113
 11
37.3774360664
 21
6.9633587113
  0
LINE
  5
219
100
AcDbEntity
  8
0
100
AcDbLine
 62
7
  6
BYLAYER
 10
35.5207266195
 20
6.9633587113
 11
28.6072771684
 21
6.9633587113
  0
LINE
  5
21A
100
AcDbEntity
  8
0
100
AcDbLine
 62
7
  6
BYLAYER
 10
26.7505677214
 20
6.9633587113
 11
26.3659505349
 21
6.9633587113
  0
LINE
  5
21B
100
AcDbEntity
  8
0
100
AcDbLine
 62
7
  6
BYLAYER
 10
25.6588446972
 20
6.9633587113
 11
25.3363541591
 21
6.9633587113
  0
LINE
  5
21C
100
AcDbEntity
  8
0
100
AcDbLine
 62
7
  6
BYLAYER
 10
26.1450115326
 20
7.0001854911
 11
26.3613517916
 21
7.0001850639
  0
LINE
  5
21D
100
AcDbEntity
  8
0
100
AcDbLine
 62
7
  6
BYLAYER
 10
26.3426185206
 20
7.1501828001
 11
26.2511066599
 21
7.1501828001
  0
LINE
  5
21E
100
AcDbEntity
  8
0
100
AcDbLine
 62
7
  6
BYLAYER
 10
26.1466520239
 20
7.2741355734
 11
26.3271380143
 21
7.2741355734
  0
LINE
  5
21F
100
AcDbEntity
  8
0
100
AcDbLine
 62
7
  6
BYLAYER
 10
28.2884371912
 20
9.487006889
 11
35.8395665967
 21
9.487006889
  0
LINE
  5
220
100
AcDbEntity
  8
0
100
AcDbLine
 62
7
  6
BYLAYER
 10
41.209244942
 20
9.9001828001
 11
25.9605241479
 21
9.9001828001
  0
LINE
  5
221
100
AcDbEntity
  8
0
100
AcDbLine
 62
7
  6
BYLAYER
 10
25.2920864619
 20
9.9001828001
 11
22.919101386
 21
9.9001828001
  0
LINE
  5
222
100
AcDbEntity
  8
0
100
AcDbLine
 62
7
  6
BYLAYER
 10
41.6423140574
 20
10.1501828001
 11
25.6538999715
 21
10.1501828001
  0
LINE
  5
223
100
AcDbEntity
  8
0
100
AcDbLine
 62
7
  6
BYLAYER
 10
24.9467933608
 20
10.1501828001
 11
22.4856897304
 21
10.1501828001
  0
LINE
  5
224
100
AcDbEntity
  8
0
100
AcDbLine
 62
7
  6
BYLAYER
 10
21.9188552426
 20
11.1323201369
 11
24.5453206315
 21
11.1323201369
  0
LINE
  5
225
100
AcDbEntity
  8
0
100
AcDbLine
 62
7
  6
BYLAYER
 10
25.2524274127
 20
11.1323201369
 11
42.2093513132
 21
11.1323201369
  0
LINE
  5
226
100
AcDbEntity
  8
0
100
AcDbLine
 62
7
  6
BYLAYER
 10
43.3640018939
 20
11.3001828001
 11
40.7640018939
 21
11.3001828001
  0
LINE
  5
227
100
AcDbEntity
  8
0
100
AcDbLine
 62
7
  6
BYLAYER
 10
25.2050158134
 20
11.3720534238
 11
25.0702791802
 21
11.3720534238
  0
LINE
  5
228
100
AcDbEntity
  8
0
100
AcDbLine
 62
7
  6
BYLAYER
 10
40.6905907604
 20
11.3735939337
 11
25.2043517734
 21
11.3735939337
  0
LINE
  5
229
100
AcDbEntity
  8
0
100
AcDbLine
 62
7
  6
BYLAYER
 10
24.4985894088
 20
11.3735939337
 11
21.8519454342
 21
11.3735939337
  0
LINE
  5
22A
100
AcDbEntity
  8
0
100
AcDbLine
 62
7
  6
BYLAYER
 10
43.5640018939
 20
11.5001828001
 11
40.5640018939
 21
11.5001828001
  0
LINE
  5
22B
100
AcDbEntity
  8
0
100
AcDbLine
 62
7
  6
BYLAYER
 10
25.0139948086
 20
11.8345757085
 11
25.1993262874
 21
11.8345757085
  0
LINE
  5
22C
100
AcDbEntity
  8
0
100
AcDbLine
 62
7
  6
BYLAYER
 10
23.3640018939
 20
11.9001828001
 11
20.7640018939
 21
11.9001828001
  0
LINE
  5
22D
100
AcDbEntity
  8
0
100
AcDbLine
 62
7
  6
BYLAYER
 10
23.5640018939
 20
12.1001828001
 11
20.5640018939
 21
12.1001828001
  0
LINE
  5
22E
100
AcDbEntity
  8
0
100
AcDbLine
 62
7
  6
BYLAYER
 10
20.7640018939
 20
11.9001828001
 11
20.5640018939
 21
12.1001828001
  0
LINE
  5
22F
100
AcDbEntity
  8
0
100
AcDbLine
 62
7
  6
BYLAYER
 10
40.5640018939
 20
16.3001828001
 11
43.5640018939
 21
16.3001828001
  0
LINE
  5
230
100
AcDbEntity
  8
0
100
AcDbLine
 62
7
  6
BYLAYER
 10
40.6640018939
 20
16.4001828001
 11
25.1432726943
 21
16.4001828001
  0
LINE
  5
231
100
AcDbEntity
  8
0
100
AcDbLine
 62
7
  6
BYLAYER
 10
24.4352750485
 20
16.4001828001
 11
23.5640018939
 21
16.4001828001
  0
LINE
  5
232
100
AcDbEntity
  8
0
100
AcDbLine
 62
7
  6
BYLAYER
 10
25.1429766845
 20
16.4054189208
 11
24.957578743
 21
16.4054189208
  0
LINE
  5
233
100
AcDbEntity
  8
0
100
AcDbLine
 62
7
  6
BYLAYER
 10
43.3640018939
 20
16.5001828001
 11
40.7640018939
 21
16.5001828001
  0
LINE
  5
234
100
AcDbEntity
  8
0
100
AcDbLine
 62
7
  6
BYLAYER
 10
44.0639566846
 20
16.8001828001
 11
43.3640018939
 21
16.8001828001
  0
LINE
  5
235
100
AcDbEntity
  8
0
100
AcDbLine
 62
7
  6
BYLAYER
 10
42.8446828683
 20
16.8001828001
 11
37.5964233505
 21
16.8001828001
  0
LINE
  5
236
100
AcDbEntity
  8
0
100
AcDbLine
 62
7
  6
BYLAYER
 10
26.5315804374
 20
16.8001828001
 11
21.2833209196
 21
16.8001828001
  0
LINE
  5
237
100
AcDbEntity
  8
0
100
AcDbLine
 62
7
  6
BYLAYER
 10
20.5640018939
 20
16.8001828001
 11
20.0640471033
 21
16.8001828001
  0
LINE
  5
238
100
AcDbEntity
  8
0
100
AcDbLine
 62
7
  6
BYLAYER
 10
20.5640018939
 20
16.9001828001
 11
21.2833209196
 21
16.9001828001
  0
LINE
  5
239
100
AcDbEntity
  8
0
100
AcDbLine
 62
7
  6
BYLAYER
 10
21.2833209196
 20
17.1001828001
 11
20.7640018939
 21
17.1001828001
  0
LINE
  5
23A
100
AcDbEntity
  8
0
100
AcDbLine
 62
7
  6
BYLAYER
 10
18.564002945
 20
17.4001828001
 11
45.5640008379
 21
17.4001828001
  0
LINE
  5
23B
100
AcDbEntity
  8
0
100
AcDbLine
 62
7
  6
BYLAYER
 10
21.9186524747
 20
11.1323201369
 11
22.4856897304
 21
10.1501828001
  0
LINE
  5
23C
100
AcDbEntity
  8
0
100
AcDbLine
 62
7
  6
BYLAYER
 10
11.4640018939
 20
36.2003182658
 11
11.4640018939
 21
40.4000473345
  0
LINE
  5
23D
100
AcDbEntity
  8
0
100
AcDbLine
 62
7
  6
BYLAYER
 10
11.8640188084
 20
35.8001828001
 11
11.8640188084
 21
40.8001828001
  0
LINE
  5
23E
100
AcDbEntity
  8
0
100
AcDbLine
 62
7
  6
BYLAYER
 10
17.8640018939
 20
50.4696964238
 11
24.8640018939
 21
58.7963188723
  0
LINE
  5
23F
100
AcDbEntity
  8
0
100
AcDbLine
 62
7
  6
BYLAYER
 10
24.8640018939
 20
58.1840198651
 11
17.8640018939
 21
49.8573974166
  0
LINE
  5
240
100
AcDbEntity
  8
0
100
AcDbLine
 62
7
  6
BYLAYER
 10
18.564002945
 20
23.9001828001
 11
45.5640008379
 21
23.9001828001
  0
LINE
  5
241
100
AcDbEntity
  8
0
100
AcDbLine
 62
7
  6
BYLAYER
 10
15.1640018939
 20
35.1001845704
 11
15.1640018939
 21
41.5001810299
  0
LINE
  5
242
100
AcDbEntity
  8
0
100
AcDbLine
 62
7
  6
BYLAYER
 10
15.1640018939
 20
41.5001828001
 11
15.6258821093
 21
42.3001828001
  0
LINE
  5
243
100
AcDbEntity
  8
0
100
AcDbLine
 62
7
  6
BYLAYER
 10
19.8640018939
 20
49.1308227905
 11
26.8640018939
 21
57.457445239
  0
LINE
  5
244
100
AcDbEntity
  8
0
100
AcDbLine
 62
7
  6
BYLAYER
 10
11.4640138914
 20
40.4001686103
 11
11.8640188084
 21
40.8001685392
  0
LINE
  5
245
100
AcDbEntity
  8
0
100
AcDbLine
 62
7
  6
BYLAYER
 10
18.6140018939
 20
25.9001828001
 11
25.3140018939
 21
25.9001828001
  0
LINE
  5
246
100
AcDbEntity
  8
0
100
AcDbLine
 62
7
  6
BYLAYER
 10
23.7874230905
 20
27.1001828001
 11
24.3901410009
 21
27.1001828001
  0
LINE
  5
247
100
AcDbEntity
  8
0
100
AcDbLine
 62
7
  6
BYLAYER
 10
11.4640138914
 20
36.20019699
 11
11.8640188084
 21
35.8001970611
  0
LINE
  5
248
100
AcDbEntity
  8
0
100
AcDbLine
 62
7
  6
BYLAYER
 10
15.1640018939
 20
35.1001828001
 11
15.6258821093
 21
34.3001828001
  0
LINE
  5
249
100
AcDbEntity
  8
0
100
AcDbLine
 62
7
  6
BYLAYER
 10
21.9186524746
 20
11.1323201369
 11
21.851741329
 21
11.3735939337
  0
LINE
  5
24A
100
AcDbEntity
  8
0
100
AcDbLine
 62
7
  6
BYLAYER
 10
17.8640018939
 20
30.3236836871
 11
17.8640018939
 21
50.4696964238
  0
LINE
  5
24B
100
AcDbEntity
  8
0
100
AcDbLine
 62
7
  6
BYLAYER
 10
18.5640018939
 20
23.9001828001
 11
18.5640018939
 21
17.4001828001
  0
LINE
  5
24C
100
AcDbEntity
  8
0
100
AcDbLine
 62
7
  6
BYLAYER
 10
18.6140018939
 20
23.9001828001
 11
18.6140018939
 21
25.9001828001
  0
LINE
  5
24D
100
AcDbEntity
  8
0
100
AcDbLine
 62
7
  6
BYLAYER
 10
19.2150201638
 20
27.626329523
 11
23.7432686049
 21
27.626329523
  0
LINE
  5
24E
100
AcDbEntity
  8
0
100
AcDbLine
 62
7
  6
BYLAYER
 10
24.3654710361
 20
27.626329523
 11
24.9129836241
 21
27.626329523
  0
LINE
  5
24F
100
AcDbEntity
  8
0
100
AcDbLine
 62
7
  6
BYLAYER
 10
19.5138785732
 20
27.9001828001
 11
24.6141252147
 21
27.9001828001
  0
LINE
  5
250
100
AcDbEntity
  8
0
100
AcDbLine
 62
7
  6
BYLAYER
 10
40.7640018939
 20
11.3001828001
 11
40.5640018939
 21
11.5001828001
  0
LINE
  5
251
100
AcDbEntity
  8
0
100
AcDbLine
 62
7
  6
BYLAYER
 10
21.8425496861
 20
11.9001828001
 11
21.851741329
 21
11.3735939337
  0
LINE
  5
252
100
AcDbEntity
  8
0
100
AcDbLine
 62
7
  6
BYLAYER
 10
19.2639050441
 20
17.4001828001
 11
19.2639032136
 21
23.9001828001
  0
LINE
  5
253
100
AcDbEntity
  8
0
100
AcDbLine
 62
7
  6
BYLAYER
 10
19.8640018939
 20
30.3236836871
 11
19.8640018939
 21
36.9065163792
  0
LINE
  5
254
100
AcDbEntity
  8
0
100
AcDbLine
 62
7
  6
BYLAYER
 10
19.8640018939
 20
36.9083432184
 11
19.8640018939
 21
38.4899954924
  0
LINE
  5
255
100
AcDbEntity
  8
0
100
AcDbLine
 62
7
  6
BYLAYER
 10
19.8640018939
 20
38.9129322597
 11
19.8640018939
 21
49.1308227905
  0
LINE
  5
256
100
AcDbEntity
  8
0
100
AcDbLine
 62
7
  6
BYLAYER
 10
20.0640018939
 20
16.8001828001
 11
20.0640018939
 21
17.4001828001
  0
LINE
  5
257
100
AcDbEntity
  8
0
100
AcDbLine
 62
7
  6
BYLAYER
 10
20.2226607478
 20
16.8001828001
 11
20.2226607478
 21
17.4001828001
  0
LINE
  5
258
100
AcDbEntity
  8
0
100
AcDbLine
 62
7
  6
BYLAYER
 10
20.3640018939
 20
43.300141499
 11
20.3640018939
 21
33.3002241013
  0
LINE
  5
259
100
AcDbEntity
  8
0
100
AcDbLine
 62
7
  6
BYLAYER
 10
20.5640018939
 20
12.1001828001
 11
20.5640018939
 21
16.9001828001
  0
LINE
  5
25A
100
AcDbEntity
  8
0
100
AcDbLine
 62
7
  6
BYLAYER
 10
20.6640035924
 20
35.4678109239
 11
20.6640035924
 21
42.3001828001
  0
LINE
  5
25B
100
AcDbEntity
  8
0
100
AcDbLine
 62
7
  6
BYLAYER
 10
20.7640018939
 20
17.1001828001
 11
20.7640018939
 21
17.4001828001
  0
LINE
  5
25C
100
AcDbEntity
  8
0
100
AcDbLine
 62
7
  6
BYLAYER
 10
21.2833209196
 20
17.4001828001
 11
21.2833209196
 21
16.8001828001
  0
LINE
  5
25D
100
AcDbEntity
  8
0
100
AcDbLine
 62
7
  6
BYLAYER
 10
20.417400259
 20
16.8001828001
 11
20.4256046725
 21
17.4001828001
  0
LINE
  5
25E
100
AcDbEntity
  8
0
100
AcDbLine
 62
7
  6
BYLAYER
 10
19.0640018939
 20
25.9001828001
 11
19.2150201638
 21
27.626329523
  0
LINE
  5
25F
100
AcDbEntity
  8
0
100
AcDbLine
 62
7
  6
BYLAYER
 10
34.5640018939
 20
58.7532750341
 11
34.0640018939
 21
58.2532750341
  0
LINE
  5
260
100
AcDbEntity
  8
0
100
AcDbLine
 62
7
  6
BYLAYER
 10
20.3640018939
 20
42.0001812291
 11
20.6640035924
 21
42.3001828001
  0
LINE
  5
261
100
AcDbEntity
  8
0
100
AcDbLine
 62
7
  6
BYLAYER
 10
17.8640018939
 20
30.3236836871
 11
19.8640018939
 21
30.3236836871
  0
LINE
  5
262
100
AcDbEntity
  8
0
100
AcDbLine
 62
7
  6
BYLAYER
 10
22.1640026077
 20
33.9751850654
 11
22.4640043269
 21
33.6751835529
  0
LINE
  5
263
100
AcDbEntity
  8
0
100
AcDbLine
 62
7
  6
BYLAYER
 10
17.8640018939
 20
41.5001828001
 11
17.4021216786
 21
42.3001828001
  0
LINE
  5
264
100
AcDbEntity
  8
0
100
AcDbLine
 62
7
  6
BYLAYER
 10
25.0640018939
 20
25.9001828001
 11
24.9129836241
 21
27.626329523
  0
LINE
  5
265
100
AcDbEntity
  8
0
100
AcDbLine
 62
7
  6
BYLAYER
 10
22.1640018939
 20
33.975337537
 11
22.1640018939
 21
42.6250280633
  0
LINE
  5
266
100
AcDbEntity
  8
0
100
AcDbLine
 62
7
  6
BYLAYER
 10
22.4640043269
 20
33.6751828001
 11
22.4640043269
 21
42.9251828001
  0
LINE
  5
267
100
AcDbEntity
  8
0
100
AcDbLine
 62
7
  6
BYLAYER
 10
22.5816399842
 20
16.8001828001
 11
22.5816399842
 21
17.4001828001
  0
LINE
  5
268
100
AcDbEntity
  8
0
100
AcDbLine
 62
7
  6
BYLAYER
 10
23.3640018939
 20
61.2032777661
 11
23.3640018939
 21
65.3032723021
  0
LINE
  5
269
100
AcDbEntity
  8
0
100
AcDbLine
 62
7
  6
BYLAYER
 10
23.5640018939
 20
12.1001828001
 11
23.5640018939
 21
16.8001828001
  0
LINE
  5
26A
100
AcDbEntity
  8
0
100
AcDbLine
 62
7
  6
BYLAYER
 10
23.8140018939
 20
45.8001828001
 11
23.8140018939
 21
27.9001828001
  0
LINE
  5
26B
100
AcDbEntity
  8
0
100
AcDbLine
 62
7
  6
BYLAYER
 10
17.8640018939
 20
35.1001828001
 11
17.4021216786
 21
34.3001828001
  0
LINE
  5
26C
100
AcDbEntity
  8
0
100
AcDbLine
 62
7
  6
BYLAYER
 10
22.1640026077
 20
42.6251805349
 11
22.4640043269
 21
42.9251820474
  0
LINE
  5
26D
100
AcDbEntity
  8
0
100
AcDbLine
 62
7
  6
BYLAYER
 10
20.3640018939
 20
33.3001828001
 11
19.8640018939
 21
33.3001828001
  0
LINE
  5
26E
100
AcDbEntity
  8
0
100
AcDbLine
 62
7
  6
BYLAYER
 10
22.4640050796
 20
33.6751828001
 11
23.8140018939
 21
33.6751828001
  0
LINE
  5
26F
100
AcDbEntity
  8
0
100
AcDbLine
 62
7
  6
BYLAYER
 10
15.6258821093
 20
34.3001828001
 11
17.4021216786
 21
34.3001828001
  0
LINE
  5
270
100
AcDbEntity
  8
0
100
AcDbLine
 62
7
  6
BYLAYER
 10
43.5640018939
 20
16.3001828001
 11
43.3640018939
 21
16.5001828001
  0
LINE
  5
271
100
AcDbEntity
  8
0
100
AcDbLine
 62
7
  6
BYLAYER
 10
25.9361228638
 20
7.2481742845
 11
25.5978888902
 21
9.9609237774
  0
LINE
  5
272
100
AcDbEntity
  8
0
100
AcDbLine
 62
7
  6
BYLAYER
 10
25.8122231345
 20
9.9563902633
 11
26.1466520239
 21
7.2741355734
  0
LINE
  5
273
100
AcDbEntity
  8
0
100
AcDbLine
 62
7
  6
BYLAYER
 10
24.4358699033
 20
16.4001828001
 11
24.4979090322
 21
11.3735939337
  0
LINE
  5
274
100
AcDbEntity
  8
0
100
AcDbLine
 62
7
  6
BYLAYER
 10
24.8018790555
 20
11.8319330656
 11
24.7454470447
 21
16.4041190705
  0
LINE
  5
275
100
AcDbEntity
  8
0
100
AcDbLine
 62
7
  6
BYLAYER
 10
24.957578743
 20
16.4054189208
 11
25.0139948086
 21
11.8345757085
  0
LINE
  5
276
100
AcDbEntity
  8
0
100
AcDbLine
 62
7
  6
BYLAYER
 10
25.2050158134
 20
11.3735939337
 11
25.1429766845
 21
16.4001828001
  0
LINE
  5
277
100
AcDbEntity
  8
0
100
AcDbLine
 62
7
  6
BYLAYER
 10
24.4358699033
 20
16.4001828001
 11
24.4358564187
 21
16.8001828001
  0
LINE
  5
278
100
AcDbEntity
  8
0
100
AcDbLine
 62
7
  6
BYLAYER
 10
24.7454471631
 20
16.8001828001
 11
24.7454470447
 21
16.4041190705
  0
LINE
  5
279
100
AcDbEntity
  8
0
100
AcDbLine
 62
7
  6
BYLAYER
 10
24.8640018939
 20
58.1840198651
 11
24.8640018939
 21
68.2531971041
  0
LINE
  5
27A
100
AcDbEntity
  8
0
100
AcDbLine
 62
7
  6
BYLAYER
 10
24.957578743
 20
16.4054189208
 11
24.957578743
 21
16.8001828001
  0
LINE
  5
27B
100
AcDbEntity
  8
0
100
AcDbLine
 62
7
  6
BYLAYER
 10
25.1429631999
 20
16.8001828001
 11
25.1429766845
 21
16.4001828001
  0
LINE
  5
27C
100
AcDbEntity
  8
0
100
AcDbLine
 62
7
  6
BYLAYER
 10
25.3140018939
 20
45.8001828001
 11
25.3140018939
 21
25.9001828001
  0
LINE
  5
27D
100
AcDbEntity
  8
0
100
AcDbLine
 62
7
  6
BYLAYER
 10
22.1640018939
 20
35.1438126439
 11
20.6640031408
 21
35.1438126285
  0
LINE
  5
27E
100
AcDbEntity
  8
0
100
AcDbLine
 62
7
  6
BYLAYER
 10
20.6640031408
 20
35.4678108357
 11
22.1640018939
 21
35.4678108203
  0
LINE
  5
27F
100
AcDbEntity
  8
0
100
AcDbLine
 62
7
  6
BYLAYER
 10
11.8640330695
 20
35.8001828001
 11
15.1640018939
 21
35.8001828001
  0
LINE
  5
280
100
AcDbEntity
  8
0
100
AcDbLine
 62
7
  6
BYLAYER
 10
15.6258821093
 20
36.3001828001
 11
17.4021216786
 21
36.3001828001
  0
LINE
  5
281
100
AcDbEntity
  8
0
100
AcDbLine
 62
7
  6
BYLAYER
 10
19.8640018939
 20
36.7170601431
 11
17.8640018939
 21
36.7170601431
  0
LINE
  5
282
100
AcDbEntity
  8
0
100
AcDbLine
 62
7
  6
BYLAYER
 10
19.8640018939
 20
36.9083432184
 11
17.8640018939
 21
36.9083432184
  0
LINE
  5
283
100
AcDbEntity
  8
0
100
AcDbLine
 62
7
  6
BYLAYER
 10
26.5315804374
 20
17.4001828001
 11
26.5315804374
 21
16.8001828001
  0
LINE
  5
284
100
AcDbEntity
  8
0
100
AcDbLine
 62
7
  6
BYLAYER
 10
26.8640018939
 20
53.7533541881
 11
26.8640018939
 21
72.7531958801
  0
LINE
  5
285
100
AcDbEntity
  8
0
100
AcDbLine
 62
7
  6
BYLAYER
 10
17.8640018939
 20
38.9129322597
 11
19.8640018939
 21
38.9129322597
  0
LINE
  5
286
100
AcDbEntity
  8
0
100
AcDbLine
 62
7
  6
BYLAYER
 10
15.6258821093
 20
40.3001828001
 11
17.4021216786
 21
40.3001828001
  0
LINE
  5
287
100
AcDbEntity
  8
0
100
AcDbLine
 62
7
  6
BYLAYER
 10
11.8640330695
 20
40.8001828001
 11
15.1640018939
 21
40.8001828001
  0
LINE
  5
288
100
AcDbEntity
  8
0
100
AcDbLine
 62
7
  6
BYLAYER
 10
15.6258821093
 20
42.3001828001
 11
17.4021216786
 21
42.3001828001
  0
LINE
  5
289
100
AcDbEntity
  8
0
100
AcDbLine
 62
7
  6
BYLAYER
 10
20.6640035924
 20
42.3001828001
 11
22.1640018939
 21
42.3001828001
  0
LINE
  5
28A
100
AcDbEntity
  8
0
100
AcDbLine
 62
7
  6
BYLAYER
 10
19.8640018939
 20
42.3058524917
 11
17.8640018939
 21
42.3058524917
  0
LINE
  5
28B
100
AcDbEntity
  8
0
100
AcDbLine
 62
7
  6
BYLAYER
 10
31.8640018939
 20
72.7531958801
 11
31.8640018939
 21
53.7533541881
  0
LINE
  5
28C
100
AcDbEntity
  8
0
100
AcDbLine
 62
7
  6
BYLAYER
 10
32.3640018939
 20
67.7532361704
 11
32.3640018939
 21
58.7533138977
  0
LINE
  5
28D
100
AcDbEntity
  8
0
100
AcDbLine
 62
7
  6
BYLAYER
 10
33.0640018939
 20
58.2532777937
 11
33.0640018939
 21
68.2532722745
  0
LINE
  5
28E
100
AcDbEntity
  8
0
100
AcDbLine
 62
7
  6
BYLAYER
 10
22.4640050796
 20
42.9251828001
 11
23.8140018939
 21
42.9251828001
  0
LINE
  5
28F
100
AcDbEntity
  8
0
100
AcDbLine
 62
7
  6
BYLAYER
 10
45.5140018939
 20
43.3001828001
 11
38.8140018939
 21
43.3001828001
  0
LINE
  5
290
100
AcDbEntity
  8
0
100
AcDbLine
 62
7
  6
BYLAYER
 10
20.3640018939
 20
43.3001828001
 11
19.8640018939
 21
43.3001828001
  0
LINE
  5
291
100
AcDbEntity
  8
0
100
AcDbLine
 62
7
  6
BYLAYER
 10
43.7874230905
 20
44.5001828001
 11
44.3901410009
 21
44.5001828001
  0
LINE
  5
292
100
AcDbEntity
  8
0
100
AcDbLine
 62
7
  6
BYLAYER
 10
34.0640018939
 20
68.2532750341
 11
34.0640018939
 21
58.2532750341
  0
LINE
  5
293
100
AcDbEntity
  8
0
100
AcDbLine
 62
7
  6
BYLAYER
 10
34.5640018939
 20
67.7532176528
 11
34.5640018939
 21
58.7533324154
  0
LINE
  5
294
100
AcDbEntity
  8
0
100
AcDbLine
 62
7
  6
BYLAYER
 10
39.2150201638
 20
45.026329523
 11
43.7432686049
 21
45.026329523
  0
LINE
  5
295
100
AcDbEntity
  8
0
100
AcDbLine
 62
7
  6
BYLAYER
 10
44.3654710361
 20
45.026329523
 11
44.9129836241
 21
45.026329523
  0
LINE
  5
296
100
AcDbEntity
  8
0
100
AcDbLine
 62
7
  6
BYLAYER
 10
39.5138785732
 20
45.3001828001
 11
44.6141252147
 21
45.3001828001
  0
LINE
  5
297
100
AcDbEntity
  8
0
100
AcDbLine
 62
7
  6
BYLAYER
 10
23.8140018939
 20
45.8001828001
 11
45.5140018939
 21
45.8001828001
  0
LINE
  5
298
100
AcDbEntity
  8
0
100
AcDbLine
 62
7
  6
BYLAYER
 10
37.5964233505
 20
16.8001828001
 11
37.5964233505
 21
17.4001828001
  0
LINE
  5
299
100
AcDbEntity
  8
0
100
AcDbLine
 62
7
  6
BYLAYER
 10
39.0640018939
 20
43.3001828001
 11
39.2150201638
 21
45.026329523
  0
LINE
  5
29A
100
AcDbEntity
  8
0
100
AcDbLine
 62
7
  6
BYLAYER
 10
19.8640018939
 20
47.9252386124
 11
17.8640018939
 21
47.9252386124
  0
LINE
  5
29B
100
AcDbEntity
  8
0
100
AcDbLine
 62
7
  6
BYLAYER
 10
38.8140018939
 20
45.8001828001
 11
38.8140018939
 21
43.3001828001
  0
LINE
  5
29C
100
AcDbEntity
  8
0
100
AcDbLine
 62
7
  6
BYLAYER
 10
40.5640018939
 20
11.5001828001
 11
40.5640018939
 21
16.3001828001
  0
LINE
  5
29D
100
AcDbEntity
  8
0
100
AcDbLine
 62
7
  6
BYLAYER
 10
40.7640018939
 20
16.5001828001
 11
40.7640018939
 21
16.8001828001
  0
LINE
  5
29E
100
AcDbEntity
  8
0
100
AcDbLine
 62
7
  6
BYLAYER
 10
20.5640018939
 20
16.9001828001
 11
20.7640018939
 21
17.1001828001
  0
LINE
  5
29F
100
AcDbEntity
  8
0
100
AcDbLine
 62
7
  6
BYLAYER
 10
43.7023991153
 20
17.4001828001
 11
43.7106035289
 21
16.8001828001
  0
LINE
  5
2A0
100
AcDbEntity
  8
0
100
AcDbLine
 62
7
  6
BYLAYER
 10
41.5463638037
 20
17.4001828001
 11
41.5463638037
 21
16.8001828001
  0
LINE
  5
2A1
100
AcDbEntity
  8
0
100
AcDbLine
 62
7
  6
BYLAYER
 10
42.8446828683
 20
16.8001828001
 11
42.8446828683
 21
17.4001828001
  0
LINE
  5
2A2
100
AcDbEntity
  8
0
100
AcDbLine
 62
7
  6
BYLAYER
 10
43.3640018939
 20
16.5001828001
 11
43.3640018939
 21
17.4001828001
  0
LINE
  5
2A3
100
AcDbEntity
  8
0
100
AcDbLine
 62
7
  6
BYLAYER
 10
43.5640018939
 20
11.5001828001
 11
43.5640018939
 21
16.3001828001
  0
LINE
  5
2A4
100
AcDbEntity
  8
0
100
AcDbLine
 62
7
  6
BYLAYER
 10
26.8640018939
 20
53.7532750341
 11
31.8640018939
 21
53.7532750341
  0
LINE
  5
2A5
100
AcDbEntity
  8
0
100
AcDbLine
 62
7
  6
BYLAYER
 10
45.0640018939
 20
43.3001828001
 11
44.9129836241
 21
45.026329523
  0
LINE
  5
2A6
100
AcDbEntity
  8
0
100
AcDbLine
 62
7
  6
BYLAYER
 10
43.90534304
 20
17.4001828001
 11
43.90534304
 21
16.8001828001
  0
LINE
  5
2A7
100
AcDbEntity
  8
0
100
AcDbLine
 62
7
  6
BYLAYER
 10
44.0640018939
 20
16.8001828001
 11
44.0640018939
 21
17.4001828001
  0
LINE
  5
2A8
100
AcDbEntity
  8
0
100
AcDbLine
 62
7
  6
BYLAYER
 10
44.8641005749
 20
23.9001828001
 11
44.8640981351
 21
17.4001828001
  0
LINE
  5
2A9
100
AcDbEntity
  8
0
100
AcDbLine
 62
7
  6
BYLAYER
 10
45.5140018939
 20
23.9001828001
 11
45.5140018939
 21
45.8001828001
  0
LINE
  5
2AA
100
AcDbEntity
  8
0
100
AcDbLine
 62
7
  6
BYLAYER
 10
45.5640018939
 20
17.4001828001
 11
45.5640018939
 21
23.9001828001
  0
LINE
  5
2AB
100
AcDbEntity
  8
0
100
AcDbLine
 62
7
  6
BYLAYER
 10
23.3640018939
 20
11.9001828001
 11
23.5640018939
 21
12.1001828001
  0
LINE
  5
2AC
100
AcDbEntity
  8
0
100
AcDbLine
 62
7
  6
BYLAYER
 10
34.0640018939
 20
58.2532750341
 11
33.0640018939
 21
58.2532750341
  0
LINE
  5
2AD
100
AcDbEntity
  8
0
100
AcDbLine
 62
7
  6
BYLAYER
 10
31.8640018939
 20
58.7532750341
 11
32.3640018939
 21
58.7532750341
  0
LINE
  5
2AE
100
AcDbEntity
  8
0
100
AcDbLine
 62
7
  6
BYLAYER
 10
33.0640018939
 20
60.2632750341
 11
32.3640018939
 21
60.2632750341
  0
LINE
  5
2AF
100
AcDbEntity
  8
0
100
AcDbLine
 62
7
  6
BYLAYER
 10
24.8640018939
 20
61.2032750341
 11
23.3640018939
 21
61.2032750341
  0
LINE
  5
2B0
100
AcDbEntity
  8
0
100
AcDbLine
 62
7
  6
BYLAYER
 10
40.5640018939
 20
16.3001828001
 11
40.7640018939
 21
16.5001828001
  0
LINE
  5
2B1
100
AcDbEntity
  8
0
100
AcDbLine
 62
7
  6
BYLAYER
 10
24.8640018939
 20
62.9471255305
 11
26.8640018939
 21
62.9471255305
  0
LINE
  5
2B2
100
AcDbEntity
  8
0
100
AcDbLine
 62
7
  6
BYLAYER
 10
34.5640018939
 20
67.7532750341
 11
34.0640018939
 21
68.2532750341
  0
LINE
  5
2B3
100
AcDbEntity
  8
0
100
AcDbLine
 62
7
  6
BYLAYER
 10
41.6423140574
 20
10.1501828001
 11
42.2093513132
 21
11.1323201369
  0
LINE
  5
2B4
100
AcDbEntity
  8
0
100
AcDbLine
 62
7
  6
BYLAYER
 10
24.8640018939
 20
65.3032750341
 11
23.3640018939
 21
65.3032750341
  0
LINE
  5
2B5
100
AcDbEntity
  8
0
100
AcDbLine
 62
7
  6
BYLAYER
 10
33.0640018939
 20
66.2432750341
 11
32.3640018939
 21
66.2432750341
  0
LINE
  5
2B6
100
AcDbEntity
  8
0
100
AcDbLine
 62
7
  6
BYLAYER
 10
31.8640018939
 20
67.7532750341
 11
32.3640018939
 21
67.7532750341
  0
LINE
  5
2B7
100
AcDbEntity
  8
0
100
AcDbLine
 62
7
  6
BYLAYER
 10
34.0640018939
 20
68.2532750341
 11
33.0640018939
 21
68.2532750341
  0
LINE
  5
2B8
100
AcDbEntity
  8
0
100
AcDbLine
 62
7
  6
BYLAYER
 10
26.8640018939
 20
68.2532750341
 11
24.8640018939
 21
68.2532750341
  0
LINE
  5
2B9
100
AcDbEntity
  8
0
100
AcDbLine
 62
7
  6
BYLAYER
 10
43.3640018939
 20
11.3001828001
 11
43.5640018939
 21
11.5001828001
  0
LINE
  5
2BA
100
AcDbEntity
  8
0
100
AcDbLine
 62
7
  6
BYLAYER
 10
26.8640018939
 20
72.7532750341
 11
31.8640018939
 21
72.7532750341
  0
ARC
  5
2BB
100
AcDbEntity
  8
0
100
AcDbCircle
 62
7
  6
BYLAYER
 10
23.1263841399
 20
8.7935327594
 40
26.7876917833
100
AcDbArc
 50
95.2741940184
 51
95.9189386752
  0
ARC
  5
2BC
100
AcDbEntity
  8
0
100
AcDbCircle
 62
7
  6
BYLAYER
 10
22.8785206151
 20
59.2886220462
 40
24.2461524672
100
AcDbArc
 50
264.0472690725
 51
264.7595982255
  0
ARC
  5
2BD
100
AcDbEntity
  8
0
100
AcDbCircle
 62
7
  6
BYLAYER
 10
27.5053725414
 20
11.9466593105
 40
2.5019695447
100
AcDbArc
 50
193.2771391486
 51
199.8567701714
  0
ARC
  5
2BE
100
AcDbEntity
  8
0
100
AcDbCircle
 62
7
  6
BYLAYER
 10
41.2093013556
 20
10.4001828001
 40
0.5
100
AcDbArc
 50
270.0
 51
330.0
  0
ARC
  5
2BF
100
AcDbEntity
  8
0
100
AcDbCircle
 62
7
  6
BYLAYER
 10
41.7763386113
 20
11.3823201369
 40
0.5
100
AcDbArc
 50
330.0
 51
350.1763195937
  0
ARC
  5
2C0
100
AcDbEntity
  8
0
100
AcDbCircle
 62
7
  6
BYLAYER
 10
22.9187024323
 20
10.4001828001
 40
0.5
100
AcDbArc
 50
210.0
 51
270.0
  0
ARC
  5
2C1
100
AcDbEntity
  8
0
100
AcDbCircle
 62
7
  6
BYLAYER
 10
24.6141252147
 20
27.6001828001
 40
0.3
100
AcDbArc
 50
5.0
 51
90.0
  0
ARC
  5
2C2
100
AcDbEntity
  8
0
100
AcDbCircle
 62
7
  6
BYLAYER
 10
19.5138785732
 20
27.6001828001
 40
0.3
100
AcDbArc
 50
90.0
 51
175.0
  0
ARC
  5
2C3
100
AcDbEntity
  8
0
100
AcDbCircle
 62
7
  6
BYLAYER
 10
44.6141252147
 20
45.0001828001
 40
0.3
100
AcDbArc
 50
5.0
 51
90.0
  0
ARC
  5
2C4
100
AcDbEntity
  8
0
100
AcDbCircle
 62
7
  6
BYLAYER
 10
39.5138785732
 20
45.0001828001
 40
0.3
100
AcDbArc
 50
90.0
 51
175.0
  0
SPLINE
  5
2C5
100
AcDbEntity
  8
0
100
AcDbSpline
 62
7
  6
BYLAYER
 70
0
 71
3
 72
11
 73
7
 74
0
 42
0.0000001
 43
0.0000001
 44
0.0000000001
 40
0.0
 40
0.0
 40
0.0
 40
0.0
 40
0.2500118062
 40
0.5000143479
 40
0.7500092637
 40
1.0
 40
1.0
 40
1.0
 40
1.0
 10
17.4021216786
 20
40.3001828001
 30
0.0
 10
17.4490471313
 20
40.1376282635
 30
0.0
 10
17.5350250759
 20
39.8101604563
 30
0.0
 10
17.6341439097
 20
39.3119977521
 30
0.0
 10
17.6970831257
 20
38.8078843839
 30
0.0
 10
17.7115227553
 20
38.4693606673
 30
0.0
 10
17.7115227553
 20
38.3001828001
 30
0.0
  0
SPLINE
  5
2C6
100
AcDbEntity
  8
0
100
AcDbSpline
 62
7
  6
BYLAYER
 70
0
 71
3
 72
19
 73
15
 74
0
 42
0.0000001
 43
0.0000001
 44
0.0000000001
 40
0.0
 40
0.0
 40
0.0
 40
0.0
 40
0.1307723645
 40
0.2571515558
 40
0.3188539668
 40
0.3797373368
 40
0.4400263627
 40
0.5000007488
 40
0.5599757157
 40
0.6202642058
 40
0.6811467943
 40
0.7428501181
 40
0.8692282273
 40
1.0
 40
1.0
 40
1.0
 40
1.0
 10
17.4021216786
 20
42.3001828001
 30
0.0
 10
17.448274134
 20
42.2202444025
 30
0.0
 10
17.5330306908
 20
42.0594459179
 30
0.0
 10
17.6168985151
 20
41.8499548145
 30
0.0
 10
17.6654137135
 20
41.6809114814
 30
0.0
 10
17.6918008763
 20
41.5544253689
 30
0.0
 10
17.7079235763
 20
41.4274401084
 30
0.0
 10
17.713305853
 20
41.3001810315
 30
0.0
 10
17.7079023689
 20
41.1729242304
 30
0.0
 10
17.6918030318
 20
41.0459372672
 30
0.0
 10
17.6654277771
 20
40.9194478275
 30
0.0
 10
17.6168802598
 20
40.7504145564
 30
0.0
 10
17.5330344667
 20
40.5409171745
 30
0.0
 10
17.4482739252
 20
40.3801208361
 30
0.0
 10
17.4021216786
 20
40.3001828001
 30
0.0
  0
SPLINE
  5
2C7
100
AcDbEntity
  8
0
100
AcDbSpline
 62
7
  6
BYLAYER
 70
0
 71
3
 72
11
 73
7
 74
0
 42
0.0000001
 43
0.0000001
 44
0.0000000001
 40
0.0
 40
0.0
 40
0.0
 40
0.0
 40
0.2499907822
 40
0.4999857134
 40
0.7499882259
 40
1.0
 40
1.0
 40
1.0
 40
1.0
 10
15.3164810325
 20
38.3001828001
 30
0.0
 10
15.3164810325
 20
38.4693606976
 30
0.0
 10
15.3309208261
 20
38.8078844463
 30
0.0
 10
15.3938599083
 20
39.3119978442
 30
0.0
 10
15.4929787111
 20
39.8101605251
 30
0.0
 10
15.5789566628
 20
40.1376282851
 30
0.0
 10
15.6258821093
 20
40.3001828001
 30
0.0
  0
SPLINE
  5
2C8
100
AcDbEntity
  8
0
100
AcDbSpline
 62
7
  6
BYLAYER
 70
0
 71
3
 72
11
 73
7
 74
0
 42
0.0000001
 43
0.0000001
 44
0.0000000001
 40
0.0
 40
0.0
 40
0.0
 40
0.0
 40
0.2500119043
 40
0.5000143386
 40
0.7500092666
 40
1.0
 40
1.0
 40
1.0
 40
1.0
 10
15.6258821093
 20
36.3001828001
 30
0.0
 10
15.5789566369
 20
36.4627374047
 30
0.0
 10
15.4929774101
 20
36.7902048791
 30
0.0
 10
15.3938594846
 20
37.2883678399
 30
0.0
 10
15.3309213395
 20
37.7924812359
 30
0.0
 10
15.3164810325
 20
38.1310049306
 30
0.0
 10
15.3164810325
 20
38.3001828001
 30
0.0
  0
SPLINE
  5
2C9
100
AcDbEntity
  8
0
100
AcDbSpline
 62
7
  6
BYLAYER
 70
0
 71
3
 72
19
 73
15
 74
0
 42
0.0000001
 43
0.0000001
 44
0.0000000001
 40
0.0
 40
0.0
 40
0.0
 40
0.0
 40
0.1307723645
 40
0.2571515558
 40
0.3188539668
 40
0.3797373368
 40
0.4400263627
 40
0.5000007488
 40
0.5599757157
 40
0.6202642058
 40
0.6811467943
 40
0.7428501181
 40
0.8692282273
 40
1.0
 40
1.0
 40
1.0
 40
1.0
 10
17.4021216786
 20
36.3001828001
 30
0.0
 10
17.448274134
 20
36.2202444025
 30
0.0
 10
17.5330306908
 20
36.0594459179
 30
0.0
 10
17.6168985151
 20
35.8499548145
 30
0.0
 10
17.6654137135
 20
35.6809114814
 30
0.0
 10
17.6918008763
 20
35.5544253689
 30
0.0
 10
17.7079235763
 20
35.4274401084
 30
0.0
 10
17.713305853
 20
35.3001810315
 30
0.0
 10
17.7079023689
 20
35.1729242304
 30
0.0
 10
17.6918030318
 20
35.0459372672
 30
0.0
 10
17.6654277771
 20
34.9194478275
 30
0.0
 10
17.6168802598
 20
34.7504145564
 30
0.0
 10
17.5330344667
 20
34.5409171745
 30
0.0
 10
17.4482739252
 20
34.3801208361
 30
0.0
 10
17.4021216786
 20
34.3001828001
 30
0.0
  0
SPLINE
  5
2CA
100
AcDbEntity
  8
0
100
AcDbSpline
 62
7
  6
BYLAYER
 70
0
 71
3
 72
11
 73
7
 74
0
 42
0.0000001
 43
0.0000001
 44
0.0000000001
 40
0.0
 40
0.0
 40
0.0
 40
0.0
 40
0.249990778
 40
0.4999857227
 40
0.7499881269
 40
1.0
 40
1.0
 40
1.0
 40
1.0
 10
17.7115227553
 20
38.3001828001
 30
0.0
 10
17.7115227553
 20
38.1310049015
 30
0.0
 10
17.6970822564
 20
37.7924811763
 30
0.0
 10
17.6341442667
 20
37.2883677501
 30
0.0
 10
17.5350263847
 20
36.7902048088
 30
0.0
 10
17.4490471448
 20
36.4627373834
 30
0.0
 10
17.4021216786
 20
36.3001828001
 30
0.0
  0
SPLINE
  5
2CB
100
AcDbEntity
  8
0
100
AcDbSpline
 62
7
  6
BYLAYER
 70
0
 71
3
 72
19
 73
15
 74
0
 42
0.0000001
 43
0.0000001
 44
0.0000000001
 40
0.0
 40
0.0
 40
0.0
 40
0.0
 40
0.1307723507
 40
0.2571515726
 40
0.3188539744
 40
0.3797373382
 40
0.4400263652
 40
0.5000007526
 40
0.5599757181
 40
0.620264208
 40
0.6811468007
 40
0.7428501263
 40
0.8692282214
 40
1.0
 40
1.0
 40
1.0
 40
1.0
 10
15.6258821093
 20
34.3001828001
 30
0.0
 10
15.5797296586
 20
34.3801211895
 30
0.0
 10
15.4949733023
 20
34.5409197786
 30
0.0
 10
15.4111050878
 20
34.7504107345
 30
0.0
 10
15.3625900394
 20
34.9194541299
 30
0.0
 10
15.3362029655
 20
35.0459402478
 30
0.0
 10
15.3200802676
 20
35.1729255036
 30
0.0
 10
15.3146979011
 20
35.3001845765
 30
0.0
 10
15.3201013337
 20
35.4274413829
 30
0.0
 10
15.336200741
 20
35.5544283413
 30
0.0
 10
15.3625760619
 20
35.6809177701
 30
0.0
 10
15.4111235685
 20
35.8499510358
 30
0.0
 10
15.4949692544
 20
36.0594484592
 30
0.0
 10
15.5797298605
 20
36.2202447604
 30
0.0
 10
15.6258821093
 20
36.3001828001
 30
0.0
  0
SPLINE
  5
2CC
100
AcDbEntity
  8
0
100
AcDbSpline
 62
7
  6
BYLAYER
 70
0
 71
3
 72
19
 73
15
 74
0
 42
0.0000001
 43
0.0000001
 44
0.0000000001
 40
0.0
 40
0.0
 40
0.0
 40
0.0
 40
0.1307723507
 40
0.2571515726
 40
0.3188539744
 40
0.3797373382
 40
0.4400263652
 40
0.5000007526
 40
0.5599757181
 40
0.620264208
 40
0.6811468007
 40
0.7428501263
 40
0.8692282214
 40
1.0
 40
1.0
 40
1.0
 40
1.0
 10
15.6258821093
 20
40.3001828001
 30
0.0
 10
15.5797296586
 20
40.3801211895
 30
0.0
 10
15.4949733023
 20
40.5409197786
 30
0.0
 10
15.4111050878
 20
40.7504107345
 30
0.0
 10
15.3625900394
 20
40.9194541299
 30
0.0
 10
15.3362029655
 20
41.0459402478
 30
0.0
 10
15.3200802676
 20
41.1729255036
 30
0.0
 10
15.3146979011
 20
41.3001845765
 30
0.0
 10
15.3201013337
 20
41.4274413829
 30
0.0
 10
15.336200741
 20
41.5544283413
 30
0.0
 10
15.3625760619
 20
41.6809177701
 30
0.0
 10
15.4111235685
 20
41.8499510358
 30
0.0
 10
15.4949692544
 20
42.0594484592
 30
0.0
 10
15.5797298605
 20
42.2202447604
 30
0.0
 10
15.6258821093
 20
42.3001828001
 30
0.0
  0
LINE
  5
2CD
100
AcDbEntity
  8
0
100
AcDbLine
 62
7
  6
BYLAYER
 10
23.7874230905
 20
27.1001828001
 11
23.7432686049
 21
27.626329523
  0
SPLINE
  5
2CE
100
AcDbEntity
  8
0
100
AcDbSpline
 62
7
  6
BYLAYER
 70
0
 71
3
 72
14
 73
10
 74
0
 42
0.0000001
 43
0.0000001
 44
0.0000000001
 40
0.0
 40
0.0
 40
0.0
 40
0.0
 40
0.2867233189
 40
0.4231521399
 40
0.5525171901
 40
0.6740528291
 40
0.7880176694
 40
0.8958870982
 40
1.0
 40
1.0
 40
1.0
 40
1.0
 10
23.7432686049
 20
27.626329523
 30
0.0
 10
23.7402028401
 20
27.6628157112
 30
0.0
 10
23.7285955136
 20
27.7165312559
 30
0.0
 10
23.6990098032
 20
27.7808075439
 30
0.0
 10
23.6714069811
 20
27.8221410495
 30
0.0
 10
23.6389309659
 20
27.8559260453
 30
0.0
 10
23.6025995768
 20
27.8810737533
 30
0.0
 10
23.5635840477
 20
27.8966200796
 30
0.0
 10
23.5363997958
 20
27.9001828001
 30
0.0
 10
23.5231045075
 20
27.9001828001
 30
0.0
  0
LINE
  5
2CF
100
AcDbEntity
  8
0
100
AcDbLine
 62
7
  6
BYLAYER
 10
24.3654710361
 20
27.626329523
 11
24.3901410009
 21
27.1001828001
  0
SPLINE
  5
2D0
100
AcDbEntity
  8
0
100
AcDbSpline
 62
7
  6
BYLAYER
 70
0
 71
3
 72
14
 73
10
 74
0
 42
0.0000001
 43
0.0000001
 44
0.0000000001
 40
0.0
 40
0.0
 40
0.0
 40
0.0
 40
0.1048995872
 40
0.2127236991
 40
0.3261106281
 40
0.4468884979
 40
0.5756408254
 40
0.7118594986
 40
1.0
 40
1.0
 40
1.0
 40
1.0
 10
24.1554484063
 20
27.9001828001
 30
0.0
 10
24.1686814834
 20
27.9001828001
 30
0.0
 10
24.195637725
 20
27.8966650526
 30
0.0
 10
24.2341522932
 20
27.8811247026
 30
0.0
 10
24.2696209916
 20
27.8559437957
 30
0.0
 10
24.3008867371
 20
27.8221105115
 30
0.0
 10
24.3269732399
 20
27.7807323402
 30
0.0
 10
24.3542334998
 20
27.7162698345
 30
0.0
 10
24.3637647797
 20
27.6626383624
 30
0.0
 10
24.3654710361
 20
27.626329523
 30
0.0
  0
LINE
  5
2D1
100
AcDbEntity
  8
0
100
AcDbLine
 62
7
  6
BYLAYER
 10
43.7874230905
 20
44.5001828001
 11
43.7432686049
 21
45.026329523
  0
SPLINE
  5
2D2
100
AcDbEntity
  8
0
100
AcDbSpline
 62
7
  6
BYLAYER
 70
0
 71
3
 72
13
 73
9
 74
0
 42
0.0000001
 43
0.0000001
 44
0.0000000001
 40
0.0
 40
0.0
 40
0.0
 40
0.0
 40
0.1041504866
 40
0.2121602127
 40
0.3262366457
 40
0.4478799713
 40
0.7130491128
 40
1.0
 40
1.0
 40
1.0
 40
1.0
 10
43.5231045075
 20
45.3001828001
 30
0.0
 10
43.5363932802
 20
45.3001828001
 30
0.0
 10
43.5635749938
 20
45.2966091866
 30
0.0
 10
43.6025975738
 20
45.2810822492
 30
0.0
 10
43.6389417442
 20
45.2559267284
 30
0.0
 10
43.6834353541
 20
45.2095591205
 30
0.0
 10
43.7251774489
 20
45.132610987
 30
0.0
 10
43.7402030172
 20
45.0628136039
 30
0.0
 10
43.7432686049
 20
45.026329523
 30
0.0
  0
SPLINE
  5
2D3
100
AcDbEntity
  8
0
100
AcDbSpline
 62
7
  6
BYLAYER
 70
0
 71
3
 72
13
 73
9
 74
0
 42
0.0000001
 43
0.0000001
 44
0.0000000001
 40
0.0
 40
0.0
 40
0.0
 40
0.0
 40
0.2884090348
 40
0.5527062706
 40
0.6735903094
 40
0.7870891537
 40
0.8950568245
 40
1.0
 40
1.0
 40
1.0
 40
1.0
 10
44.3654710361
 20
45.026329523
 30
0.0
 10
44.3637647327
 20
45.0626393624
 30
0.0
 10
44.3514666034
 20
45.1321808101
 30
0.0
 10
44.3125047203
 20
45.2094755992
 30
0.0
 10
44.2696270011
 20
45.2559436703
 30
0.0
 10
44.2341493604
 20
45.2811337334
 30
0.0
 10
44.1956283787
 20
45.2966547082
 30
0.0
 10
44.1686750201
 20
45.3001828001
 30
0.0
 10
44.1554484063
 20
45.3001828001
 30
0.0
  0
LINE
  5
2D4
100
AcDbEntity
  8
0
100
AcDbLine
 62
7
  6
BYLAYER
 10
44.3654710361
 20
45.026329523
 11
44.3901410009
 21
44.5001828001
  0
LINE
  5
2D5
100
AcDbEntity
  8
0
100
AcDbLine
 62
7
  6
BYLAYER
 10
24.9678129177
 20
9.9001828001
 11
25.3363541591
 21
6.9633587113
  0
SPLINE
  5
2D6
100
AcDbEntity
  8
0
100
AcDbSpline
 62
7
  6
BYLAYER
 70
0
 71
3
 72
13
 73
9
 74
0
 42
0.0000001
 43
0.0000001
 44
0.0000000001
 40
0.0
 40
0.0
 40
0.0
 40
0.0
 40
0.2873719025
 40
0.5508652922
 40
0.6718822544
 40
0.785883455
 40
0.8945201858
 40
1.0
 40
1.0
 40
1.0
 40
1.0
 10
25.3363541591
 20
6.9633587113
 30
0.0
 10
25.343375751
 20
6.9074271561
 30
0.0
 10
25.3699505339
 20
6.8013080982
 30
0.0
 10
25.4370821867
 20
6.6851649819
 30
0.0
 10
25.5068797702
 20
6.6159234414
 30
0.0
 10
25.5635392281
 20
6.5784731682
 30
0.0
 10
25.6242209104
 20
6.5554384509
 30
0.0
 10
25.6663861954
 20
6.5501828001
 30
0.0
 10
25.6870770063
 20
6.5501828001
 30
0.0
  0
LINE
  5
2D7
100
AcDbEntity
  8
0
100
AcDbLine
 62
7
  6
BYLAYER
 10
25.2524274127
 20
11.1323201369
 11
25.6539229618
 21
10.1501267707
  0
SPLINE
  5
2D8
100
AcDbEntity
  8
0
100
AcDbSpline
 62
7
  6
BYLAYER
 70
0
 71
3
 72
11
 73
7
 74
0
 42
0.0000001
 43
0.0000001
 44
0.0000000001
 40
0.0
 40
0.0
 40
0.0
 40
0.0
 40
0.2819915258
 40
0.5406069708
 40
0.7771598492
 40
1.0
 40
1.0
 40
1.0
 40
1.0
 10
25.6539229618
 20
10.1501267707
 30
0.0
 10
25.6687940507
 20
10.1137498555
 30
0.0
 10
25.7045237342
 20
10.046581592
 30
0.0
 10
25.7778509136
 20
9.9651570475
 30
0.0
 10
25.8649570758
 20
9.9125513107
 30
0.0
 10
25.9295035019
 20
9.9001828001
 30
0.0
 10
25.960559207
 20
9.9001828001
 30
0.0
  0
SPLINE
  5
2D9
100
AcDbEntity
  8
0
100
AcDbSpline
 62
7
  6
BYLAYER
 70
0
 71
3
 72
9
 73
5
 74
0
 42
0.0000001
 43
0.0000001
 44
0.0000000001
 40
0.0
 40
0.0
 40
0.0
 40
0.0
 40
0.2432904811
 40
1.0
 40
1.0
 40
1.0
 40
1.0
 10
25.2524274127
 20
11.1323201369
 30
0.0
 10
25.2448576504
 20
11.1508396601
 30
0.0
 10
25.2177028494
 20
11.2285442492
 30
0.0
 10
25.205784723
 20
11.3113711214
 30
0.0
 10
25.2050158134
 20
11.3735939337
 30
0.0
  0
LINE
  5
2DA
100
AcDbEntity
  8
0
100
AcDbLine
 62
7
  6
BYLAYER
 10
25.9991932431
 20
9.9001828001
 11
26.3659813403
 21
6.9631161593
  0
SPLINE
  5
2DB
100
AcDbEntity
  8
0
100
AcDbSpline
 62
7
  6
BYLAYER
 70
0
 71
3
 72
13
 73
9
 74
0
 42
0.0000001
 43
0.0000001
 44
0.0000000001
 40
0.0
 40
0.0
 40
0.0
 40
0.0
 40
0.2872869874
 40
0.5508703586
 40
0.6719537314
 40
0.7859786792
 40
0.894580509
 40
1.0
 40
1.0
 40
1.0
 40
1.0
 10
26.3659813403
 20
6.9631161593
 30
0.0
 10
26.3729479567
 20
6.9073361975
 30
0.0
 10
26.3993553779
 20
6.8014751872
 30
0.0
 10
26.4659648861
 20
6.6854249621
 30
0.0
 10
26.5353713471
 20
6.6160881396
 30
0.0
 10
26.5917755094
 20
6.5785335218
 30
0.0
 10
26.6522551577
 20
6.5554393076
 30
0.0
 10
26.6942992767
 20
6.5501828001
 30
0.0
 10
26.7149266645
 20
6.5501828001
 30
0.0
  0
SPLINE
  5
2DC
100
AcDbEntity
  8
0
100
AcDbSpline
 62
7
  6
BYLAYER
 70
0
 71
3
 72
13
 73
9
 74
0
 42
0.0000001
 43
0.0000001
 44
0.0000000001
 40
0.0
 40
0.0
 40
0.0
 40
0.0
 40
0.1054791018
 40
0.2141153206
 40
0.3281177535
 40
0.4491367898
 40
0.7126322928
 40
1.0
 40
1.0
 40
1.0
 40
1.0
 10
38.4409268019
 20
6.5501828001
 30
0.0
 10
38.4616174721
 20
6.5501828001
 30
0.0
 10
38.5037825756
 20
6.5554380691
 30
0.0
 10
38.5644641227
 20
6.5784731648
 30
0.0
 10
38.6211242315
 20
6.615923417
 30
0.0
 10
38.6909222761
 20
6.6851660748
 30
0.0
 10
38.7580536525
 20
6.8013092976
 30
0.0
 10
38.7846281397
 20
6.9074279749
 30
0.0
 10
38.7916496288
 20
6.9633587113
 30
0.0
  0
LINE
  5
2DD
100
AcDbEntity
  8
0
100
AcDbLine
 62
7
  6
BYLAYER
 10
38.7916496288
 20
6.9633587113
 11
39.1601908701
 21
9.9001828001
  0
LINE
  5
2DE
100
AcDbEntity
  8
0
100
AcDbLine
 62
7
  6
BYLAYER
 10
25.6588728469
 20
6.9631299192
 11
25.2920864619
 21
9.9001828001
  0
SPLINE
  5
2DF
100
AcDbEntity
  8
0
100
AcDbSpline
 62
7
  6
BYLAYER
 70
0
 71
3
 72
13
 73
9
 74
0
 42
0.0000001
 43
0.0000001
 44
0.0000000001
 40
0.0
 40
0.0
 40
0.0
 40
0.0
 40
0.1054185561
 40
0.2140216016
 40
0.32804698
 40
0.4491307815
 40
0.7127148268
 40
1.0
 40
1.0
 40
1.0
 40
1.0
 10
26.0077953365
 20
6.5501828001
 30
0.0
 10
25.9871684917
 20
6.5501828001
 30
0.0
 10
25.9451251599
 20
6.555443838
 30
0.0
 10
25.8846494794
 20
6.57854473
 30
0.0
 10
25.8282480308
 20
6.616101766
 30
0.0
 10
25.7588464602
 20
6.6854414653
 30
0.0
 10
25.6922418742
 20
6.8014915243
 30
0.0
 10
25.6658392976
 20
6.9073512832
 30
0.0
 10
25.6588728469
 20
6.9631299192
 30
0.0
  0
SPLINE
  5
2E0
100
AcDbEntity
  8
0
100
AcDbSpline
 62
7
  6
BYLAYER
 70
0
 71
3
 72
9
 73
5
 74
0
 42
0.0000001
 43
0.0000001
 44
0.0000000001
 40
0.0
 40
0.0
 40
0.0
 40
0.0
 40
0.2473975139
 40
1.0
 40
1.0
 40
1.0
 40
1.0
 10
24.8636405434
 20
11.3244051598
 30
0.0
 10
24.8539063511
 20
11.3654779759
 30
0.0
 10
24.8193188415
 20
11.5325964746
 30
0.0
 10
24.8034638201
 20
11.7035350611
 30
0.0
 10
24.8018790555
 20
11.8319330656
 30
0.0
  0
SPLINE
  5
2E1
100
AcDbEntity
  8
0
100
AcDbSpline
 62
7
  6
BYLAYER
 70
0
 71
3
 72
12
 73
8
 74
0
 42
0.0000001
 43
0.0000001
 44
0.0000000001
 40
0.0
 40
0.0
 40
0.0
 40
0.0
 40
0.2306715893
 40
0.4751081794
 40
0.6022765147
 40
0.7324128278
 40
1.0
 40
1.0
 40
1.0
 40
1.0
 10
25.4872912956
 20
10.1952255414
 30
0.0
 10
25.4126130907
 20
10.262620396
 30
0.0
 10
25.2719001965
 20
10.4164040491
 30
0.0
 10
25.128216253
 20
10.6375114364
 30
0.0
 10
25.0296059903
 20
10.8330136528
 30
0.0
 10
24.9411095059
 20
11.0442684014
 30
0.0
 10
24.890550732
 20
11.2108593021
 30
0.0
 10
24.8636405434
 20
11.3244051598
 30
0.0
  0
SPLINE
  5
2E2
100
AcDbEntity
  8
0
100
AcDbSpline
 62
7
  6
BYLAYER
 70
0
 71
3
 72
10
 73
6
 74
0
 42
0.0000001
 43
0.0000001
 44
0.0000000001
 40
0.0
 40
0.0
 40
0.0
 40
0.0
 40
0.269270021
 40
0.5285872112
 40
1.0
 40
1.0
 40
1.0
 40
1.0
 10
25.5978888902
 20
9.9609237774
 30
0.0
 10
25.5949626773
 20
9.9843931863
 30
0.0
 10
25.5857971218
 20
10.0301681119
 30
0.0
 10
25.5555014407
 20
10.1127125019
 30
0.0
 10
25.5180304862
 20
10.1674843383
 30
0.0
 10
25.4872912956
 20
10.1952255414
 30
0.0
  0
SPLINE
  5
2E3
100
AcDbEntity
  8
0
100
AcDbSpline
 62
7
  6
BYLAYER
 70
0
 71
3
 72
13
 73
9
 74
0
 42
0.0000001
 43
0.0000001
 44
0.0000000001
 40
0.0
 40
0.0
 40
0.0
 40
0.0
 40
0.10528728
 40
0.2139638464
 40
0.3280693714
 40
0.4491125002
 40
0.7127665927
 40
1.0
 40
1.0
 40
1.0
 40
1.0
 10
26.1450115326
 20
7.0001854911
 30
0.0
 10
26.1326569324
 20
7.0001854912
 30
0.0
 10
26.1074552592
 20
7.0033978834
 30
0.0
 10
26.0712013506
 20
7.0172920438
 30
0.0
 10
26.0374201156
 20
7.0399069635
 30
0.0
 10
25.9958535879
 20
7.081558369
 30
0.0
 10
25.9560459265
 20
7.1512338733
 30
0.0
 10
25.940292919
 20
7.2147287589
 30
0.0
 10
25.9361228638
 20
7.2481742845
 30
0.0
  0
SPLINE
  5
2E4
100
AcDbEntity
  8
0
100
AcDbSpline
 62
7
  6
BYLAYER
 70
0
 71
3
 72
9
 73
5
 74
0
 42
0.0000001
 43
0.0000001
 44
0.0000000001
 40
0.0
 40
0.0
 40
0.0
 40
0.0
 40
0.255887774
 40
1.0
 40
1.0
 40
1.0
 40
1.0
 10
24.4979090322
 20
11.3735939337
 30
0.0
 10
24.4981690152
 20
11.3525552141
 30
0.0
 10
24.5029153172
 20
11.2704556234
 30
0.0
 10
24.5221709567
 20
11.1889561215
 30
0.0
 10
24.5453206315
 20
11.1323201369
 30
0.0
  0
SPLINE
  5
2E5
100
AcDbEntity
  8
0
100
AcDbSpline
 62
7
  6
BYLAYER
 70
0
 71
3
 72
13
 73
9
 74
0
 42
0.0000001
 43
0.0000001
 44
0.0000000001
 40
0.0
 40
0.0
 40
0.0
 40
0.0
 40
0.2870578318
 40
0.5535851311
 40
0.6754532606
 40
0.7893508235
 40
0.8967447968
 40
1.0
 40
1.0
 40
1.0
 40
1.0
 10
26.1450406427
 20
7.0001828001
 30
0.0
 10
26.1450406427
 20
7.0195053297
 30
0.0
 10
26.1500734588
 20
7.0569565698
 30
0.0
 10
26.1691665404
 20
7.0992031432
 30
0.0
 10
26.1911947331
 20
7.1251210212
 30
0.0
 10
26.2096649796
 20
7.1393348816
 30
0.0
 10
26.229912229
 20
7.1481299889
 30
0.0
 10
26.2441563123
 20
7.1501828001
 30
0.0
 10
26.2511066599
 20
7.1501828001
 30
0.0
  0
SPLINE
  5
2E6
100
AcDbEntity
  8
0
100
AcDbSpline
 62
7
  6
BYLAYER
 70
0
 71
3
 72
11
 73
7
 74
0
 42
0.0000001
 43
0.0000001
 44
0.0000000001
 40
0.0
 40
0.0
 40
0.0
 40
0.0
 40
0.2286317406
 40
0.4984452907
 40
0.7690687819
 40
1.0
 40
1.0
 40
1.0
 40
1.0
 10
26.1466520239
 20
7.2741355734
 30
0.0
 10
26.1304582505
 20
7.2741355734
 30
0.0
 10
26.0951613231
 20
7.2723809909
 30
0.0
 10
26.0409469075
 20
7.2669375986
 30
0.0
 10
25.9868794236
 20
7.2589765726
 30
0.0
 10
25.9520020175
 20
7.2520459148
 30
0.0
 10
25.9361313706
 20
7.2480883467
 30
0.0
  0
SPLINE
  5
2E7
100
AcDbEntity
  8
0
100
AcDbSpline
 62
7
  6
BYLAYER
 70
0
 71
3
 72
11
 73
7
 74
0
 42
0.0000001
 43
0.0000001
 44
0.0000000001
 40
0.0
 40
0.0
 40
0.0
 40
0.0
 40
0.2130075905
 40
0.4476459831
 40
0.7120137246
 40
1.0
 40
1.0
 40
1.0
 40
1.0
 10
26.2511066599
 20
7.1501828001
 30
0.0
 10
26.2386441291
 20
7.1501828001
 30
0.0
 10
26.2121561736
 20
7.15718046
 30
0.0
 10
26.1798165734
 20
7.1850759744
 30
0.0
 10
26.1566389738
 20
7.2256450377
 30
0.0
 10
26.1487366924
 20
7.2574156902
 30
0.0
 10
26.1466520239
 20
7.2741355734
 30
0.0
  0
SPLINE
  5
2E8
100
AcDbEntity
  8
0
100
AcDbSpline
 62
7
  6
BYLAYER
 70
0
 71
3
 72
11
 73
7
 74
0
 42
0.0000001
 43
0.0000001
 44
0.0000000001
 40
0.0
 40
0.0
 40
0.0
 40
0.0
 40
0.2205498225
 40
0.4787622523
 40
0.7475910843
 40
1.0
 40
1.0
 40
1.0
 40
1.0
 10
25.5978851391
 20
9.9609596623
 30
0.0
 10
25.6107483972
 20
9.9641672959
 30
0.0
 10
25.638949966
 20
9.9700036893
 30
0.0
 10
25.6833297523
 20
9.9771200203
 30
0.0
 10
25.7298570738
 20
9.9827244341
 30
0.0
 10
25.7610995015
 20
9.9852478813
 30
0.0
 10
25.7762501323
 20
9.9860565825
 30
0.0
  0
SPLINE
  5
2E9
100
AcDbEntity
  8
0
100
AcDbSpline
 62
7
  6
BYLAYER
 70
0
 71
3
 72
10
 73
6
 74
0
 42
0.0000001
 43
0.0000001
 44
0.0000000001
 40
0.0
 40
0.0
 40
0.0
 40
0.0
 40
0.4951470979
 40
0.7527457336
 40
1.0
 40
1.0
 40
1.0
 40
1.0
 10
25.5932225276
 20
10.3065160186
 30
0.0
 10
25.5701837598
 20
10.295026079
 30
0.0
 10
25.5385073898
 20
10.270321949
 30
0.0
 10
25.5057100576
 20
10.2298760626
 30
0.0
 10
25.4925782951
 20
10.2069426042
 30
0.0
 10
25.4872907846
 20
10.1952244132
 30
0.0
  0
SPLINE
  5
2EA
100
AcDbEntity
  8
0
100
AcDbSpline
 62
7
  6
BYLAYER
 70
0
 71
3
 72
11
 73
7
 74
0
 42
0.0000001
 43
0.0000001
 44
0.0000000001
 40
0.0
 40
0.0
 40
0.0
 40
0.0
 40
0.2268564666
 40
0.4948409434
 40
0.7655272346
 40
1.0
 40
1.0
 40
1.0
 40
1.0
 10
25.0702791802
 20
11.3720534238
 30
0.0
 10
25.0541521372
 20
11.3720534238
 30
0.0
 10
25.0189982616
 20
11.3688428473
 30
0.0
 10
24.9654558614
 20
11.3588352233
 30
0.0
 10
24.9124186762
 20
11.3442109479
 30
0.0
 10
24.8787079431
 20
11.3315241996
 30
0.0
 10
24.8636458216
 20
11.3243848224
 30
0.0
  0
SPLINE
  5
2EB
100
AcDbEntity
  8
0
100
AcDbSpline
 62
7
  6
BYLAYER
 70
0
 71
3
 72
9
 73
5
 74
0
 42
0.0000001
 43
0.0000001
 44
0.0000000001
 40
0.0
 40
0.0
 40
0.0
 40
0.0
 40
0.4842540437
 40
1.0
 40
1.0
 40
1.0
 40
1.0
 10
25.519334279
 20
10.4555160905
 30
0.0
 10
25.4407042746
 20
10.5458851549
 30
0.0
 10
25.2982703272
 20
10.7503707521
 30
0.0
 10
25.1955424456
 20
10.9768400185
 30
0.0
 10
25.1521584049
 20
11.0968153069
 30
0.0
  0
SPLINE
  5
2EC
100
AcDbEntity
  8
0
100
AcDbSpline
 62
7
  6
BYLAYER
 70
0
 71
3
 72
9
 73
5
 74
0
 42
0.0000001
 43
0.0000001
 44
0.0000000001
 40
0.0
 40
0.0
 40
0.0
 40
0.0
 40
0.4999842299
 40
1.0
 40
1.0
 40
1.0
 40
1.0
 10
25.0139948086
 20
11.8345757085
 30
0.0
 10
24.9786401228
 20
11.8345757085
 30
0.0
 10
24.9079299856
 20
11.8339148133
 30
0.0
 10
24.837225077
 20
11.8328303739
 30
0.0
 10
24.8018789286
 20
11.8319578476
 30
0.0
  0
SPLINE
  5
2ED
100
AcDbEntity
  8
0
100
AcDbSpline
 62
7
  6
BYLAYER
 70
0
 71
3
 72
9
 73
5
 74
0
 42
0.0000001
 43
0.0000001
 44
0.0000000001
 40
0.0
 40
0.0
 40
0.0
 40
0.0
 40
0.2473973782
 40
1.0
 40
1.0
 40
1.0
 40
1.0
 10
25.0702791802
 20
11.3720534238
 30
0.0
 10
25.0614081829
 20
11.4094840423
 30
0.0
 10
25.0298862816
 20
11.5617828346
 30
0.0
 10
25.0154390426
 20
11.7175635169
 30
0.0
 10
25.0139948086
 20
11.8345757085
 30
0.0
  0
SPLINE
  5
2EE
100
AcDbEntity
  8
0
100
AcDbSpline
 62
7
  6
BYLAYER
 70
0
 71
3
 72
9
 73
5
 74
0
 42
0.0000001
 43
0.0000001
 44
0.0000000001
 40
0.0
 40
0.0
 40
0.0
 40
0.0
 40
0.5000161318
 40
1.0
 40
1.0
 40
1.0
 40
1.0
 10
24.957578743
 20
16.4054189208
 30
0.0
 10
24.9222215525
 20
16.4054325866
 30
0.0
 10
24.8515172758
 20
16.4048599899
 30
0.0
 10
24.7807934394
 20
16.4033638264
 30
0.0
 10
24.7454465953
 20
16.4041190734
 30
0.0
  0
LINE
  5
2EF
100
AcDbEntity
  8
0
100
AcDbLine
 62
7
  6
BYLAYER
 10
24.9468161851
 20
10.1501267603
 11
24.5453206315
 21
11.1323201369
  0
SPLINE
  5
2F0
100
AcDbEntity
  8
0
100
AcDbSpline
 62
7
  6
BYLAYER
 70
0
 71
3
 72
11
 73
7
 74
0
 42
0.0000001
 43
0.0000001
 44
0.0000000001
 40
0.0
 40
0.0
 40
0.0
 40
0.0
 40
0.222840208
 40
0.4593928004
 40
0.7180081453
 40
1.0
 40
1.0
 40
1.0
 40
1.0
 10
25.2534585228
 20
9.9001828001
 30
0.0
 10
25.2224023639
 20
9.9001828001
 30
0.0
 10
25.1578547116
 20
9.9125489961
 30
0.0
 10
25.0707465904
 20
9.9651548716
 30
0.0
 10
24.9974178313
 20
10.0465800205
 30
0.0
 10
24.9616875048
 20
10.1137492806
 30
0.0
 10
24.9468161851
 20
10.1501267603
 30
0.0
  0
LINE
  5
2F1
100
AcDbEntity
  8
0
100
AcDbLine
 62
7
  6
BYLAYER
 10
26.7505677214
 20
6.9633587113
 11
26.3820264801
 21
9.9001828001
  0
SPLINE
  5
2F2
100
AcDbEntity
  8
0
100
AcDbSpline
 62
7
  6
BYLAYER
 70
0
 71
3
 72
13
 73
9
 74
0
 42
0.0000001
 43
0.0000001
 44
0.0000000001
 40
0.0
 40
0.0
 40
0.0
 40
0.0
 40
0.1054791018
 40
0.2141153206
 40
0.3281177535
 40
0.4491367898
 40
0.7126322928
 40
1.0
 40
1.0
 40
1.0
 40
1.0
 10
27.1012905484
 20
6.5501828001
 30
0.0
 10
27.0805998781
 20
6.5501828001
 30
0.0
 10
27.0384347746
 20
6.5554380691
 30
0.0
 10
26.9777532275
 20
6.5784731648
 30
0.0
 10
26.9210931188
 20
6.615923417
 30
0.0
 10
26.8512950742
 20
6.6851660748
 30
0.0
 10
26.7841636978
 20
6.8013092976
 30
0.0
 10
26.7575892106
 20
6.9074279749
 30
0.0
 10
26.7505677214
 20
6.9633587113
 30
0.0
  0
SPLINE
  5
2F3
100
AcDbEntity
  8
0
100
AcDbSpline
 62
7
  6
BYLAYER
 70
0
 71
3
 72
13
 73
9
 74
0
 42
0.0000001
 43
0.0000001
 44
0.0000000001
 40
0.0
 40
0.0
 40
0.0
 40
0.0
 40
0.2874238404
 40
0.550822825
 40
0.6717962287
 40
0.7857912375
 40
0.8944632537
 40
1.0
 40
1.0
 40
1.0
 40
1.0
 10
35.8395665967
 20
9.487006889
 30
0.0
 10
35.8466388899
 20
9.5430367342
 30
0.0
 10
35.873425101
 20
9.6493018797
 30
0.0
 10
35.9409939228
 20
9.7654380445
 30
0.0
 10
36.0110834526
 20
9.8345735083
 30
0.0
 10
36.067920356
 20
9.8719485163
 30
0.0
 10
36.1287487579
 20
9.8949345713
 30
0.0
 10
36.1710006158
 20
9.9001828001
 30
0.0
 10
36.1917369863
 20
9.9001828001
 30
0.0
  0
SPLINE
  5
2F4
100
AcDbEntity
  8
0
100
AcDbSpline
 62
7
  6
BYLAYER
 70
0
 71
3
 72
13
 73
9
 74
0
 42
0.0000001
 43
0.0000001
 44
0.0000000001
 40
0.0
 40
0.0
 40
0.0
 40
0.0
 40
0.1055355674
 40
0.2142057674
 40
0.3282017964
 40
0.4491780532
 40
0.7125807919
 40
1.0
 40
1.0
 40
1.0
 40
1.0
 10
27.9362617961
 20
9.9001828001
 30
0.0
 10
27.9569981077
 20
9.9001828001
 30
0.0
 10
27.9992498513
 20
9.8949361182
 30
0.0
 10
28.0600787802
 20
9.8719508016
 30
0.0
 10
28.1169172206
 20
9.8345763621
 30
0.0
 10
28.1870087252
 20
9.7654394843
 30
0.0
 10
28.2545787248
 20
9.6493022088
 30
0.0
 10
28.281364953
 20
9.5430362977
 30
0.0
 10
28.2884371912
 20
9.487006889
 30
0.0
  0
SPLINE
  5
2F5
100
AcDbEntity
  8
0
100
AcDbSpline
 62
7
  6
BYLAYER
 70
0
 71
3
 72
13
 73
9
 74
0
 42
0.0000001
 43
0.0000001
 44
0.0000000001
 40
0.0
 40
0.0
 40
0.0
 40
0.0
 40
0.2873719025
 40
0.5508652922
 40
0.6718822544
 40
0.7858834551
 40
0.8945201858
 40
1.0
 40
1.0
 40
1.0
 40
1.0
 10
37.3774360664
 20
6.9633587113
 30
0.0
 10
37.3704144745
 20
6.9074271561
 30
0.0
 10
37.3438396916
 20
6.8013080981
 30
0.0
 10
37.2767080387
 20
6.6851649818
 30
0.0
 10
37.2069104552
 20
6.6159234412
 30
0.0
 10
37.1502509972
 20
6.5784731681
 30
0.0
 10
37.0895693148
 20
6.5554384508
 30
0.0
 10
37.0474040298
 20
6.5501828001
 30
0.0
 10
37.0267132189
 20
6.5501828001
 30
0.0
  0
LINE
  5
2F6
100
AcDbEntity
  8
0
100
AcDbLine
 62
7
  6
BYLAYER
 10
37.7459773078
 20
9.9001828001
 11
37.3774360664
 21
6.9633587113
  0
LINE
  5
2F7
100
AcDbEntity
  8
0
100
AcDbLine
 62
7
  6
BYLAYER
 10
28.2884371912
 20
9.487006889
 11
28.6072771684
 21
6.9633587113
  0
LINE
  5
2F8
100
AcDbEntity
  8
0
100
AcDbLine
 62
7
  6
BYLAYER
 10
35.5207266195
 20
6.9633587113
 11
35.8395665967
 21
9.487006889
  0
SPLINE
  5
2F9
100
AcDbEntity
  8
0
100
AcDbSpline
 62
7
  6
BYLAYER
 70
0
 71
3
 72
13
 73
9
 74
0
 42
0.0000001
 43
0.0000001
 44
0.0000000001
 40
0.0
 40
0.0
 40
0.0
 40
0.0
 40
0.2875188949
 40
0.5508579462
 40
0.6717723786
 40
0.7857283204
 40
0.8944098755
 40
1.0
 40
1.0
 40
1.0
 40
1.0
 10
28.6072771684
 20
6.9633587113
 30
0.0
 10
28.6143790863
 20
6.9072024588
 30
0.0
 10
28.6413005359
 20
6.800728633
 30
0.0
 10
28.7092636357
 20
6.6844988555
 30
0.0
 10
28.7796936995
 20
6.6154754601
 30
0.0
 10
28.8367570929
 20
6.578236282
 30
0.0
 10
28.897772448
 20
6.5553861218
 30
0.0
 10
28.9401174893
 20
6.5501828001
 30
0.0
 10
28.9609049091
 20
6.5501828001
 30
0.0
  0
SPLINE
  5
2FA
100
AcDbEntity
  8
0
100
AcDbSpline
 62
7
  6
BYLAYER
 70
0
 71
3
 72
13
 73
9
 74
0
 42
0.0000001
 43
0.0000001
 44
0.0000000001
 40
0.0
 40
0.0
 40
0.0
 40
0.0
 40
0.1055883011
 40
0.2142679361
 40
0.328225538
 40
0.4491441487
 40
0.7124887475
 40
1.0
 40
1.0
 40
1.0
 40
1.0
 10
35.1671007613
 20
6.5501828001
 30
0.0
 10
35.1878877572
 20
6.5501828001
 30
0.0
 10
35.2302320567
 20
6.5553855119
 30
0.0
 10
35.2912463591
 20
6.5782366989
 30
0.0
 10
35.3483106133
 20
6.6154754812
 30
0.0
 10
35.41874145
 20
6.6845010213
 30
0.0
 10
35.4867041033
 20
6.8007309626
 30
0.0
 10
35.5136249125
 20
6.9072041267
 30
0.0
 10
35.5207266195
 20
6.9633587113
 30
0.0
  0
ENDSEC
  0
SECTION
  2
OBJECTS
  0
DICTIONARY
  5
C
100
AcDbDictionary
280
0
281
1
  3
ACAD_GROUP
350
D
  3
ACAD_MLINESTYLE
350
17
  3
ACAD_LAYOUT
350
1A
  3
ACAD_PLOTSETTINGS
350
19
  3
ACAD_PLOTSTYLENAME
350
E
  0
DICTIONARY
  5
D
102
{ACAD_REACTORS
330
C
102
}
100
AcDbDictionary
280
0
281
1
  0
ACDBDICTIONARYWDFLT
  5
E
102
{ACAD_REACTORS
330
C
102
}
100
AcDbDictionary
281
1
  3
Normal
350
F
100
AcDbDictionaryWithDefault
340
F
  0
DICTIONARY
  5
17
102
{ACAD_REACTORS
330
C
102
}
100
AcDbDictionary
280
0
281
1
  3
Standard
350
18
  0
DICTIONARY
  5
19
102
{ACAD_REACTORS
330
C
102
}
100
AcDbDictionary
281
1
  0
DICTIONARY
  5
1A
102
{ACAD_REACTORS
330
C
102
}
100
AcDbDictionary
281
1
  3
Model
350
2FB
  3
Layout1
350
2FC
  0
ACDBPLACEHOLDER
  5
F
102
{ACAD_REACTORS
330
E
102
}
  0
MLINESTYLE
  5
18
102
{ACAD_REACTORS
330
17
102
}
100
AcDbMlineStyle
  2
STANDARD
 70
0
  3

 62
256
 51
90.0
 52
90.0
 71
2
 49
0.5
 62
256
  6
BYLAYER
 49
-0.5
 62
256
  6
BYLAYER
  0
LAYOUT
  5
2FB
102
{ACAD_REACTORS
330
1A
102
}
100
AcDbPlotSettings
  1

  2
none_device
  4

  6

 40
0.0
 41
0.0
 42
0.0
 43
0.0
 44
210.0
 45
297.0
 46
0.0
 47
0.0
 48
0.0
 49
0.0
140
0.0
141
0.0
142
1.0
143
1.0
 70
1024
 72
1
 73
0
 74
0
  7

 75
0
147
1.0
148
0.0
149
0.0
100
AcDbLayout
  1
Model
 70
0
 71
0
 10
0.0
 20
0.0
 11
210.0
 21
297.0
 12
0.0
 22
0.0
 32
0.0
 14
0.0
 24
0.0
 34
0.0
 15
0.0
 25
0.0
 35
0.0
146
0.0
 13
0.0
 23
0.0
 33
0.0
 16
1.0
 26
0.0
 36
0.0
 17
0.0
 27
1.0
 37
0.0
 76
0
330
210
345
0
346
0
  0
LAYOUT
  5
2FC
102
{ACAD_REACTORS
330
1A
102
}
100
AcDbPlotSettings
  1

  2
none_device
  4

  6

 40
0.0
 41
0.0
 42
0.0
 43
0.0
 44
210.0
 45
297.0
 46
0.0
 47
0.0
 48
0.0
 49
0.0
140
0.0
141
0.0
142
1.0
143
1.0
 70
0
 72
1
 73
0
 74
0
  7

 75
0
147
1.0
148
0.0
149
0.0
100
AcDbLayout
  1
Layout1
 70
0
 71
1
 10
0.0
 20
0.0
 11
210.0
 21
297.0
 12
0.0
 22
0.0
 32
0.0
 14
0.0
 24
0.0
 34
0.0
 15
0.0
 25
0.0
 35
0.0
146
0.0
 13
0.0
 23
0.0
 33
0.0
 16
1.0
 26
0.0
 36
0.0
 17
0.0
 27
1.0
 37
0.0
 76
0
330
211
345
0
346
0
  0
ENDSEC
  0
EOF
