999
DXF file: C:\Users\sesa63760\Dev\_Creo\CAD\MCADID0004811_3D-CAD\drw0001_4.dxf
999
Pro/ENGINEER 2019471 by Parametric Technology Corporation
  0
SECTION
  2
HEADER
  9
$ACADVER
  1
AC1024
  9
$DWGCODEPAGE
  3
ANSI_1252
  9
$EXTMAX
 10
82.6402059202
 20
116.8768626585
 30
0.0
  9
$EXTMIN
 10
0.0
 20
0.0
 30
0.0
  9
$LIMMIN
 10
0.0
 20
0.0
  9
$LIMMAX
 10
82.6402059202
 20
116.8768626585
  9
$VIEWCTR
 10
41.3201029601
 20
58.4384313293
  9
$VIEWSIZE
 40
116.8768626585
  9
$CLAYER
  8
0
  9
$LTSCALE
 40
7.6186399363
  9
$CELTYPE
  6
BYLAYER
  9
$DIMSCALE
 40
1.0
  9
$DIMASZ
 40
0.9838119752
  9
$DIMEXO
 40
1.0
  9
$DIMDLI
 40
5.2637875923
  9
$DIMEXE
 40
1.0
  9
$DIMCEN
 40
1.246686535
  9
$DIMLFAC
 40
1.0
  9
$DIMBLK
  1
_FILLED
  9
$DIMALT
 70
0
  9
$DIMALTF
 40
0.0393700787
  9
$DIMTXT
 40
1.3773367653
  9
$DIMTOL
 70
1
  9
$DIMLIM
 70
0
  9
$DIMTFAC
 40
1.0
  9
$DIMTP
 40
0.01
  9
$DIMTM
 40
0.01
  9
$DIMGAP
 40
0.625
  9
$DIMDSEP
 70
46
  9
$AUNITS
 70
0
  9
$PDMODE
 70
3
  9
$PDSIZE
 40
0.3125
  9
$HANDSEED
  5
379
  9
$TILEMODE
 70
1
  9
$MEASUREMENT
 70
1
  9
$INSUNITS
 70
4
  0
ENDSEC
  0
SECTION
  2
CLASSES
  0
CLASS
  1
ACDBDICTIONARYWDFLT
  2
AcDbDictionaryWithDefault
  3
AutoCAD 2000
 90
0
 91
1
280
0
281
0
  0
CLASS
  1
ACDBPLACEHOLDER
  2
AcDbPlaceHolder
  3
AutoCAD 2000
 90
0
 91
1
280
0
281
0
  0
CLASS
  1
LAYOUT
  2
AcDbLayout
  3
AutoCAD 2000
 90
0
 91
0
280
0
281
0
  0
ENDSEC
  0
SECTION
  2
TABLES
  0
TABLE
  2
VPORT
  5
8
100
AcDbSymbolTable
 70
2
  0
VPORT
  5
1F4
100
AcDbSymbolTableRecord
100
AcDbViewportTableRecord
  2
*ACTIVE
 70
0
 10
0.0
 20
0.0
 11
1.0
 21
1.0
 12
41.3201029601
 22
58.4384313293
 13
0.0
 23
0.0
 14
1.0
 24
1.0
 15
0.0
 25
0.0
 16
0.0
 26
0.0
 36
1.0
 17
0.0
 27
0.0
 37
0.0
 40
116.8768626585
 41
0.7070707071
 42
50.0
 43
0.0
 44
0.0
 50
0.0
 51
0.0
 71
0
 72
100
 73
1
 74
1
 75
0
 76
0
 77
0
 78
0
  0
ENDTAB
  0
TABLE
  2
LTYPE
  5
5
100
AcDbSymbolTable
 70
6
  0
LTYPE
  5
14
100
AcDbSymbolTableRecord
100
AcDbLinetypeTableRecord
  2
BYBLOCK
 70
0
  3

 72
65
 73
0
 40
0.0
  0
LTYPE
  5
15
100
AcDbSymbolTableRecord
100
AcDbLinetypeTableRecord
  2
BYLAYER
 70
0
  3

 72
65
 73
0
 40
0.0
  0
LTYPE
  5
16
100
AcDbSymbolTableRecord
100
AcDbLinetypeTableRecord
  2
CONTINUOUS
 70
64
  3
Solid line
 72
65
 73
0
 40
0.0
  0
LTYPE
  5
1F5
100
AcDbSymbolTableRecord
100
AcDbLinetypeTableRecord
  2
CENTER
 70
64
  3
____ _ ____ _ ____ _ ____ _ ____ _ ____ _ ____
 72
65
 73
4
 40
0.6
 49
0.375
 74
0
 49
-0.075
 74
0
 49
0.075
 74
0
 49
-0.075
 74
0
  0
LTYPE
  5
1F6
100
AcDbSymbolTableRecord
100
AcDbLinetypeTableRecord
  2
HIDDEN
 70
64
  3
- - - - - - - - - - - - - - - - - - - -
 72
65
 73
2
 40
0.2
 49
0.1
 74
0
 49
-0.1
 74
0
  0
LTYPE
  5
1F7
100
AcDbSymbolTableRecord
100
AcDbLinetypeTableRecord
  2
PHANTOM
 70
64
  3
_____ _ _ _____ _ _ _____ _ _ _____
 72
65
 73
6
 40
0.8
 49
0.45
 74
0
 49
-0.05
 74
0
 49
0.1
 74
0
 49
-0.05
 74
0
 49
0.1
 74
0
 49
-0.05
 74
0
  0
LTYPE
  5
1F8
100
AcDbSymbolTableRecord
100
AcDbLinetypeTableRecord
  2
DOT
 70
64
  3
. . . . . . . . . . . . . . . . . . . .
 72
65
 73
2
 40
0.2
 49
0.1
 74
0
 49
-0.1
 74
0
  0
LTYPE
  5
1F9
100
AcDbSymbolTableRecord
100
AcDbLinetypeTableRecord
  2
DASHED
 70
64
  3
- - - - - - - - - - - - - - - - - - - -
 72
65
 73
2
 40
0.2
 49
0.1
 74
0
 49
-0.1
 74
0
  0
ENDTAB
  0
TABLE
  2
LAYER
  5
2
100
AcDbSymbolTable
 70
36
  0
LAYER
  5
10
100
AcDbSymbolTableRecord
100
AcDbLayerTableRecord
  2
0
 70
0
 62
7
  6
CONTINUOUS
370
-3
390
F
  0
LAYER
  5
1FA
100
AcDbSymbolTableRecord
100
AcDbLayerTableRecord
  2
DEFAULT_1
 70
0
 62
7
  6
CENTER
370
-3
390
F
  0
LAYER
  5
1FB
100
AcDbSymbolTableRecord
100
AcDbLayerTableRecord
  2
DEFAULT_2
 70
0
 62
7
  6
HIDDEN
370
-3
390
F
  0
LAYER
  5
1FC
100
AcDbSymbolTableRecord
100
AcDbLayerTableRecord
  2
DEFAULT_3
 70
0
 62
7
  6
PHANTOM
370
-3
390
F
  0
LAYER
  5
1FD
100
AcDbSymbolTableRecord
100
AcDbLayerTableRecord
  2
00_COMPONENTS
 70
0
 62
7
  6
CONTINUOUS
370
-3
390
F
  0
LAYER
  5
1FE
100
AcDbSymbolTableRecord
100
AcDbLayerTableRecord
  2
01_1_DEFAULT_DATUMS
 70
0
 62
7
  6
CONTINUOUS
370
-3
390
F
  0
LAYER
  5
1FF
100
AcDbSymbolTableRecord
100
AcDbLayerTableRecord
  2
01_PLANES
 70
0
 62
7
  6
CONTINUOUS
370
-3
390
F
  0
LAYER
  5
200
100
AcDbSymbolTableRecord
100
AcDbLayerTableRecord
  2
02_COORD_SYS
 70
0
 62
7
  6
CONTINUOUS
370
-3
390
F
  0
LAYER
  5
201
100
AcDbSymbolTableRecord
100
AcDbLayerTableRecord
  2
03_AXES
 70
0
 62
7
  6
CONTINUOUS
370
-3
390
F
  0
LAYER
  5
202
100
AcDbSymbolTableRecord
100
AcDbLayerTableRecord
  2
04_POINTS
 70
0
 62
7
  6
CONTINUOUS
370
-3
390
F
  0
LAYER
  5
203
100
AcDbSymbolTableRecord
100
AcDbLayerTableRecord
  2
05_CURVES
 70
0
 62
7
  6
CONTINUOUS
370
-3
390
F
  0
LAYER
  5
204
100
AcDbSymbolTableRecord
100
AcDbLayerTableRecord
  2
06_SURFS
 70
0
 62
7
  6
CONTINUOUS
370
-3
390
F
  0
LAYER
  5
205
100
AcDbSymbolTableRecord
100
AcDbLayerTableRecord
  2
07_COSMETICS
 70
0
 62
7
  6
CONTINUOUS
370
-3
390
F
  0
LAYER
  5
206
100
AcDbSymbolTableRecord
100
AcDbLayerTableRecord
  2
10_NOTES
 70
0
 62
7
  6
CONTINUOUS
370
-3
390
F
  0
LAYER
  5
207
100
AcDbSymbolTableRecord
100
AcDbLayerTableRecord
  2
11_NOTES_PUB
 70
0
 62
7
  6
CONTINUOUS
370
-3
390
F
  0
LAYER
  5
208
100
AcDbSymbolTableRecord
100
AcDbLayerTableRecord
  2
13_REF_GTOL
 70
0
 62
7
  6
CONTINUOUS
370
-3
390
F
  0
LAYER
  5
209
100
AcDbSymbolTableRecord
100
AcDbLayerTableRecord
  2
16_MISC
 70
0
 62
7
  6
CONTINUOUS
370
-3
390
F
  0
LAYER
  5
20A
100
AcDbSymbolTableRecord
100
AcDbLayerTableRecord
  2
17_NO_PRINT
 70
0
 62
7
  6
CONTINUOUS
370
-3
390
F
  0
LAYER
  5
20B
100
AcDbSymbolTableRecord
100
AcDbLayerTableRecord
  2
18_DATUM_CAMS_JOINTS
 70
0
 62
7
  6
CONTINUOUS
370
-3
390
F
  0
LAYER
  5
20C
100
AcDbSymbolTableRecord
100
AcDbLayerTableRecord
  2
19_DATUM_FUNCTIONAL
 70
0
 62
7
  6
CONTINUOUS
370
-3
390
F
  0
LAYER
  5
20D
100
AcDbSymbolTableRecord
100
AcDbLayerTableRecord
  2
20_DATUM_KINEMATIC_SCHEME
 70
0
 62
7
  6
CONTINUOUS
370
-3
390
F
  0
ENDTAB
  0
TABLE
  2
STYLE
  5
3
100
AcDbSymbolTable
 70
1
  0
STYLE
  5
11
100
AcDbSymbolTableRecord
100
AcDbTextStyleTableRecord
  2
STANDARD
 70
0
 40
0.0
 41
1.0
 50
0.0
 71
0
 42
0.2
  3
ARIAL.TTF
  4

  0
STYLE
  5
20E
100
AcDbSymbolTableRecord
100
AcDbTextStyleTableRecord
  2
TEXTSTYLE_1
 70
0
 40
0.0
 41
0.8
 50
0.0
 71
0
 42
0.2
  3
gdt
  4

  0
ENDTAB
  0
TABLE
  2
VIEW
  5
6
100
AcDbSymbolTable
 70
0
  0
ENDTAB
  0
TABLE
  2
UCS
  5
7
100
AcDbSymbolTable
 70
0
  0
ENDTAB
  0
TABLE
  2
APPID
  5
9
100
AcDbSymbolTable
 70
1
  0
APPID
  5
20F
100
AcDbSymbolTableRecord
100
AcDbRegAppTableRecord
  2
ACAD
 70
0
  0
ENDTAB
  0
TABLE
  2
BLOCK_RECORD
  5
1
100
AcDbSymbolTable
 70
0
  0
BLOCK_RECORD
  5
210
100
AcDbSymbolTableRecord
100
AcDbBlockTableRecord
  2
*Model_Space
  0
BLOCK_RECORD
  5
211
100
AcDbSymbolTableRecord
100
AcDbBlockTableRecord
  2
*Paper_Space
  0
BLOCK_RECORD
  5
212
100
AcDbSymbolTableRecord
100
AcDbBlockTableRecord
  2
_FILLED
  0
ENDTAB
  0
TABLE
  2
DIMSTYLE
  5
A
100
AcDbSymbolTable
 70
1
100
AcDbDimStyleTable
 71
0
  0
DIMSTYLE
105
213
100
AcDbSymbolTableRecord
100
AcDbDimStyleTableRecord
  2
STANDARD
 70
0
  3

  4

 40
1.0
 41
0.9838119752
 42
1.0
 43
0.38
 44
1.0
 45
0.0
 46
0.0
 47
0.01
 48
0.01
140
1.3773367653
141
0.09
142
0.0
143
25.4
144
1.0
145
0.0
146
1.0
147
0.625
 71
1
 72
0
 73
0
 74
0
 75
0
 76
0
 77
1
 78
8
 79
2
170
0
171
1
172
0
173
0
174
0
175
0
176
0
177
0
178
0
270
2
179
2
271
2
272
2
273
2
274
2
275
0
280
0
281
0
282
0
283
1
284
8
285
0
286
0
287
3
288
0
340
11
278
46
341
212
342
212
343
212
344
212
  0
ENDTAB
  0
ENDSEC
  0
SECTION
  2
BLOCKS
  0
BLOCK
  5
20
100
AcDbEntity
  8
0
100
AcDbBlockBegin
  2
*Model_Space
 70
0
 10
0.0
 20
0.0
 30
0.0
  3
*Model_Space
  1

  0
ENDBLK
  5
21
100
AcDbEntity
  8
0
100
AcDbBlockEnd
  0
BLOCK
  5
1C
100
AcDbEntity
  8
0
100
AcDbBlockBegin
  2
*Paper_Space
 70
0
 10
0.0
 20
0.0
 30
0.0
  3
*Paper_Space
  1

  0
ENDBLK
  5
1D
100
AcDbEntity
  8
0
100
AcDbBlockEnd
  0
BLOCK
  5
214
100
AcDbEntity
  8
0
100
AcDbBlockBegin
  2
_FILLED
 70
64
 10
0.0
 20
0.0
  3
_FILLED
  1

  0
SOLID
  5
215
100
AcDbEntity
  8
0
  6
BYBLOCK
 62
0
100
AcDbTrace
 10
0.0
 20
0.0
 11
-1.0
 21
0.25
 12
-1.0
 22
-0.25
 13
-1.0
 23
-0.25
  0
ENDBLK
  5
216
100
AcDbEntity
  8
0
  6
BYBLOCK
 62
0
100
AcDbBlockEnd
  0
ENDSEC
  0
SECTION
  2
ENTITIES
  0
LINE
  5
217
100
AcDbEntity
  8
0
100
AcDbLine
 62
7
  6
BYLAYER
 10
43.4930239759
 20
11.4927980578
 11
41.2930239759
 21
11.4927980578
  0
LINE
  5
218
100
AcDbEntity
  8
0
100
AcDbLine
 62
7
  6
BYLAYER
 10
39.827872901
 20
9.2451034019
 11
39.5416354369
 21
9.3365151855
  0
LINE
  5
219
100
AcDbEntity
  8
0
100
AcDbLine
 62
7
  6
BYLAYER
 10
40.1059018816
 20
9.1311389954
 11
39.5416354369
 21
9.3365151855
  0
LINE
  5
21A
100
AcDbEntity
  8
0
100
AcDbLine
 62
7
  6
BYLAYER
 10
40.5871445679
 20
11.8871522387
 11
40.9445133162
 21
11.7570806516
  0
LINE
  5
21B
100
AcDbEntity
  8
0
100
AcDbLine
 62
7
  6
BYLAYER
 10
40.1059018816
 20
9.1311389954
 11
39.827872901
 21
9.2451034019
  0
LINE
  5
21C
100
AcDbEntity
  8
0
100
AcDbLine
 62
7
  6
BYLAYER
 10
39.2233870129
 20
9.495489655
 11
38.9462058307
 21
9.6115008279
  0
LINE
  5
21D
100
AcDbEntity
  8
0
100
AcDbLine
 62
7
  6
BYLAYER
 10
39.4904253568
 20
9.3577270952
 11
38.9462058307
 21
9.6115008279
  0
LINE
  5
21E
100
AcDbEntity
  8
0
100
AcDbLine
 62
7
  6
BYLAYER
 10
39.4904253568
 20
9.3577270952
 11
39.2233870129
 21
9.495489655
  0
LINE
  5
21F
100
AcDbEntity
  8
0
100
AcDbLine
 62
7
  6
BYLAYER
 10
38.6430239759
 20
9.7976075294
 11
38.3770085918
 21
9.9373351766
  0
LINE
  5
220
100
AcDbEntity
  8
0
100
AcDbLine
 62
7
  6
BYLAYER
 10
38.8970393601
 20
9.6370952725
 11
38.3770085918
 21
9.9373351766
  0
LINE
  5
221
100
AcDbEntity
  8
0
100
AcDbLine
 62
7
  6
BYLAYER
 10
34.4690098417
 20
15.1927980578
 11
37.5930239759
 21
15.1927980578
  0
LINE
  5
222
100
AcDbEntity
  8
0
100
AcDbLine
 62
7
  6
BYLAYER
 10
47.1930239759
 20
15.1927980578
 11
50.3170381102
 21
15.1927980578
  0
LINE
  5
223
100
AcDbEntity
  8
0
100
AcDbLine
 62
7
  6
BYLAYER
 10
50.3170381102
 20
17.3927980578
 11
47.1930239759
 21
17.3927980578
  0
LINE
  5
224
100
AcDbEntity
  8
0
100
AcDbLine
 62
7
  6
BYLAYER
 10
37.5930239759
 20
17.3927980578
 11
34.4690098417
 21
17.3927980578
  0
LINE
  5
225
100
AcDbEntity
  8
0
100
AcDbLine
 62
7
  6
BYLAYER
 10
40.2100391506
 20
12.0613098122
 11
40.5547115171
 21
11.9005864482
  0
LINE
  5
226
100
AcDbEntity
  8
0
100
AcDbLine
 62
7
  6
BYLAYER
 10
39.849547566
 20
12.2676715664
 11
40.1789003859
 21
12.0775196271
  0
LINE
  5
227
100
AcDbEntity
  8
0
100
AcDbLine
 62
7
  6
BYLAYER
 10
38.8970393601
 20
9.6370952725
 11
38.6430239759
 21
9.7976075294
  0
LINE
  5
228
100
AcDbEntity
  8
0
100
AcDbLine
 62
7
  6
BYLAYER
 10
38.0912007033
 20
10.1491577256
 11
37.8383756549
 21
10.3115384353
  0
LINE
  5
229
100
AcDbEntity
  8
0
100
AcDbLine
 62
7
  6
BYLAYER
 10
38.3302599173
 20
9.9671173669
 11
37.8383756549
 21
10.3115384353
  0
LINE
  5
22A
100
AcDbEntity
  8
0
100
AcDbLine
 62
7
  6
BYLAYER
 10
38.3302599173
 20
9.9671173669
 11
38.0912007033
 21
10.1491577256
  0
LINE
  5
22B
100
AcDbEntity
  8
0
100
AcDbLine
 62
7
  6
BYLAYER
 10
37.5721169033
 20
10.5474647344
 11
37.3344063418
 21
10.7312626914
  0
LINE
  5
22C
100
AcDbEntity
  8
0
100
AcDbLine
 62
7
  6
BYLAYER
 10
41.2930239759
 20
21.0927980578
 11
43.4930239759
 21
21.0927980578
  0
LINE
  5
22D
100
AcDbEntity
  8
0
100
AcDbLine
 62
7
  6
BYLAYER
 10
35.2313649136
 20
18.5799201521
 11
37.809562176
 21
17.7565561982
  0
LINE
  5
22E
100
AcDbEntity
  8
0
100
AcDbLine
 62
7
  6
BYLAYER
 10
46.9764857758
 20
14.8290399174
 11
49.5546830383
 21
14.0056759635
  0
LINE
  5
22F
100
AcDbEntity
  8
0
100
AcDbLine
 62
7
  6
BYLAYER
 10
35.34532932
 20
18.8579491327
 11
37.8752825568
 21
17.9371214605
  0
LINE
  5
230
100
AcDbEntity
  8
0
100
AcDbLine
 62
7
  6
BYLAYER
 10
46.910765395
 20
14.6484746551
 11
49.4407186318
 21
13.7276469829
  0
LINE
  5
231
100
AcDbEntity
  8
0
100
AcDbLine
 62
7
  6
BYLAYER
 10
35.4367411036
 20
19.1441865968
 11
37.9410029376
 21
18.1176867227
  0
LINE
  5
232
100
AcDbEntity
  8
0
100
AcDbLine
 62
7
  6
BYLAYER
 10
46.8450450142
 20
14.4679093928
 11
49.3493068482
 21
13.4414095188
  0
LINE
  5
233
100
AcDbEntity
  8
0
100
AcDbLine
 62
7
  6
BYLAYER
 10
35.4579530133
 20
19.1953966769
 11
37.9545785599
 21
18.1504611741
  0
LINE
  5
234
100
AcDbEntity
  8
0
100
AcDbLine
 62
7
  6
BYLAYER
 10
46.831469392
 20
14.4351349415
 11
49.3280949385
 21
13.3901994386
  0
LINE
  5
235
100
AcDbEntity
  8
0
100
AcDbLine
 62
7
  6
BYLAYER
 10
35.5957155732
 20
19.4624350208
 11
38.0357861543
 21
18.3246114224
  0
LINE
  5
236
100
AcDbEntity
  8
0
100
AcDbLine
 62
7
  6
BYLAYER
 10
46.7502617975
 20
14.2609846932
 11
49.1903323787
 21
13.1231610947
  0
LINE
  5
237
100
AcDbEntity
  8
0
100
AcDbLine
 62
7
  6
BYLAYER
 10
35.7117267461
 20
19.739616203
 11
38.1169937488
 21
18.4987616707
  0
LINE
  5
238
100
AcDbEntity
  8
0
100
AcDbLine
 62
7
  6
BYLAYER
 10
46.669054203
 20
14.0868344448
 11
49.0743212058
 21
12.8459799126
  0
LINE
  5
239
100
AcDbEntity
  8
0
100
AcDbLine
 62
7
  6
BYLAYER
 10
35.7373211907
 20
19.7887826736
 11
38.1333741934
 21
18.5302282119
  0
LINE
  5
23A
100
AcDbEntity
  8
0
100
AcDbLine
 62
7
  6
BYLAYER
 10
46.6526737585
 20
14.0553679037
 11
49.0487267612
 21
12.796813442
  0
LINE
  5
23B
100
AcDbEntity
  8
0
100
AcDbLine
 62
7
  6
BYLAYER
 10
39.5084133726
 20
12.5046669636
 11
39.8199400721
 21
12.2865336202
  0
LINE
  5
23C
100
AcDbEntity
  8
0
100
AcDbLine
 62
7
  6
BYLAYER
 10
37.7944005621
 20
10.3452817108
 11
37.3344063418
 21
10.7312626914
  0
LINE
  5
23D
100
AcDbEntity
  8
0
100
AcDbLine
 62
7
  6
BYLAYER
 10
39.1892328077
 20
12.7704923257
 11
39.4805624805
 21
12.5260377047
  0
LINE
  5
23E
100
AcDbEntity
  8
0
100
AcDbLine
 62
7
  6
BYLAYER
 10
37.7944005621
 20
10.3452817108
 11
37.5721169033
 21
10.5474647344
  0
LINE
  5
23F
100
AcDbEntity
  8
0
100
AcDbLine
 62
7
  6
BYLAYER
 10
37.089723117
 20
10.9894971989
 11
36.8689361635
 21
11.1933135897
  0
LINE
  5
240
100
AcDbEntity
  8
0
100
AcDbLine
 62
7
  6
BYLAYER
 10
37.2935395078
 20
10.7687102454
 11
36.8689361635
 21
11.1933135897
  0
LINE
  5
241
100
AcDbEntity
  8
0
100
AcDbLine
 62
7
  6
BYLAYER
 10
43.4930239759
 20
23.7927980578
 11
42.8930239759
 21
23.7927980578
  0
LINE
  5
242
100
AcDbEntity
  8
0
100
AcDbLine
 62
7
  6
BYLAYER
 10
41.8930239759
 20
23.7927980578
 11
41.2930239759
 21
23.7927980578
  0
LINE
  5
243
100
AcDbEntity
  8
0
100
AcDbLine
 62
7
  6
BYLAYER
 10
43.4930239759
 20
24.2927980578
 11
41.2930239759
 21
24.2927980578
  0
LINE
  5
244
100
AcDbEntity
  8
0
100
AcDbLine
 62
7
  6
BYLAYER
 10
44.2179126409
 20
20.7448190961
 11
43.8567821163
 21
20.8762598577
  0
LINE
  5
245
100
AcDbEntity
  8
0
100
AcDbLine
 62
7
  6
BYLAYER
 10
35.8978334475
 20
20.0427980578
 11
38.2294509627
 21
18.6966380578
  0
LINE
  5
246
100
AcDbEntity
  8
0
100
AcDbLine
 62
7
  6
BYLAYER
 10
46.5565969892
 20
13.8889580578
 11
48.8882145043
 21
12.5427980578
  0
LINE
  5
247
100
AcDbEntity
  8
0
100
AcDbLine
 62
7
  6
BYLAYER
 10
36.0375610947
 20
20.308813442
 11
38.325527732
 21
18.8630479037
  0
LINE
  5
248
100
AcDbEntity
  8
0
100
AcDbLine
 62
7
  6
BYLAYER
 10
46.4605202199
 20
13.7225482119
 11
48.7484868571
 21
12.2767826736
  0
LINE
  5
249
100
AcDbEntity
  8
0
100
AcDbLine
 62
7
  6
BYLAYER
 10
36.067343285
 20
20.3555621165
 11
38.3445883337
 21
18.8929670553
  0
LINE
  5
24A
100
AcDbEntity
  8
0
100
AcDbLine
 62
7
  6
BYLAYER
 10
46.4414596181
 20
13.6926290602
 11
48.7187046669
 21
12.2300339991
  0
LINE
  5
24B
100
AcDbEntity
  8
0
100
AcDbLine
 62
7
  6
BYLAYER
 10
36.2493836438
 20
20.5946213304
 11
38.4548030756
 21
19.0503700193
  0
LINE
  5
24C
100
AcDbEntity
  8
0
100
AcDbLine
 62
7
  6
BYLAYER
 10
46.3312448762
 20
13.5352260963
 11
48.5366643081
 21
11.9909747852
  0
LINE
  5
24D
100
AcDbEntity
  8
0
100
AcDbLine
 62
7
  6
BYLAYER
 10
36.4117643535
 20
20.8474463789
 11
38.5650178176
 21
19.2077729833
  0
LINE
  5
24E
100
AcDbEntity
  8
0
100
AcDbLine
 62
7
  6
BYLAYER
 10
46.2210301343
 20
13.3778231323
 11
48.3742835984
 21
11.7381497367
  0
LINE
  5
24F
100
AcDbEntity
  8
0
100
AcDbLine
 62
7
  6
BYLAYER
 10
38.8944350281
 20
13.0631245613
 11
39.1633504795
 21
12.7942091099
  0
LINE
  5
250
100
AcDbEntity
  8
0
100
AcDbLine
 62
7
  6
BYLAYER
 10
37.2935395078
 20
10.7687102454
 11
37.089723117
 21
10.9894971989
  0
LINE
  5
251
100
AcDbEntity
  8
0
100
AcDbLine
 62
7
  6
BYLAYER
 10
36.6476906525
 20
11.4718909851
 11
36.4455076289
 21
11.6941746439
  0
LINE
  5
252
100
AcDbEntity
  8
0
100
AcDbLine
 62
7
  6
BYLAYER
 10
36.8314886095
 20
11.2341804237
 11
36.4455076289
 21
11.6941746439
  0
LINE
  5
253
100
AcDbEntity
  8
0
100
AcDbLine
 62
7
  6
BYLAYER
 10
37.3478086888
 20
25.2927980578
 11
47.4382392631
 21
25.2927980578
  0
LINE
  5
254
100
AcDbEntity
  8
0
100
AcDbLine
 62
7
  6
BYLAYER
 10
47.3930239759
 20
27.7927980578
 11
37.3930239759
 21
27.7927980578
  0
LINE
  5
255
100
AcDbEntity
  8
0
100
AcDbLine
 62
7
  6
BYLAYER
 10
44.9581750509
 20
23.3404927137
 11
45.2444125149
 21
23.2490809301
  0
LINE
  5
256
100
AcDbEntity
  8
0
100
AcDbLine
 62
7
  6
BYLAYER
 10
44.6801460703
 20
23.4544571202
 11
45.2444125149
 21
23.2490809301
  0
LINE
  5
257
100
AcDbEntity
  8
0
100
AcDbLine
 62
7
  6
BYLAYER
 10
44.6801460703
 20
23.4544571202
 11
44.9581750509
 21
23.3404927137
  0
LINE
  5
258
100
AcDbEntity
  8
0
100
AcDbLine
 62
7
  6
BYLAYER
 10
45.562660939
 20
23.0901064606
 11
45.8398421212
 21
22.9740952876
  0
LINE
  5
259
100
AcDbEntity
  8
0
100
AcDbLine
 62
7
  6
BYLAYER
 10
44.5989875889
 20
20.5688282849
 11
44.2506870922
 21
20.7312434738
  0
LINE
  5
25A
100
AcDbEntity
  8
0
100
AcDbLine
 62
7
  6
BYLAYER
 10
45.2956225951
 20
23.2278690204
 11
45.8398421212
 21
22.9740952876
  0
LINE
  5
25B
100
AcDbEntity
  8
0
100
AcDbLine
 62
7
  6
BYLAYER
 10
44.9632738218
 20
20.3602943018
 11
44.6304541301
 21
20.5524478404
  0
LINE
  5
25C
100
AcDbEntity
  8
0
100
AcDbLine
 62
7
  6
BYLAYER
 10
36.4455076289
 20
20.8914214716
 11
38.5866135139
 21
19.2359170427
  0
LINE
  5
25D
100
AcDbEntity
  8
0
100
AcDbLine
 62
7
  6
BYLAYER
 10
46.199434438
 20
13.3496790729
 11
48.3405403229
 21
11.6941746439
  0
LINE
  5
25E
100
AcDbEntity
  8
0
100
AcDbLine
 62
7
  6
BYLAYER
 10
36.6476906525
 20
21.1137051304
 11
38.7101274276
 21
19.3831151931
  0
LINE
  5
25F
100
AcDbEntity
  8
0
100
AcDbLine
 62
7
  6
BYLAYER
 10
46.0759205242
 20
13.2024809225
 11
48.1383572993
 21
11.4718909851
  0
LINE
  5
260
100
AcDbEntity
  8
0
100
AcDbLine
 62
7
  6
BYLAYER
 10
36.8314886095
 20
21.3514156919
 11
38.8336413414
 21
19.5303133436
  0
LINE
  5
261
100
AcDbEntity
  8
0
100
AcDbLine
 62
7
  6
BYLAYER
 10
45.9524066104
 20
13.055282772
 11
47.9545593424
 21
11.2341804237
  0
LINE
  5
262
100
AcDbEntity
  8
0
100
AcDbLine
 62
7
  6
BYLAYER
 10
36.8689361635
 20
21.3922825259
 11
38.857607776
 21
19.5564681174
  0
LINE
  5
263
100
AcDbEntity
  8
0
100
AcDbLine
 62
7
  6
BYLAYER
 10
45.9284401759
 20
13.0291279982
 11
47.9171117884
 21
11.1933135897
  0
LINE
  5
264
100
AcDbEntity
  8
0
100
AcDbLine
 62
7
  6
BYLAYER
 10
38.6262636228
 20
13.3803365624
 11
38.8707182439
 21
13.0890068895
  0
LINE
  5
265
100
AcDbEntity
  8
0
100
AcDbLine
 62
7
  6
BYLAYER
 10
36.8314886095
 20
11.2341804237
 11
36.6476906525
 21
11.4718909851
  0
LINE
  5
266
100
AcDbEntity
  8
0
100
AcDbLine
 62
7
  6
BYLAYER
 10
36.2493836438
 20
11.9909747852
 11
36.067343285
 21
12.2300339991
  0
LINE
  5
267
100
AcDbEntity
  8
0
100
AcDbLine
 62
7
  6
BYLAYER
 10
36.4117643535
 20
11.7381497367
 11
36.067343285
 21
12.2300339991
  0
LINE
  5
268
100
AcDbEntity
  8
0
100
AcDbLine
 62
7
  6
BYLAYER
 10
36.4117643535
 20
11.7381497367
 11
36.2493836438
 21
11.9909747852
  0
LINE
  5
269
100
AcDbEntity
  8
0
100
AcDbLine
 62
7
  6
BYLAYER
 10
35.8978334475
 20
12.5427980578
 11
35.7373211907
 21
12.796813442
  0
LINE
  5
26A
100
AcDbEntity
  8
0
100
AcDbLine
 62
7
  6
BYLAYER
 10
45.2956225951
 20
23.2278690204
 11
45.562660939
 21
23.0901064606
  0
LINE
  5
26B
100
AcDbEntity
  8
0
100
AcDbLine
 62
7
  6
BYLAYER
 10
46.1430239759
 20
22.7879885862
 11
46.4090393601
 21
22.648260939
  0
LINE
  5
26C
100
AcDbEntity
  8
0
100
AcDbLine
 62
7
  6
BYLAYER
 10
45.8890085918
 20
22.9485008431
 11
46.4090393601
 21
22.648260939
  0
LINE
  5
26D
100
AcDbEntity
  8
0
100
AcDbLine
 62
7
  6
BYLAYER
 10
45.8890085918
 20
22.9485008431
 11
46.1430239759
 21
22.7879885862
  0
LINE
  5
26E
100
AcDbEntity
  8
0
100
AcDbLine
 62
7
  6
BYLAYER
 10
46.6948472486
 20
22.43643839
 11
46.947672297
 21
22.2740576803
  0
LINE
  5
26F
100
AcDbEntity
  8
0
100
AcDbLine
 62
7
  6
BYLAYER
 10
45.3079989014
 20
20.1208042162
 11
44.9931929735
 21
20.3412337
  0
LINE
  5
270
100
AcDbEntity
  8
0
100
AcDbLine
 62
7
  6
BYLAYER
 10
46.4557880346
 20
22.6184787487
 11
46.947672297
 21
22.2740576803
  0
LINE
  5
271
100
AcDbEntity
  8
0
100
AcDbLine
 62
7
  6
BYLAYER
 10
45.6305392617
 20
19.8521806923
 11
45.3361429608
 21
20.0992085199
  0
LINE
  5
272
100
AcDbEntity
  8
0
100
AcDbLine
 62
7
  6
BYLAYER
 10
37.089723117
 20
21.5960989167
 11
38.9934808462
 21
19.6923411876
  0
LINE
  5
273
100
AcDbEntity
  8
0
100
AcDbLine
 62
7
  6
BYLAYER
 10
45.7925671057
 20
12.893254928
 11
47.6963248348
 21
10.9894971989
  0
LINE
  5
274
100
AcDbEntity
  8
0
100
AcDbLine
 62
7
  6
BYLAYER
 10
37.2935395078
 20
21.8168858702
 11
39.1293539163
 21
19.8282142577
  0
LINE
  5
275
100
AcDbEntity
  8
0
100
AcDbLine
 62
7
  6
BYLAYER
 10
45.6566940355
 20
12.7573818578
 11
47.492508444
 21
10.7687102454
  0
LINE
  5
276
100
AcDbEntity
  8
0
100
AcDbLine
 62
7
  6
BYLAYER
 10
37.3344063418
 20
21.8543334242
 11
39.1555086901
 21
19.8521806923
  0
LINE
  5
277
100
AcDbEntity
  8
0
100
AcDbLine
 62
7
  6
BYLAYER
 10
45.6305392617
 20
12.7334154233
 11
47.45164161
 21
10.7312626914
  0
LINE
  5
278
100
AcDbEntity
  8
0
100
AcDbLine
 62
7
  6
BYLAYER
 10
37.5721169033
 20
22.0381313812
 11
39.3027068406
 21
19.9756946061
  0
LINE
  5
279
100
AcDbEntity
  8
0
100
AcDbLine
 62
7
  6
BYLAYER
 10
45.4833411113
 20
12.6099015095
 11
47.2139310486
 21
10.5474647344
  0
LINE
  5
27A
100
AcDbEntity
  8
0
100
AcDbLine
 62
7
  6
BYLAYER
 10
38.3867595383
 20
13.719714154
 11
38.6048928817
 21
13.4081874544
  0
LINE
  5
27B
100
AcDbEntity
  8
0
100
AcDbLine
 62
7
  6
BYLAYER
 10
36.0375610947
 20
12.2767826736
 11
35.7373211907
 21
12.796813442
  0
LINE
  5
27C
100
AcDbEntity
  8
0
100
AcDbLine
 62
7
  6
BYLAYER
 10
36.0375610947
 20
12.2767826736
 11
35.8978334475
 21
12.5427980578
  0
LINE
  5
27D
100
AcDbEntity
  8
0
100
AcDbLine
 62
7
  6
BYLAYER
 10
35.5957155732
 20
13.1231610947
 11
35.4579530133
 21
13.3901994386
  0
LINE
  5
27E
100
AcDbEntity
  8
0
100
AcDbLine
 62
7
  6
BYLAYER
 10
46.4557880346
 20
22.6184787487
 11
46.6948472486
 21
22.43643839
  0
LINE
  5
27F
100
AcDbEntity
  8
0
100
AcDbLine
 62
7
  6
BYLAYER
 10
47.2139310486
 20
22.0381313812
 11
47.45164161
 21
21.8543334242
  0
LINE
  5
280
100
AcDbEntity
  8
0
100
AcDbLine
 62
7
  6
BYLAYER
 10
46.9916473898
 20
22.2403144048
 11
47.45164161
 21
21.8543334242
  0
LINE
  5
281
100
AcDbEntity
  8
0
100
AcDbLine
 62
7
  6
BYLAYER
 10
46.9916473898
 20
22.2403144048
 11
47.2139310486
 21
22.0381313812
  0
LINE
  5
282
100
AcDbEntity
  8
0
100
AcDbLine
 62
7
  6
BYLAYER
 10
47.6963248348
 20
21.5960989167
 11
47.9171117884
 21
21.3922825259
  0
LINE
  5
283
100
AcDbEntity
  8
0
100
AcDbLine
 62
7
  6
BYLAYER
 10
45.9284401759
 20
19.5564681174
 11
45.6566940355
 21
19.8282142577
  0
LINE
  5
284
100
AcDbEntity
  8
0
100
AcDbLine
 62
7
  6
BYLAYER
 10
37.7944005621
 20
22.2403144048
 11
39.4499049911
 21
20.0992085199
  0
LINE
  5
285
100
AcDbEntity
  8
0
100
AcDbLine
 62
7
  6
BYLAYER
 10
45.3361429608
 20
12.4863875957
 11
46.9916473898
 21
10.3452817108
  0
LINE
  5
286
100
AcDbEntity
  8
0
100
AcDbLine
 62
7
  6
BYLAYER
 10
37.8383756549
 20
22.2740576803
 11
39.4780490504
 21
20.1208042162
  0
LINE
  5
287
100
AcDbEntity
  8
0
100
AcDbLine
 62
7
  6
BYLAYER
 10
45.3079989014
 20
12.4647918994
 11
46.947672297
 21
10.3115384353
  0
LINE
  5
288
100
AcDbEntity
  8
0
100
AcDbLine
 62
7
  6
BYLAYER
 10
38.0912007033
 20
22.43643839
 11
39.6354520144
 21
20.2310189581
  0
LINE
  5
289
100
AcDbEntity
  8
0
100
AcDbLine
 62
7
  6
BYLAYER
 10
45.1505959374
 20
12.3545771575
 11
46.6948472486
 21
10.1491577256
  0
LINE
  5
28A
100
AcDbEntity
  8
0
100
AcDbLine
 62
7
  6
BYLAYER
 10
38.1777455453
 20
14.0786744678
 11
38.3678974845
 21
13.7493216478
  0
LINE
  5
28B
100
AcDbEntity
  8
0
100
AcDbLine
 62
7
  6
BYLAYER
 10
35.7117267461
 20
12.8459799126
 11
35.4579530133
 21
13.3901994386
  0
LINE
  5
28C
100
AcDbEntity
  8
0
100
AcDbLine
 62
7
  6
BYLAYER
 10
35.7117267461
 20
12.8459799126
 11
35.5957155732
 21
13.1231610947
  0
LINE
  5
28D
100
AcDbEntity
  8
0
100
AcDbLine
 62
7
  6
BYLAYER
 10
35.34532932
 20
13.7276469829
 11
35.2313649136
 21
14.0056759635
  0
LINE
  5
28E
100
AcDbEntity
  8
0
100
AcDbLine
 62
7
  6
BYLAYER
 10
47.492508444
 20
21.8168858702
 11
47.9171117884
 21
21.3922825259
  0
LINE
  5
28F
100
AcDbEntity
  8
0
100
AcDbLine
 62
7
  6
BYLAYER
 10
47.492508444
 20
21.8168858702
 11
47.6963248348
 21
21.5960989167
  0
LINE
  5
290
100
AcDbEntity
  8
0
100
AcDbLine
 62
7
  6
BYLAYER
 10
48.1383572993
 20
21.1137051304
 11
48.3405403229
 21
20.8914214716
  0
LINE
  5
291
100
AcDbEntity
  8
0
100
AcDbLine
 62
7
  6
BYLAYER
 10
46.199434438
 20
19.2359170427
 11
45.9524066104
 21
19.5303133436
  0
LINE
  5
292
100
AcDbEntity
  8
0
100
AcDbLine
 62
7
  6
BYLAYER
 10
38.3302599173
 20
22.6184787487
 11
39.7928549784
 21
20.3412337
  0
LINE
  5
293
100
AcDbEntity
  8
0
100
AcDbLine
 62
7
  6
BYLAYER
 10
44.9931929735
 20
12.2443624156
 11
46.4557880346
 21
9.9671173669
  0
LINE
  5
294
100
AcDbEntity
  8
0
100
AcDbLine
 62
7
  6
BYLAYER
 10
38.3770085918
 20
22.648260939
 11
39.8227741301
 21
20.3602943018
  0
LINE
  5
295
100
AcDbEntity
  8
0
100
AcDbLine
 62
7
  6
BYLAYER
 10
44.9632738218
 20
12.2253018138
 11
46.4090393601
 21
9.9373351766
  0
LINE
  5
296
100
AcDbEntity
  8
0
100
AcDbLine
 62
7
  6
BYLAYER
 10
38.6430239759
 20
22.7879885862
 11
39.9891839759
 21
20.4563710711
  0
LINE
  5
297
100
AcDbEntity
  8
0
100
AcDbLine
 62
7
  6
BYLAYER
 10
44.7968639759
 20
12.1292250445
 11
46.1430239759
 21
9.7976075294
  0
LINE
  5
298
100
AcDbEntity
  8
0
100
AcDbLine
 62
7
  6
BYLAYER
 10
38.0008123663
 20
14.454485599
 11
38.1615357304
 21
14.1098132325
  0
LINE
  5
299
100
AcDbEntity
  8
0
100
AcDbLine
 62
7
  6
BYLAYER
 10
35.4367411036
 20
13.4414095188
 11
35.2313649136
 21
14.0056759635
  0
LINE
  5
29A
100
AcDbEntity
  8
0
100
AcDbLine
 62
7
  6
BYLAYER
 10
35.4367411036
 20
13.4414095188
 11
35.34532932
 21
13.7276469829
  0
LINE
  5
29B
100
AcDbEntity
  8
0
100
AcDbLine
 62
7
  6
BYLAYER
 10
47.9545593424
 20
21.3514156919
 11
48.3405403229
 21
20.8914214716
  0
LINE
  5
29C
100
AcDbEntity
  8
0
100
AcDbLine
 62
7
  6
BYLAYER
 10
47.9545593424
 20
21.3514156919
 11
48.1383572993
 21
21.1137051304
  0
LINE
  5
29D
100
AcDbEntity
  8
0
100
AcDbLine
 62
7
  6
BYLAYER
 10
48.5366643081
 20
20.5946213304
 11
48.7187046669
 21
20.3555621165
  0
LINE
  5
29E
100
AcDbEntity
  8
0
100
AcDbLine
 62
7
  6
BYLAYER
 10
46.4414596181
 20
18.8929670553
 11
46.2210301343
 21
19.2077729833
  0
LINE
  5
29F
100
AcDbEntity
  8
0
100
AcDbLine
 62
7
  6
BYLAYER
 10
48.3742835984
 20
20.8474463789
 11
48.7187046669
 21
20.3555621165
  0
LINE
  5
2A0
100
AcDbEntity
  8
0
100
AcDbLine
 62
7
  6
BYLAYER
 10
38.8970393601
 20
22.9485008431
 11
40.1555938218
 21
20.5524478404
  0
LINE
  5
2A1
100
AcDbEntity
  8
0
100
AcDbLine
 62
7
  6
BYLAYER
 10
44.6304541301
 20
12.0331482752
 11
45.8890085918
 21
9.6370952725
  0
LINE
  5
2A2
100
AcDbEntity
  8
0
100
AcDbLine
 62
7
  6
BYLAYER
 10
38.9462058307
 20
22.9740952876
 11
40.187060363
 21
20.5688282849
  0
LINE
  5
2A3
100
AcDbEntity
  8
0
100
AcDbLine
 62
7
  6
BYLAYER
 10
44.5989875889
 20
12.0167678307
 11
45.8398421212
 21
9.6115008279
  0
LINE
  5
2A4
100
AcDbEntity
  8
0
100
AcDbLine
 62
7
  6
BYLAYER
 10
39.2233870129
 20
23.0901064606
 11
40.3612106113
 21
20.6500358794
  0
LINE
  5
2A5
100
AcDbEntity
  8
0
100
AcDbLine
 62
7
  6
BYLAYER
 10
44.4248373405
 20
11.9355602362
 11
45.562660939
 21
9.495489655
  0
LINE
  5
2A6
100
AcDbEntity
  8
0
100
AcDbLine
 62
7
  6
BYLAYER
 10
37.8573065698
 20
14.844287398
 11
37.9873781568
 21
14.4869186498
  0
LINE
  5
2A7
100
AcDbEntity
  8
0
100
AcDbLine
 62
7
  6
BYLAYER
 10
48.3742835984
 20
20.8474463789
 11
48.5366643081
 21
20.5946213304
  0
LINE
  5
2A8
100
AcDbEntity
  8
0
100
AcDbLine
 62
7
  6
BYLAYER
 10
48.8882145043
 20
20.0427980578
 11
49.0487267612
 21
19.7887826736
  0
LINE
  5
2A9
100
AcDbEntity
  8
0
100
AcDbLine
 62
7
  6
BYLAYER
 10
46.6526737585
 20
18.5302282119
 11
46.4605202199
 21
18.8630479037
  0
LINE
  5
2AA
100
AcDbEntity
  8
0
100
AcDbLine
 62
7
  6
BYLAYER
 10
48.7484868571
 20
20.308813442
 11
49.0487267612
 21
19.7887826736
  0
LINE
  5
2AB
100
AcDbEntity
  8
0
100
AcDbLine
 62
7
  6
BYLAYER
 10
39.4904253568
 20
23.2278690204
 11
40.5353608597
 21
20.7312434738
  0
LINE
  5
2AC
100
AcDbEntity
  8
0
100
AcDbLine
 62
7
  6
BYLAYER
 10
44.2506870922
 20
11.8543526417
 11
45.2956225951
 21
9.3577270952
  0
LINE
  5
2AD
100
AcDbEntity
  8
0
100
AcDbLine
 62
7
  6
BYLAYER
 10
39.5416354369
 20
23.2490809301
 11
40.568135311
 21
20.7448190961
  0
LINE
  5
2AE
100
AcDbEntity
  8
0
100
AcDbLine
 62
7
  6
BYLAYER
 10
44.2179126409
 20
11.8407770195
 11
45.2444125149
 21
9.3365151855
  0
LINE
  5
2AF
100
AcDbEntity
  8
0
100
AcDbLine
 62
7
  6
BYLAYER
 10
39.827872901
 20
23.3404927137
 11
40.7487005733
 21
20.8105394769
  0
LINE
  5
2B0
100
AcDbEntity
  8
0
100
AcDbLine
 62
7
  6
BYLAYER
 10
44.0373473786
 20
11.7750566387
 11
44.9581750509
 21
9.2451034019
  0
LINE
  5
2B1
100
AcDbEntity
  8
0
100
AcDbLine
 62
7
  6
BYLAYER
 10
48.7484868571
 20
20.308813442
 11
48.8882145043
 21
20.0427980578
  0
LINE
  5
2B2
100
AcDbEntity
  8
0
100
AcDbLine
 62
7
  6
BYLAYER
 10
49.1903323787
 20
19.4624350208
 11
49.3280949385
 21
19.1953966769
  0
LINE
  5
2B3
100
AcDbEntity
  8
0
100
AcDbLine
 62
7
  6
BYLAYER
 10
46.831469392
 20
18.1504611741
 11
46.669054203
 21
18.4987616707
  0
LINE
  5
2B4
100
AcDbEntity
  8
0
100
AcDbLine
 62
7
  6
BYLAYER
 10
49.0743212058
 20
19.739616203
 11
49.3280949385
 21
19.1953966769
  0
LINE
  5
2B5
100
AcDbEntity
  8
0
100
AcDbLine
 62
7
  6
BYLAYER
 10
40.1059018816
 20
23.4544571202
 11
40.9292658356
 21
20.8762598577
  0
LINE
  5
2B6
100
AcDbEntity
  8
0
100
AcDbLine
 62
7
  6
BYLAYER
 10
43.8567821163
 20
11.7093362579
 11
44.6801460703
 21
9.1311389954
  0
LINE
  5
2B7
100
AcDbEntity
  8
0
100
AcDbLine
 62
7
  6
BYLAYER
 10
49.0743212058
 20
19.739616203
 11
49.1903323787
 21
19.4624350208
  0
LINE
  5
2B8
100
AcDbEntity
  8
0
100
AcDbLine
 62
7
  6
BYLAYER
 10
49.4407186318
 20
18.8579491327
 11
49.5546830383
 21
18.5799201521
  0
LINE
  5
2B9
100
AcDbEntity
  8
0
100
AcDbLine
 62
7
  6
BYLAYER
 10
46.9764857758
 20
17.7565561982
 11
46.8450450142
 21
18.1176867227
  0
LINE
  5
2BA
100
AcDbEntity
  8
0
100
AcDbLine
 62
7
  6
BYLAYER
 10
49.3493068482
 20
19.1441865968
 11
49.5546830383
 21
18.5799201521
  0
LINE
  5
2BB
100
AcDbEntity
  8
0
100
AcDbLine
 62
7
  6
BYLAYER
 10
37.3930239759
 20
26.2426724289
 11
37.3930239759
 21
27.7927980578
  0
LINE
  5
2BC
100
AcDbEntity
  8
0
100
AcDbLine
 62
7
  6
BYLAYER
 10
37.5930239759
 20
15.1927980578
 11
37.5930239759
 21
17.3927980578
  0
LINE
  5
2BD
100
AcDbEntity
  8
0
100
AcDbLine
 62
7
  6
BYLAYER
 10
38.3930239759
 20
27.7927980578
 11
38.3930239759
 21
72.1627614042
  0
LINE
  5
2BE
100
AcDbEntity
  8
0
100
AcDbLine
 62
7
  6
BYLAYER
 10
39.5544475129
 20
105.051616631
 11
38.409875002
 21
72.2753483094
  0
LINE
  5
2BF
100
AcDbEntity
  8
0
100
AcDbLine
 62
7
  6
BYLAYER
 10
38.409875002
 20
72.2753483094
 11
38.3930239759
 21
72.1629469987
  0
LINE
  5
2C0
100
AcDbEntity
  8
0
100
AcDbLine
 62
7
  6
BYLAYER
 10
49.3493068482
 20
19.1441865968
 11
49.4407186318
 21
18.8579491327
  0
LINE
  5
2C1
100
AcDbEntity
  8
0
100
AcDbLine
 62
7
  6
BYLAYER
 10
41.2930239759
 20
24.2927980578
 11
41.2930239759
 21
21.0927980578
  0
LINE
  5
2C2
100
AcDbEntity
  8
0
100
AcDbLine
 62
7
  6
BYLAYER
 10
41.2930239759
 20
11.4927980578
 11
41.2930239759
 21
8.3687839235
  0
LINE
  5
2C3
100
AcDbEntity
  8
0
100
AcDbLine
 62
7
  6
BYLAYER
 10
41.8930239759
 20
23.7927980578
 11
41.8930239759
 21
24.2927980578
  0
LINE
  5
2C4
100
AcDbEntity
  8
0
100
AcDbLine
 62
7
  6
BYLAYER
 10
42.3930239759
 20
71.7927980578
 11
42.3930239759
 21
67.7927980578
  0
LINE
  5
2C5
100
AcDbEntity
  8
0
100
AcDbLine
 62
7
  6
BYLAYER
 10
42.8930239759
 20
24.2927980578
 11
42.8930239759
 21
23.7927980578
  0
LINE
  5
2C6
100
AcDbEntity
  8
0
100
AcDbLine
 62
7
  6
BYLAYER
 10
43.4930239759
 20
24.2927980578
 11
43.4930239759
 21
21.0927980578
  0
LINE
  5
2C7
100
AcDbEntity
  8
0
100
AcDbLine
 62
7
  6
BYLAYER
 10
43.4930239759
 20
8.3687839235
 11
43.4930239759
 21
11.4927980578
  0
LINE
  5
2C8
100
AcDbEntity
  8
0
100
AcDbLine
 62
7
  6
BYLAYER
 10
45.231600439
 20
105.051616631
 11
46.3761729498
 21
72.2753483094
  0
LINE
  5
2C9
100
AcDbEntity
  8
0
100
AcDbLine
 62
7
  6
BYLAYER
 10
46.3930239759
 20
72.1627614042
 11
46.3930239759
 21
27.7927980578
  0
LINE
  5
2CA
100
AcDbEntity
  8
0
100
AcDbLine
 62
7
  6
BYLAYER
 10
47.1930239759
 20
17.3927980578
 11
47.1930239759
 21
15.1927980578
  0
LINE
  5
2CB
100
AcDbEntity
  8
0
100
AcDbLine
 62
7
  6
BYLAYER
 10
47.3930239759
 20
27.7927980578
 11
47.3930239759
 21
26.2426724289
  0
LINE
  5
2CC
100
AcDbEntity
  8
0
100
AcDbLine
 62
7
  6
BYLAYER
 10
35.34532932
 20
18.8579491327
 11
35.4367411036
 21
19.1441865968
  0
LINE
  5
2CD
100
AcDbEntity
  8
0
100
AcDbLine
 62
7
  6
BYLAYER
 10
35.2313649136
 20
18.5799201521
 11
35.4367411036
 21
19.1441865968
  0
LINE
  5
2CE
100
AcDbEntity
  8
0
100
AcDbLine
 62
7
  6
BYLAYER
 10
46.3761729498
 20
72.2753483094
 11
46.3930239759
 21
72.1629469987
  0
LINE
  5
2CF
100
AcDbEntity
  8
0
100
AcDbLine
 62
7
  6
BYLAYER
 10
37.9410029376
 20
18.1176867227
 11
37.809562176
 21
17.7565561982
  0
LINE
  5
2D0
100
AcDbEntity
  8
0
100
AcDbLine
 62
7
  6
BYLAYER
 10
35.2313649136
 20
18.5799201521
 11
35.34532932
 21
18.8579491327
  0
LINE
  5
2D1
100
AcDbEntity
  8
0
100
AcDbLine
 62
7
  6
BYLAYER
 10
35.5957155732
 20
19.4624350208
 11
35.7117267461
 21
19.739616203
  0
LINE
  5
2D2
100
AcDbEntity
  8
0
100
AcDbLine
 62
7
  6
BYLAYER
 10
35.4579530133
 20
19.1953966769
 11
35.7117267461
 21
19.739616203
  0
LINE
  5
2D3
100
AcDbEntity
  8
0
100
AcDbLine
 62
7
  6
BYLAYER
 10
46.3930239759
 20
67.7927980578
 11
38.3930239759
 21
67.7927980578
  0
LINE
  5
2D4
100
AcDbEntity
  8
0
100
AcDbLine
 62
7
  6
BYLAYER
 10
44.6801460703
 20
23.4544571202
 11
43.8567821163
 21
20.8762598577
  0
LINE
  5
2D5
100
AcDbEntity
  8
0
100
AcDbLine
 62
7
  6
BYLAYER
 10
40.1059018816
 20
9.1311389954
 11
40.9445133162
 21
11.7570806516
  0
LINE
  5
2D6
100
AcDbEntity
  8
0
100
AcDbLine
 62
7
  6
BYLAYER
 10
38.1169937488
 20
18.4987616707
 11
37.9545785599
 21
18.1504611741
  0
LINE
  5
2D7
100
AcDbEntity
  8
0
100
AcDbLine
 62
7
  6
BYLAYER
 10
35.4579530133
 20
19.1953966769
 11
35.5957155732
 21
19.4624350208
  0
LINE
  5
2D8
100
AcDbEntity
  8
0
100
AcDbLine
 62
7
  6
BYLAYER
 10
35.8978334475
 20
20.0427980578
 11
36.0375610947
 21
20.308813442
  0
LINE
  5
2D9
100
AcDbEntity
  8
0
100
AcDbLine
 62
7
  6
BYLAYER
 10
35.7373211907
 20
19.7887826736
 11
36.0375610947
 21
20.308813442
  0
LINE
  5
2DA
100
AcDbEntity
  8
0
100
AcDbLine
 62
7
  6
BYLAYER
 10
38.3930239759
 20
71.7927980578
 11
38.6403345136
 21
71.7927980578
  0
LINE
  5
2DB
100
AcDbEntity
  8
0
100
AcDbLine
 62
7
  6
BYLAYER
 10
42.1457134382
 20
71.7927980578
 11
42.6403345136
 21
71.7927980578
  0
LINE
  5
2DC
100
AcDbEntity
  8
0
100
AcDbLine
 62
7
  6
BYLAYER
 10
46.1457134382
 20
71.7927980578
 11
46.3930239759
 21
71.7927980578
  0
LINE
  5
2DD
100
AcDbEntity
  8
0
100
AcDbLine
 62
7
  6
BYLAYER
 10
44.9581750509
 20
23.3404927137
 11
44.0373473786
 21
20.8105394769
  0
LINE
  5
2DE
100
AcDbEntity
  8
0
100
AcDbLine
 62
7
  6
BYLAYER
 10
39.827872901
 20
9.2451034019
 11
40.765828942
 21
11.8221164451
  0
LINE
  5
2DF
100
AcDbEntity
  8
0
100
AcDbLine
 62
7
  6
BYLAYER
 10
45.2444125149
 20
23.2490809301
 11
44.2179126409
 21
20.7448190961
  0
LINE
  5
2E0
100
AcDbEntity
  8
0
100
AcDbLine
 62
7
  6
BYLAYER
 10
39.5416354369
 20
9.3365151855
 11
40.5871445679
 21
11.8871522387
  0
LINE
  5
2E1
100
AcDbEntity
  8
0
100
AcDbLine
 62
7
  6
BYLAYER
 10
45.2956225951
 20
23.2278690204
 11
44.2506870922
 21
20.7312434738
  0
LINE
  5
2E2
100
AcDbEntity
  8
0
100
AcDbLine
 62
7
  6
BYLAYER
 10
39.4904253568
 20
9.3577270952
 11
40.5547115171
 21
11.9005864482
  0
LINE
  5
2E3
100
AcDbEntity
  8
0
100
AcDbLine
 62
7
  6
BYLAYER
 10
38.325527732
 20
18.8630479037
 11
38.1333741934
 21
18.5302282119
  0
LINE
  5
2E4
100
AcDbEntity
  8
0
100
AcDbLine
 62
7
  6
BYLAYER
 10
35.7373211907
 20
19.7887826736
 11
35.8978334475
 21
20.0427980578
  0
LINE
  5
2E5
100
AcDbEntity
  8
0
100
AcDbLine
 62
7
  6
BYLAYER
 10
36.2493836438
 20
20.5946213304
 11
36.4117643535
 21
20.8474463789
  0
LINE
  5
2E6
100
AcDbEntity
  8
0
100
AcDbLine
 62
7
  6
BYLAYER
 10
36.067343285
 20
20.3555621165
 11
36.4117643535
 21
20.8474463789
  0
LINE
  5
2E7
100
AcDbEntity
  8
0
100
AcDbLine
 62
7
  6
BYLAYER
 10
46.3761729498
 20
72.2753483094
 11
38.409875002
 21
72.2753483094
  0
LINE
  5
2E8
100
AcDbEntity
  8
0
100
AcDbLine
 62
7
  6
BYLAYER
 10
49.4407186318
 20
13.7276469829
 11
49.3493068482
 21
13.4414095188
  0
LINE
  5
2E9
100
AcDbEntity
  8
0
100
AcDbLine
 62
7
  6
BYLAYER
 10
46.8450450142
 20
14.4679093928
 11
46.9764857758
 21
14.8290399174
  0
LINE
  5
2EA
100
AcDbEntity
  8
0
100
AcDbLine
 62
7
  6
BYLAYER
 10
45.562660939
 20
23.0901064606
 11
44.4248373405
 21
20.6500358794
  0
LINE
  5
2EB
100
AcDbEntity
  8
0
100
AcDbLine
 62
7
  6
BYLAYER
 10
39.2233870129
 20
9.495489655
 11
40.3823753339
 21
11.9809481302
  0
LINE
  5
2EC
100
AcDbEntity
  8
0
100
AcDbLine
 62
7
  6
BYLAYER
 10
45.8398421212
 20
22.9740952876
 11
44.5989875889
 21
20.5688282849
  0
LINE
  5
2ED
100
AcDbEntity
  8
0
100
AcDbLine
 62
7
  6
BYLAYER
 10
38.9462058307
 20
9.6115008279
 11
40.2100391506
 21
12.0613098122
  0
LINE
  5
2EE
100
AcDbEntity
  8
0
100
AcDbLine
 62
7
  6
BYLAYER
 10
45.8890085918
 20
22.9485008431
 11
44.6304541301
 21
20.5524478404
  0
LINE
  5
2EF
100
AcDbEntity
  8
0
100
AcDbLine
 62
7
  6
BYLAYER
 10
38.8970393601
 20
9.6370952725
 11
40.1789003859
 21
12.0775196271
  0
LINE
  5
2F0
100
AcDbEntity
  8
0
100
AcDbLine
 62
7
  6
BYLAYER
 10
38.5650178176
 20
19.2077729833
 11
38.3445883337
 21
18.8929670553
  0
LINE
  5
2F1
100
AcDbEntity
  8
0
100
AcDbLine
 62
7
  6
BYLAYER
 10
36.067343285
 20
20.3555621165
 11
36.2493836438
 21
20.5946213304
  0
LINE
  5
2F2
100
AcDbEntity
  8
0
100
AcDbLine
 62
7
  6
BYLAYER
 10
36.6476906525
 20
21.1137051304
 11
36.8314886095
 21
21.3514156919
  0
LINE
  5
2F3
100
AcDbEntity
  8
0
100
AcDbLine
 62
7
  6
BYLAYER
 10
36.4455076289
 20
20.8914214716
 11
36.8314886095
 21
21.3514156919
  0
LINE
  5
2F4
100
AcDbEntity
  8
0
100
AcDbLine
 62
7
  6
BYLAYER
 10
49.5546830383
 20
14.0056759635
 11
49.3493068482
 21
13.4414095188
  0
LINE
  5
2F5
100
AcDbEntity
  8
0
100
AcDbLine
 62
7
  6
BYLAYER
 10
49.5546830383
 20
14.0056759635
 11
49.4407186318
 21
13.7276469829
  0
LINE
  5
2F6
100
AcDbEntity
  8
0
100
AcDbLine
 62
7
  6
BYLAYER
 10
49.1903323787
 20
13.1231610947
 11
49.0743212058
 21
12.8459799126
  0
LINE
  5
2F7
100
AcDbEntity
  8
0
100
AcDbLine
 62
7
  6
BYLAYER
 10
46.669054203
 20
14.0868344448
 11
46.831469392
 21
14.4351349415
  0
LINE
  5
2F8
100
AcDbEntity
  8
0
100
AcDbLine
 62
7
  6
BYLAYER
 10
46.1430239759
 20
22.7879885862
 11
44.7968639759
 21
20.4563710711
  0
LINE
  5
2F9
100
AcDbEntity
  8
0
100
AcDbLine
 62
7
  6
BYLAYER
 10
38.6430239759
 20
9.7976075294
 11
40.0142239759
 21
12.1725955967
  0
LINE
  5
2FA
100
AcDbEntity
  8
0
100
AcDbLine
 62
7
  6
BYLAYER
 10
46.4090393601
 20
22.648260939
 11
44.9632738218
 21
20.3602943018
  0
LINE
  5
2FB
100
AcDbEntity
  8
0
100
AcDbLine
 62
7
  6
BYLAYER
 10
38.3770085918
 20
9.9373351766
 11
39.849547566
 21
12.2676715664
  0
LINE
  5
2FC
100
AcDbEntity
  8
0
100
AcDbLine
 62
7
  6
BYLAYER
 10
46.4557880346
 20
22.6184787487
 11
44.9931929735
 21
20.3412337
  0
LINE
  5
2FD
100
AcDbEntity
  8
0
100
AcDbLine
 62
7
  6
BYLAYER
 10
38.3302599173
 20
9.9671173669
 11
39.8199400721
 21
12.2865336202
  0
LINE
  5
2FE
100
AcDbEntity
  8
0
100
AcDbLine
 62
7
  6
BYLAYER
 10
38.8336413414
 20
19.5303133436
 11
38.5866135139
 21
19.2359170427
  0
LINE
  5
2FF
100
AcDbEntity
  8
0
100
AcDbLine
 62
7
  6
BYLAYER
 10
36.4455076289
 20
20.8914214716
 11
36.6476906525
 21
21.1137051304
  0
LINE
  5
300
100
AcDbEntity
  8
0
100
AcDbLine
 62
7
  6
BYLAYER
 10
37.089723117
 20
21.5960989167
 11
37.2935395078
 21
21.8168858702
  0
LINE
  5
301
100
AcDbEntity
  8
0
100
AcDbLine
 62
7
  6
BYLAYER
 10
36.8689361635
 20
21.3922825259
 11
37.2935395078
 21
21.8168858702
  0
LINE
  5
302
100
AcDbEntity
  8
0
100
AcDbLine
 62
7
  6
BYLAYER
 10
36.8689361635
 20
21.3922825259
 11
37.089723117
 21
21.5960989167
  0
LINE
  5
303
100
AcDbEntity
  8
0
100
AcDbLine
 62
7
  6
BYLAYER
 10
37.5721169033
 20
22.0381313812
 11
37.7944005621
 21
22.2403144048
  0
LINE
  5
304
100
AcDbEntity
  8
0
100
AcDbLine
 62
7
  6
BYLAYER
 10
49.3280949385
 20
13.3901994386
 11
49.0743212058
 21
12.8459799126
  0
LINE
  5
305
100
AcDbEntity
  8
0
100
AcDbLine
 62
7
  6
BYLAYER
 10
49.3280949385
 20
13.3901994386
 11
49.1903323787
 21
13.1231610947
  0
LINE
  5
306
100
AcDbEntity
  8
0
100
AcDbLine
 62
7
  6
BYLAYER
 10
48.8882145043
 20
12.5427980578
 11
48.7484868571
 21
12.2767826736
  0
LINE
  5
307
100
AcDbEntity
  8
0
100
AcDbLine
 62
7
  6
BYLAYER
 10
46.4605202199
 20
13.7225482119
 11
46.6526737585
 21
14.0553679037
  0
LINE
  5
308
100
AcDbEntity
  8
0
100
AcDbLine
 62
7
  6
BYLAYER
 10
46.6948472486
 20
22.43643839
 11
45.1505959374
 21
20.2310189581
  0
LINE
  5
309
100
AcDbEntity
  8
0
100
AcDbLine
 62
7
  6
BYLAYER
 10
38.0912007033
 20
10.1491577256
 11
39.6641767223
 21
12.3956002919
  0
LINE
  5
30A
100
AcDbEntity
  8
0
100
AcDbLine
 62
7
  6
BYLAYER
 10
46.947672297
 20
22.2740576803
 11
45.3079989014
 21
20.1208042162
  0
LINE
  5
30B
100
AcDbEntity
  8
0
100
AcDbLine
 62
7
  6
BYLAYER
 10
37.8383756549
 20
10.3115384353
 11
39.5084133726
 21
12.5046669636
  0
LINE
  5
30C
100
AcDbEntity
  8
0
100
AcDbLine
 62
7
  6
BYLAYER
 10
46.9916473898
 20
22.2403144048
 11
45.3361429608
 21
20.0992085199
  0
LINE
  5
30D
100
AcDbEntity
  8
0
100
AcDbLine
 62
7
  6
BYLAYER
 10
37.7944005621
 20
10.3452817108
 11
39.4805624805
 21
12.5260377047
  0
LINE
  5
30E
100
AcDbEntity
  8
0
100
AcDbLine
 62
7
  6
BYLAYER
 10
47.2139310486
 20
22.0381313812
 11
45.4833411113
 21
19.9756946061
  0
LINE
  5
30F
100
AcDbEntity
  8
0
100
AcDbLine
 62
7
  6
BYLAYER
 10
37.5721169033
 20
10.5474647344
 11
39.3348976441
 21
12.6482650152
  0
LINE
  5
310
100
AcDbEntity
  8
0
100
AcDbLine
 62
7
  6
BYLAYER
 10
39.1293539163
 20
19.8282142577
 11
38.857607776
 21
19.5564681174
  0
LINE
  5
311
100
AcDbEntity
  8
0
100
AcDbLine
 62
7
  6
BYLAYER
 10
37.3344063418
 20
21.8543334242
 11
37.7944005621
 21
22.2403144048
  0
LINE
  5
312
100
AcDbEntity
  8
0
100
AcDbLine
 62
7
  6
BYLAYER
 10
39.4499049911
 20
20.0992085199
 11
39.1555086901
 21
19.8521806923
  0
LINE
  5
313
100
AcDbEntity
  8
0
100
AcDbLine
 62
7
  6
BYLAYER
 10
37.3344063418
 20
21.8543334242
 11
37.5721169033
 21
22.0381313812
  0
LINE
  5
314
100
AcDbEntity
  8
0
100
AcDbLine
 62
7
  6
BYLAYER
 10
38.0912007033
 20
22.43643839
 11
38.3302599173
 21
22.6184787487
  0
LINE
  5
315
100
AcDbEntity
  8
0
100
AcDbLine
 62
7
  6
BYLAYER
 10
37.8383756549
 20
22.2740576803
 11
38.3302599173
 21
22.6184787487
  0
LINE
  5
316
100
AcDbEntity
  8
0
100
AcDbLine
 62
7
  6
BYLAYER
 10
49.0487267612
 20
12.796813442
 11
48.7484868571
 21
12.2767826736
  0
LINE
  5
317
100
AcDbEntity
  8
0
100
AcDbLine
 62
7
  6
BYLAYER
 10
49.0487267612
 20
12.796813442
 11
48.8882145043
 21
12.5427980578
  0
LINE
  5
318
100
AcDbEntity
  8
0
100
AcDbLine
 62
7
  6
BYLAYER
 10
48.5366643081
 20
11.9909747852
 11
48.3742835984
 21
11.7381497367
  0
LINE
  5
319
100
AcDbEntity
  8
0
100
AcDbLine
 62
7
  6
BYLAYER
 10
46.2210301343
 20
13.3778231323
 11
46.4414596181
 21
13.6926290602
  0
LINE
  5
31A
100
AcDbEntity
  8
0
100
AcDbLine
 62
7
  6
BYLAYER
 10
47.45164161
 20
21.8543334242
 11
45.6305392617
 21
19.8521806923
  0
LINE
  5
31B
100
AcDbEntity
  8
0
100
AcDbLine
 62
7
  6
BYLAYER
 10
37.3344063418
 20
10.7312626914
 11
39.1892328077
 21
12.7704923257
  0
LINE
  5
31C
100
AcDbEntity
  8
0
100
AcDbLine
 62
7
  6
BYLAYER
 10
47.492508444
 20
21.8168858702
 11
45.6566940355
 21
19.8282142577
  0
LINE
  5
31D
100
AcDbEntity
  8
0
100
AcDbLine
 62
7
  6
BYLAYER
 10
37.2935395078
 20
10.7687102454
 11
39.1633504795
 21
12.7942091099
  0
LINE
  5
31E
100
AcDbEntity
  8
0
100
AcDbLine
 62
7
  6
BYLAYER
 10
47.6963248348
 20
21.5960989167
 11
45.7925671057
 21
19.6923411876
  0
LINE
  5
31F
100
AcDbEntity
  8
0
100
AcDbLine
 62
7
  6
BYLAYER
 10
37.089723117
 20
10.9894971989
 11
39.0288927538
 21
12.9286668356
  0
LINE
  5
320
100
AcDbEntity
  8
0
100
AcDbLine
 62
7
  6
BYLAYER
 10
39.7928549784
 20
20.3412337
 11
39.4780490504
 21
20.1208042162
  0
LINE
  5
321
100
AcDbEntity
  8
0
100
AcDbLine
 62
7
  6
BYLAYER
 10
37.8383756549
 20
22.2740576803
 11
38.0912007033
 21
22.43643839
  0
LINE
  5
322
100
AcDbEntity
  8
0
100
AcDbLine
 62
7
  6
BYLAYER
 10
38.6430239759
 20
22.7879885862
 11
38.8970393601
 21
22.9485008431
  0
LINE
  5
323
100
AcDbEntity
  8
0
100
AcDbLine
 62
7
  6
BYLAYER
 10
38.3770085918
 20
22.648260939
 11
38.8970393601
 21
22.9485008431
  0
LINE
  5
324
100
AcDbEntity
  8
0
100
AcDbLine
 62
7
  6
BYLAYER
 10
38.3770085918
 20
22.648260939
 11
38.6430239759
 21
22.7879885862
  0
LINE
  5
325
100
AcDbEntity
  8
0
100
AcDbLine
 62
7
  6
BYLAYER
 10
39.2233870129
 20
23.0901064606
 11
39.4904253568
 21
23.2278690204
  0
LINE
  5
326
100
AcDbEntity
  8
0
100
AcDbLine
 62
7
  6
BYLAYER
 10
38.9462058307
 20
22.9740952876
 11
39.4904253568
 21
23.2278690204
  0
LINE
  5
327
100
AcDbEntity
  8
0
100
AcDbLine
 62
7
  6
BYLAYER
 10
48.7187046669
 20
12.2300339991
 11
48.3742835984
 21
11.7381497367
  0
LINE
  5
328
100
AcDbEntity
  8
0
100
AcDbLine
 62
7
  6
BYLAYER
 10
48.7187046669
 20
12.2300339991
 11
48.5366643081
 21
11.9909747852
  0
LINE
  5
329
100
AcDbEntity
  8
0
100
AcDbLine
 62
7
  6
BYLAYER
 10
48.1383572993
 20
11.4718909851
 11
47.9545593424
 21
11.2341804237
  0
LINE
  5
32A
100
AcDbEntity
  8
0
100
AcDbLine
 62
7
  6
BYLAYER
 10
45.9524066104
 20
13.055282772
 11
46.199434438
 21
13.3496790729
  0
LINE
  5
32B
100
AcDbEntity
  8
0
100
AcDbLine
 62
7
  6
BYLAYER
 10
47.9171117884
 20
21.3922825259
 11
45.9284401759
 21
19.5564681174
  0
LINE
  5
32C
100
AcDbEntity
  8
0
100
AcDbLine
 62
7
  6
BYLAYER
 10
36.8689361635
 20
11.1933135897
 11
38.8944350281
 21
13.0631245613
  0
LINE
  5
32D
100
AcDbEntity
  8
0
100
AcDbLine
 62
7
  6
BYLAYER
 10
47.9545593424
 20
21.3514156919
 11
45.9524066104
 21
19.5303133436
  0
LINE
  5
32E
100
AcDbEntity
  8
0
100
AcDbLine
 62
7
  6
BYLAYER
 10
36.8314886095
 20
11.2341804237
 11
38.8707182439
 21
13.0890068895
  0
LINE
  5
32F
100
AcDbEntity
  8
0
100
AcDbLine
 62
7
  6
BYLAYER
 10
48.1383572993
 20
21.1137051304
 11
46.0759205242
 21
19.3831151931
  0
LINE
  5
330
100
AcDbEntity
  8
0
100
AcDbLine
 62
7
  6
BYLAYER
 10
36.6476906525
 20
11.4718909851
 11
38.7484909333
 21
13.2346717259
  0
LINE
  5
331
100
AcDbEntity
  8
0
100
AcDbLine
 62
7
  6
BYLAYER
 10
48.3405403229
 20
20.8914214716
 11
46.199434438
 21
19.2359170427
  0
LINE
  5
332
100
AcDbEntity
  8
0
100
AcDbLine
 62
7
  6
BYLAYER
 10
36.4455076289
 20
11.6941746439
 11
38.6262636228
 21
13.3803365624
  0
LINE
  5
333
100
AcDbEntity
  8
0
100
AcDbLine
 62
7
  6
BYLAYER
 10
48.3742835984
 20
20.8474463789
 11
46.2210301343
 21
19.2077729833
  0
LINE
  5
334
100
AcDbEntity
  8
0
100
AcDbLine
 62
7
  6
BYLAYER
 10
36.4117643535
 20
11.7381497367
 11
38.6048928817
 21
13.4081874544
  0
LINE
  5
335
100
AcDbEntity
  8
0
100
AcDbLine
 62
7
  6
BYLAYER
 10
40.1555938218
 20
20.5524478404
 11
39.8227741301
 21
20.3602943018
  0
LINE
  5
336
100
AcDbEntity
  8
0
100
AcDbLine
 62
7
  6
BYLAYER
 10
40.5353608597
 20
20.7312434738
 11
40.187060363
 21
20.5688282849
  0
LINE
  5
337
100
AcDbEntity
  8
0
100
AcDbLine
 62
7
  6
BYLAYER
 10
38.9462058307
 20
22.9740952876
 11
39.2233870129
 21
23.0901064606
  0
LINE
  5
338
100
AcDbEntity
  8
0
100
AcDbLine
 62
7
  6
BYLAYER
 10
39.827872901
 20
23.3404927137
 11
40.1059018816
 21
23.4544571202
  0
LINE
  5
339
100
AcDbEntity
  8
0
100
AcDbLine
 62
7
  6
BYLAYER
 10
39.5416354369
 20
23.2490809301
 11
40.1059018816
 21
23.4544571202
  0
LINE
  5
33A
100
AcDbEntity
  8
0
100
AcDbLine
 62
7
  6
BYLAYER
 10
39.5416354369
 20
23.2490809301
 11
39.827872901
 21
23.3404927137
  0
LINE
  5
33B
100
AcDbEntity
  8
0
100
AcDbLine
 62
7
  6
BYLAYER
 10
48.3405403229
 20
11.6941746439
 11
47.9545593424
 21
11.2341804237
  0
LINE
  5
33C
100
AcDbEntity
  8
0
100
AcDbLine
 62
7
  6
BYLAYER
 10
48.3405403229
 20
11.6941746439
 11
48.1383572993
 21
11.4718909851
  0
LINE
  5
33D
100
AcDbEntity
  8
0
100
AcDbLine
 62
7
  6
BYLAYER
 10
47.6963248348
 20
10.9894971989
 11
47.492508444
 21
10.7687102454
  0
LINE
  5
33E
100
AcDbEntity
  8
0
100
AcDbLine
 62
7
  6
BYLAYER
 10
45.6566940355
 20
12.7573818578
 11
45.9284401759
 21
13.0291279982
  0
LINE
  5
33F
100
AcDbEntity
  8
0
100
AcDbLine
 62
7
  6
BYLAYER
 10
47.9171117884
 20
11.1933135897
 11
47.492508444
 21
10.7687102454
  0
LINE
  5
340
100
AcDbEntity
  8
0
100
AcDbLine
 62
7
  6
BYLAYER
 10
45.3361429608
 20
12.4863875957
 11
45.6305392617
 21
12.7334154233
  0
LINE
  5
341
100
AcDbEntity
  8
0
100
AcDbLine
 62
7
  6
BYLAYER
 10
48.5366643081
 20
20.5946213304
 11
46.3312448762
 21
19.0503700193
  0
LINE
  5
342
100
AcDbEntity
  8
0
100
AcDbLine
 62
7
  6
BYLAYER
 10
36.2493836438
 20
11.9909747852
 11
38.49582621
 21
13.5639508042
  0
LINE
  5
343
100
AcDbEntity
  8
0
100
AcDbLine
 62
7
  6
BYLAYER
 10
48.7187046669
 20
20.3555621165
 11
46.4414596181
 21
18.8929670553
  0
LINE
  5
344
100
AcDbEntity
  8
0
100
AcDbLine
 62
7
  6
BYLAYER
 10
36.067343285
 20
12.2300339991
 11
38.3867595383
 21
13.719714154
  0
LINE
  5
345
100
AcDbEntity
  8
0
100
AcDbLine
 62
7
  6
BYLAYER
 10
48.7484868571
 20
20.308813442
 11
46.4605202199
 21
18.8630479037
  0
LINE
  5
346
100
AcDbEntity
  8
0
100
AcDbLine
 62
7
  6
BYLAYER
 10
36.0375610947
 20
12.2767826736
 11
38.3678974845
 21
13.7493216478
  0
LINE
  5
347
100
AcDbEntity
  8
0
100
AcDbLine
 62
7
  6
BYLAYER
 10
48.8882145043
 20
20.0427980578
 11
46.5565969892
 21
18.6966380578
  0
LINE
  5
348
100
AcDbEntity
  8
0
100
AcDbLine
 62
7
  6
BYLAYER
 10
35.8978334475
 20
12.5427980578
 11
38.2728215149
 21
13.9139980578
  0
LINE
  5
349
100
AcDbEntity
  8
0
100
AcDbLine
 62
7
  6
BYLAYER
 10
49.0487267612
 20
19.7887826736
 11
46.6526737585
 21
18.5302282119
  0
LINE
  5
34A
100
AcDbEntity
  8
0
100
AcDbLine
 62
7
  6
BYLAYER
 10
35.7373211907
 20
12.796813442
 11
38.1777455453
 21
14.0786744678
  0
LINE
  5
34B
100
AcDbEntity
  8
0
100
AcDbLine
 62
7
  6
BYLAYER
 10
49.0743212058
 20
19.739616203
 11
46.669054203
 21
18.4987616707
  0
LINE
  5
34C
100
AcDbEntity
  8
0
100
AcDbLine
 62
7
  6
BYLAYER
 10
35.7117267461
 20
12.8459799126
 11
38.1615357304
 21
14.1098132325
  0
LINE
  5
34D
100
AcDbEntity
  8
0
100
AcDbLine
 62
7
  6
BYLAYER
 10
40.9292658356
 20
20.8762598577
 11
40.568135311
 21
20.7448190961
  0
LINE
  5
34E
100
AcDbEntity
  8
0
100
AcDbLine
 62
7
  6
BYLAYER
 10
47.9171117884
 20
11.1933135897
 11
47.6963248348
 21
10.9894971989
  0
LINE
  5
34F
100
AcDbEntity
  8
0
100
AcDbLine
 62
7
  6
BYLAYER
 10
47.2139310486
 20
10.5474647344
 11
46.9916473898
 21
10.3452817108
  0
LINE
  5
350
100
AcDbEntity
  8
0
100
AcDbLine
 62
7
  6
BYLAYER
 10
47.45164161
 20
10.7312626914
 11
46.9916473898
 21
10.3452817108
  0
LINE
  5
351
100
AcDbEntity
  8
0
100
AcDbLine
 62
7
  6
BYLAYER
 10
47.45164161
 20
10.7312626914
 11
47.2139310486
 21
10.5474647344
  0
LINE
  5
352
100
AcDbEntity
  8
0
100
AcDbLine
 62
7
  6
BYLAYER
 10
44.9931929735
 20
12.2443624156
 11
45.3079989014
 21
12.4647918994
  0
LINE
  5
353
100
AcDbEntity
  8
0
100
AcDbLine
 62
7
  6
BYLAYER
 10
49.1903323787
 20
19.4624350208
 11
46.7502617975
 21
18.3246114224
  0
LINE
  5
354
100
AcDbEntity
  8
0
100
AcDbLine
 62
7
  6
BYLAYER
 10
35.5957155732
 20
13.1231610947
 11
38.0811740483
 21
14.2821494157
  0
LINE
  5
355
100
AcDbEntity
  8
0
100
AcDbLine
 62
7
  6
BYLAYER
 10
49.3280949385
 20
19.1953966769
 11
46.831469392
 21
18.1504611741
  0
LINE
  5
356
100
AcDbEntity
  8
0
100
AcDbLine
 62
7
  6
BYLAYER
 10
35.4579530133
 20
13.3901994386
 11
38.0008123663
 21
14.454485599
  0
LINE
  5
357
100
AcDbEntity
  8
0
100
AcDbLine
 62
7
  6
BYLAYER
 10
49.3493068482
 20
19.1441865968
 11
46.8450450142
 21
18.1176867227
  0
LINE
  5
358
100
AcDbEntity
  8
0
100
AcDbLine
 62
7
  6
BYLAYER
 10
35.4367411036
 20
13.4414095188
 11
37.9873781568
 21
14.4869186498
  0
LINE
  5
359
100
AcDbEntity
  8
0
100
AcDbLine
 62
7
  6
BYLAYER
 10
49.4407186318
 20
18.8579491327
 11
46.910765395
 21
17.9371214605
  0
LINE
  5
35A
100
AcDbEntity
  8
0
100
AcDbLine
 62
7
  6
BYLAYER
 10
35.34532932
 20
13.7276469829
 11
37.9223423633
 21
14.6656030239
  0
LINE
  5
35B
100
AcDbEntity
  8
0
100
AcDbLine
 62
7
  6
BYLAYER
 10
49.5546830383
 20
18.5799201521
 11
46.9764857758
 21
17.7565561982
  0
LINE
  5
35C
100
AcDbEntity
  8
0
100
AcDbLine
 62
7
  6
BYLAYER
 10
35.2313649136
 20
14.0056759635
 11
37.8573065698
 21
14.844287398
  0
LINE
  5
35D
100
AcDbEntity
  8
0
100
AcDbLine
 62
7
  6
BYLAYER
 10
46.6948472486
 20
10.1491577256
 11
46.4557880346
 21
9.9671173669
  0
LINE
  5
35E
100
AcDbEntity
  8
0
100
AcDbLine
 62
7
  6
BYLAYER
 10
46.947672297
 20
10.3115384353
 11
46.4557880346
 21
9.9671173669
  0
LINE
  5
35F
100
AcDbEntity
  8
0
100
AcDbLine
 62
7
  6
BYLAYER
 10
46.947672297
 20
10.3115384353
 11
46.6948472486
 21
10.1491577256
  0
LINE
  5
360
100
AcDbEntity
  8
0
100
AcDbLine
 62
7
  6
BYLAYER
 10
46.1430239759
 20
9.7976075294
 11
45.8890085918
 21
9.6370952725
  0
LINE
  5
361
100
AcDbEntity
  8
0
100
AcDbLine
 62
7
  6
BYLAYER
 10
44.6304541301
 20
12.0331482752
 11
44.9632738218
 21
12.2253018138
  0
LINE
  5
362
100
AcDbEntity
  8
0
100
AcDbLine
 62
7
  6
BYLAYER
 10
46.4090393601
 20
9.9373351766
 11
45.8890085918
 21
9.6370952725
  0
LINE
  5
363
100
AcDbEntity
  8
0
100
AcDbLine
 62
7
  6
BYLAYER
 10
44.2506870922
 20
11.8543526417
 11
44.5989875889
 21
12.0167678307
  0
LINE
  5
364
100
AcDbEntity
  8
0
100
AcDbLine
 62
7
  6
BYLAYER
 10
43.8567821163
 20
11.7093362579
 11
44.2179126409
 21
11.8407770195
  0
LINE
  5
365
100
AcDbEntity
  8
0
100
AcDbLine
 62
7
  6
BYLAYER
 10
46.4090393601
 20
9.9373351766
 11
46.1430239759
 21
9.7976075294
  0
LINE
  5
366
100
AcDbEntity
  8
0
100
AcDbLine
 62
7
  6
BYLAYER
 10
45.562660939
 20
9.495489655
 11
45.2956225951
 21
9.3577270952
  0
LINE
  5
367
100
AcDbEntity
  8
0
100
AcDbLine
 62
7
  6
BYLAYER
 10
45.8398421212
 20
9.6115008279
 11
45.2956225951
 21
9.3577270952
  0
LINE
  5
368
100
AcDbEntity
  8
0
100
AcDbLine
 62
7
  6
BYLAYER
 10
45.8398421212
 20
9.6115008279
 11
45.562660939
 21
9.495489655
  0
LINE
  5
369
100
AcDbEntity
  8
0
100
AcDbLine
 62
7
  6
BYLAYER
 10
44.9581750509
 20
9.2451034019
 11
44.6801460703
 21
9.1311389954
  0
LINE
  5
36A
100
AcDbEntity
  8
0
100
AcDbLine
 62
7
  6
BYLAYER
 10
45.2444125149
 20
9.3365151855
 11
44.6801460703
 21
9.1311389954
  0
LINE
  5
36B
100
AcDbEntity
  8
0
100
AcDbLine
 62
7
  6
BYLAYER
 10
45.2444125149
 20
9.3365151855
 11
44.9581750509
 21
9.2451034019
  0
LINE
  5
36C
100
AcDbEntity
  8
0
100
AcDbLine
 62
7
  6
BYLAYER
 10
39.5544475129
 20
105.051616631
 11
45.231600439
 21
105.051616631
  0
ARC
  5
36D
100
AcDbEntity
  8
0
100
AcDbCircle
 62
7
  6
BYLAYER
 10
57.3930239759
 20
26.2426724289
 40
10.0
100
AcDbArc
 50
180.0
 51
213.5573097617
  0
ARC
  5
36E
100
AcDbEntity
  8
0
100
AcDbCircle
 62
7
  6
BYLAYER
 10
27.3930239759
 20
26.2426724289
 40
10.0
100
AcDbArc
 50
326.4426902383
 51
360.0
  0
ARC
  5
36F
100
AcDbEntity
  8
0
100
AcDbCircle
 62
7
  6
BYLAYER
 10
42.3930239759
 20
16.2927980578
 40
8.0
100
AcDbArc
 50
7.9032077335
 51
33.5573097622
  0
ARC
  5
370
100
AcDbEntity
  8
0
100
AcDbCircle
 62
7
  6
BYLAYER
 10
42.3930239759
 20
16.2927980578
 40
8.0
100
AcDbArc
 50
277.9032077335
 51
352.0967922665
  0
ARC
  5
371
100
AcDbEntity
  8
0
100
AcDbCircle
 62
7
  6
BYLAYER
 10
42.3930239759
 20
16.2927980578
 40
8.0
100
AcDbArc
 50
187.9032077335
 51
262.0967922665
  0
ARC
  5
372
100
AcDbEntity
  8
0
100
AcDbCircle
 62
7
  6
BYLAYER
 10
42.3930239759
 20
16.2927980578
 40
8.0
100
AcDbArc
 50
146.4426902378
 51
172.0967922665
  0
CIRCLE
  5
373
100
AcDbEntity
  8
0
100
AcDbCircle
 62
7
  6
BYLAYER
 10
42.3930239759
 20
16.2927980578
 40
3.1
  0
ARC
  5
374
100
AcDbEntity
  8
0
100
AcDbCircle
 62
7
  6
BYLAYER
 10
42.3930239759
 20
104.9524913567
 40
2.8403067011
100
AcDbArc
 50
2.0
 51
178.0
  0
SPLINE
  5
375
100
AcDbEntity
  8
0
100
AcDbSpline
 62
7
  6
BYLAYER
 70
0
 71
3
 72
28
 73
24
 74
0
 42
0.0000001
 43
0.0000001
 44
0.0000000001
 40
0.0
 40
0.0
 40
0.0
 40
0.0
 40
0.0621321483
 40
0.1244099234
 40
0.186870338
 40
0.2495087441
 40
0.3122750068
 40
0.3750762779
 40
0.4064373698
 40
0.437728627
 40
0.4689101609
 40
0.4999925608
 40
0.5155306504
 40
0.5310801282
 40
0.5622721327
 40
0.5935614655
 40
0.6249230715
 40
0.6877244353
 40
0.7504907613
 40
0.8131292554
 40
0.8755897842
 40
0.9378677885
 40
1.0
 40
1.0
 40
1.0
 40
1.0
 10
46.1457134382
 20
71.7927980578
 30
0.0
 10
46.0712318405
 20
71.7927980578
 30
0.0
 10
45.9220311658
 20
71.8017933612
 30
0.0
 10
45.7003447957
 20
71.8353109864
 30
0.0
 10
45.4808832423
 20
71.8837776242
 30
0.0
 10
45.2635506918
 20
71.9430195029
 30
0.0
 10
45.0478184307
 20
72.0091066137
 30
0.0
 10
44.8685427776
 20
72.0661146289
 30
0.0
 10
44.7242939326
 20
72.1087004558
 30
0.0
 10
44.6153304398
 20
72.1367546332
 30
0.0
 10
44.5049929747
 20
72.1576795521
 30
0.0
 10
44.4116531658
 20
72.1640855709
 30
0.0
 10
44.3371140226
 20
72.1616713669
 30
0.0
 10
44.262786926
 20
72.1541088157
 30
0.0
 10
44.1707188372
 20
72.1367922748
 30
0.0
 10
44.0617548029
 20
72.1087024637
 30
0.0
 10
43.9175075278
 20
72.0661164736
 30
0.0
 10
43.7382304079
 20
72.0091107185
 30
0.0
 10
43.5224993346
 20
71.9430185777
 30
0.0
 10
43.3051658849
 20
71.8837787267
 30
0.0
 10
43.0857041676
 20
71.8353105541
 30
0.0
 10
42.8640171858
 20
71.801793477
 30
0.0
 10
42.7148161871
 20
71.7927980578
 30
0.0
 10
42.6403345136
 20
71.7927980578
 30
0.0
  0
SPLINE
  5
376
100
AcDbEntity
  8
0
100
AcDbSpline
 62
7
  6
BYLAYER
 70
0
 71
3
 72
28
 73
24
 74
0
 42
0.0000001
 43
0.0000001
 44
0.0000000001
 40
0.0
 40
0.0
 40
0.0
 40
0.0
 40
0.0621321483
 40
0.1244099234
 40
0.186870338
 40
0.2495087441
 40
0.3122750068
 40
0.3750762779
 40
0.4064373698
 40
0.437728627
 40
0.4689101609
 40
0.4999925608
 40
0.5155306504
 40
0.5310801282
 40
0.5622721327
 40
0.5935614655
 40
0.6249230715
 40
0.6877244353
 40
0.7504907613
 40
0.8131292554
 40
0.8755897842
 40
0.9378677885
 40
1.0
 40
1.0
 40
1.0
 40
1.0
 10
42.1457134382
 20
71.7927980578
 30
0.0
 10
42.0712318405
 20
71.7927980578
 30
0.0
 10
41.9220311658
 20
71.8017933612
 30
0.0
 10
41.7003447957
 20
71.8353109864
 30
0.0
 10
41.4808832423
 20
71.8837776242
 30
0.0
 10
41.2635506918
 20
71.9430195029
 30
0.0
 10
41.0478184307
 20
72.0091066137
 30
0.0
 10
40.8685427776
 20
72.0661146289
 30
0.0
 10
40.7242939326
 20
72.1087004558
 30
0.0
 10
40.6153304398
 20
72.1367546332
 30
0.0
 10
40.5049929747
 20
72.1576795521
 30
0.0
 10
40.4116531658
 20
72.1640855709
 30
0.0
 10
40.3371140226
 20
72.1616713669
 30
0.0
 10
40.262786926
 20
72.1541088157
 30
0.0
 10
40.1707188372
 20
72.1367922748
 30
0.0
 10
40.0617548029
 20
72.1087024637
 30
0.0
 10
39.9175075278
 20
72.0661164736
 30
0.0
 10
39.7382304079
 20
72.0091107185
 30
0.0
 10
39.5224993346
 20
71.9430185777
 30
0.0
 10
39.3051658849
 20
71.8837787267
 30
0.0
 10
39.0857041676
 20
71.8353105541
 30
0.0
 10
38.8640171858
 20
71.801793477
 30
0.0
 10
38.7148161871
 20
71.7927980578
 30
0.0
 10
38.6403345136
 20
71.7927980578
 30
0.0
  0
ENDSEC
  0
SECTION
  2
OBJECTS
  0
DICTIONARY
  5
C
100
AcDbDictionary
280
0
281
1
  3
ACAD_GROUP
350
D
  3
ACAD_MLINESTYLE
350
17
  3
ACAD_LAYOUT
350
1A
  3
ACAD_PLOTSETTINGS
350
19
  3
ACAD_PLOTSTYLENAME
350
E
  0
DICTIONARY
  5
D
102
{ACAD_REACTORS
330
C
102
}
100
AcDbDictionary
280
0
281
1
  0
ACDBDICTIONARYWDFLT
  5
E
102
{ACAD_REACTORS
330
C
102
}
100
AcDbDictionary
281
1
  3
Normal
350
F
100
AcDbDictionaryWithDefault
340
F
  0
DICTIONARY
  5
17
102
{ACAD_REACTORS
330
C
102
}
100
AcDbDictionary
280
0
281
1
  3
Standard
350
18
  0
DICTIONARY
  5
19
102
{ACAD_REACTORS
330
C
102
}
100
AcDbDictionary
281
1
  0
DICTIONARY
  5
1A
102
{ACAD_REACTORS
330
C
102
}
100
AcDbDictionary
281
1
  3
Model
350
377
  3
Layout1
350
378
  0
ACDBPLACEHOLDER
  5
F
102
{ACAD_REACTORS
330
E
102
}
  0
MLINESTYLE
  5
18
102
{ACAD_REACTORS
330
17
102
}
100
AcDbMlineStyle
  2
STANDARD
 70
0
  3

 62
256
 51
90.0
 52
90.0
 71
2
 49
0.5
 62
256
  6
BYLAYER
 49
-0.5
 62
256
  6
BYLAYER
  0
LAYOUT
  5
377
102
{ACAD_REACTORS
330
1A
102
}
100
AcDbPlotSettings
  1

  2
none_device
  4

  6

 40
0.0
 41
0.0
 42
0.0
 43
0.0
 44
210.0
 45
297.0
 46
0.0
 47
0.0
 48
0.0
 49
0.0
140
0.0
141
0.0
142
1.0
143
1.0
 70
1024
 72
1
 73
0
 74
0
  7

 75
0
147
1.0
148
0.0
149
0.0
100
AcDbLayout
  1
Model
 70
0
 71
0
 10
0.0
 20
0.0
 11
210.0
 21
297.0
 12
0.0
 22
0.0
 32
0.0
 14
0.0
 24
0.0
 34
0.0
 15
0.0
 25
0.0
 35
0.0
146
0.0
 13
0.0
 23
0.0
 33
0.0
 16
1.0
 26
0.0
 36
0.0
 17
0.0
 27
1.0
 37
0.0
 76
0
330
210
345
0
346
0
  0
LAYOUT
  5
378
102
{ACAD_REACTORS
330
1A
102
}
100
AcDbPlotSettings
  1

  2
none_device
  4

  6

 40
0.0
 41
0.0
 42
0.0
 43
0.0
 44
210.0
 45
297.0
 46
0.0
 47
0.0
 48
0.0
 49
0.0
140
0.0
141
0.0
142
1.0
143
1.0
 70
0
 72
1
 73
0
 74
0
  7

 75
0
147
1.0
148
0.0
149
0.0
100
AcDbLayout
  1
Layout1
 70
0
 71
1
 10
0.0
 20
0.0
 11
210.0
 21
297.0
 12
0.0
 22
0.0
 32
0.0
 14
0.0
 24
0.0
 34
0.0
 15
0.0
 25
0.0
 35
0.0
146
0.0
 13
0.0
 23
0.0
 33
0.0
 16
1.0
 26
0.0
 36
0.0
 17
0.0
 27
1.0
 37
0.0
 76
0
330
211
345
0
346
0
  0
ENDSEC
  0
EOF
