999
DXF file: C:\Users\sesa63760\Dev\_Creo\CAD\MCADID0003698_3D-CAD\drw0001_1.dxf
999
Pro/ENGINEER 2019471 by Parametric Technology Corporation
  0
SECTION
  2
HEADER
  9
$ACADVER
  1
AC1024
  9
$DWGCODEPAGE
  3
ANSI_1252
  9
$EXTMAX
 10
62.3477007732
 20
88.1774625221
 30
0.0
  9
$EXTMIN
 10
0.0
 20
0.0
 30
0.0
  9
$LIMMIN
 10
0.0
 20
0.0
  9
$LIMMAX
 10
62.3477007732
 20
88.1774625221
  9
$VIEWCTR
 10
31.1738503866
 20
44.0887312611
  9
$VIEWSIZE
 40
88.1774625221
  9
$CLAYER
  8
0
  9
$LTSCALE
 40
5.7478642237
  9
$CELTYPE
  6
BYLAYER
  9
$DIMSCALE
 40
1.0
  9
$DIMASZ
 40
0.742234533
  9
$DIMEXO
 40
1.0
  9
$DIMDLI
 40
3.9712516454
  9
$DIMEXE
 40
1.0
  9
$DIMCEN
 40
0.9405596002
  9
$DIMLFAC
 40
1.0
  9
$DIMBLK
  1
_FILLED
  9
$DIMALT
 70
0
  9
$DIMALTF
 40
0.0393700787
  9
$DIMTXT
 40
1.0391283462
  9
$DIMTOL
 70
1
  9
$DIMLIM
 70
0
  9
$DIMTFAC
 40
1.0
  9
$DIMTP
 40
0.01
  9
$DIMTM
 40
0.01
  9
$DIMGAP
 40
0.625
  9
$DIMDSEP
 70
46
  9
$AUNITS
 70
0
  9
$PDMODE
 70
3
  9
$PDSIZE
 40
0.3125
  9
$HANDSEED
  5
2A8
  9
$TILEMODE
 70
1
  9
$MEASUREMENT
 70
1
  9
$INSUNITS
 70
4
  0
ENDSEC
  0
SECTION
  2
CLASSES
  0
CLASS
  1
ACDBDICTIONARYWDFLT
  2
AcDbDictionaryWithDefault
  3
AutoCAD 2000
 90
0
 91
1
280
0
281
0
  0
CLASS
  1
ACDBPLACEHOLDER
  2
AcDbPlaceHolder
  3
AutoCAD 2000
 90
0
 91
1
280
0
281
0
  0
CLASS
  1
LAYOUT
  2
AcDbLayout
  3
AutoCAD 2000
 90
0
 91
0
280
0
281
0
  0
ENDSEC
  0
SECTION
  2
TABLES
  0
TABLE
  2
VPORT
  5
8
100
AcDbSymbolTable
 70
2
  0
VPORT
  5
1F4
100
AcDbSymbolTableRecord
100
AcDbViewportTableRecord
  2
*ACTIVE
 70
0
 10
0.0
 20
0.0
 11
1.0
 21
1.0
 12
31.1738503866
 22
44.0887312611
 13
0.0
 23
0.0
 14
1.0
 24
1.0
 15
0.0
 25
0.0
 16
0.0
 26
0.0
 36
1.0
 17
0.0
 27
0.0
 37
0.0
 40
88.1774625221
 41
0.7070707071
 42
50.0
 43
0.0
 44
0.0
 50
0.0
 51
0.0
 71
0
 72
100
 73
1
 74
1
 75
0
 76
0
 77
0
 78
0
  0
ENDTAB
  0
TABLE
  2
LTYPE
  5
5
100
AcDbSymbolTable
 70
6
  0
LTYPE
  5
14
100
AcDbSymbolTableRecord
100
AcDbLinetypeTableRecord
  2
BYBLOCK
 70
0
  3

 72
65
 73
0
 40
0.0
  0
LTYPE
  5
15
100
AcDbSymbolTableRecord
100
AcDbLinetypeTableRecord
  2
BYLAYER
 70
0
  3

 72
65
 73
0
 40
0.0
  0
LTYPE
  5
16
100
AcDbSymbolTableRecord
100
AcDbLinetypeTableRecord
  2
CONTINUOUS
 70
64
  3
Solid line
 72
65
 73
0
 40
0.0
  0
LTYPE
  5
1F5
100
AcDbSymbolTableRecord
100
AcDbLinetypeTableRecord
  2
CENTER
 70
64
  3
____ _ ____ _ ____ _ ____ _ ____ _ ____ _ ____
 72
65
 73
4
 40
0.6
 49
0.375
 74
0
 49
-0.075
 74
0
 49
0.075
 74
0
 49
-0.075
 74
0
  0
LTYPE
  5
1F6
100
AcDbSymbolTableRecord
100
AcDbLinetypeTableRecord
  2
HIDDEN
 70
64
  3
- - - - - - - - - - - - - - - - - - - -
 72
65
 73
2
 40
0.2
 49
0.1
 74
0
 49
-0.1
 74
0
  0
LTYPE
  5
1F7
100
AcDbSymbolTableRecord
100
AcDbLinetypeTableRecord
  2
PHANTOM
 70
64
  3
_____ _ _ _____ _ _ _____ _ _ _____
 72
65
 73
6
 40
0.8
 49
0.45
 74
0
 49
-0.05
 74
0
 49
0.1
 74
0
 49
-0.05
 74
0
 49
0.1
 74
0
 49
-0.05
 74
0
  0
LTYPE
  5
1F8
100
AcDbSymbolTableRecord
100
AcDbLinetypeTableRecord
  2
DOT
 70
64
  3
. . . . . . . . . . . . . . . . . . . .
 72
65
 73
2
 40
0.2
 49
0.1
 74
0
 49
-0.1
 74
0
  0
LTYPE
  5
1F9
100
AcDbSymbolTableRecord
100
AcDbLinetypeTableRecord
  2
DASHED
 70
64
  3
- - - - - - - - - - - - - - - - - - - -
 72
65
 73
2
 40
0.2
 49
0.1
 74
0
 49
-0.1
 74
0
  0
ENDTAB
  0
TABLE
  2
LAYER
  5
2
100
AcDbSymbolTable
 70
36
  0
LAYER
  5
10
100
AcDbSymbolTableRecord
100
AcDbLayerTableRecord
  2
0
 70
0
 62
7
  6
CONTINUOUS
370
-3
390
F
  0
LAYER
  5
1FA
100
AcDbSymbolTableRecord
100
AcDbLayerTableRecord
  2
DEFAULT_1
 70
0
 62
7
  6
CENTER
370
-3
390
F
  0
LAYER
  5
1FB
100
AcDbSymbolTableRecord
100
AcDbLayerTableRecord
  2
DEFAULT_2
 70
0
 62
7
  6
HIDDEN
370
-3
390
F
  0
LAYER
  5
1FC
100
AcDbSymbolTableRecord
100
AcDbLayerTableRecord
  2
DEFAULT_3
 70
0
 62
7
  6
PHANTOM
370
-3
390
F
  0
LAYER
  5
1FD
100
AcDbSymbolTableRecord
100
AcDbLayerTableRecord
  2
00_COMPONENTS
 70
0
 62
7
  6
CONTINUOUS
370
-3
390
F
  0
LAYER
  5
1FE
100
AcDbSymbolTableRecord
100
AcDbLayerTableRecord
  2
01_1_DEFAULT_DATUMS
 70
0
 62
7
  6
CONTINUOUS
370
-3
390
F
  0
LAYER
  5
1FF
100
AcDbSymbolTableRecord
100
AcDbLayerTableRecord
  2
01_PLANES
 70
0
 62
7
  6
CONTINUOUS
370
-3
390
F
  0
LAYER
  5
200
100
AcDbSymbolTableRecord
100
AcDbLayerTableRecord
  2
02_COORD_SYS
 70
0
 62
7
  6
CONTINUOUS
370
-3
390
F
  0
LAYER
  5
201
100
AcDbSymbolTableRecord
100
AcDbLayerTableRecord
  2
03_AXES
 70
0
 62
7
  6
CONTINUOUS
370
-3
390
F
  0
LAYER
  5
202
100
AcDbSymbolTableRecord
100
AcDbLayerTableRecord
  2
04_POINTS
 70
0
 62
7
  6
CONTINUOUS
370
-3
390
F
  0
LAYER
  5
203
100
AcDbSymbolTableRecord
100
AcDbLayerTableRecord
  2
05_CURVES
 70
0
 62
7
  6
CONTINUOUS
370
-3
390
F
  0
LAYER
  5
204
100
AcDbSymbolTableRecord
100
AcDbLayerTableRecord
  2
06_SURFS
 70
0
 62
7
  6
CONTINUOUS
370
-3
390
F
  0
LAYER
  5
205
100
AcDbSymbolTableRecord
100
AcDbLayerTableRecord
  2
07_COSMETICS
 70
0
 62
7
  6
CONTINUOUS
370
-3
390
F
  0
LAYER
  5
206
100
AcDbSymbolTableRecord
100
AcDbLayerTableRecord
  2
10_NOTES
 70
0
 62
7
  6
CONTINUOUS
370
-3
390
F
  0
LAYER
  5
207
100
AcDbSymbolTableRecord
100
AcDbLayerTableRecord
  2
11_NOTES_PUB
 70
0
 62
7
  6
CONTINUOUS
370
-3
390
F
  0
LAYER
  5
208
100
AcDbSymbolTableRecord
100
AcDbLayerTableRecord
  2
13_REF_GTOL
 70
0
 62
7
  6
CONTINUOUS
370
-3
390
F
  0
LAYER
  5
209
100
AcDbSymbolTableRecord
100
AcDbLayerTableRecord
  2
16_MISC
 70
0
 62
7
  6
CONTINUOUS
370
-3
390
F
  0
LAYER
  5
20A
100
AcDbSymbolTableRecord
100
AcDbLayerTableRecord
  2
17_NO_PRINT
 70
0
 62
7
  6
CONTINUOUS
370
-3
390
F
  0
LAYER
  5
20B
100
AcDbSymbolTableRecord
100
AcDbLayerTableRecord
  2
18_DATUM_CAMS_JOINTS
 70
0
 62
7
  6
CONTINUOUS
370
-3
390
F
  0
LAYER
  5
20C
100
AcDbSymbolTableRecord
100
AcDbLayerTableRecord
  2
19_DATUM_FUNCTIONAL
 70
0
 62
7
  6
CONTINUOUS
370
-3
390
F
  0
LAYER
  5
20D
100
AcDbSymbolTableRecord
100
AcDbLayerTableRecord
  2
20_DATUM_KINEMATIC_SCHEME
 70
0
 62
7
  6
CONTINUOUS
370
-3
390
F
  0
ENDTAB
  0
TABLE
  2
STYLE
  5
3
100
AcDbSymbolTable
 70
1
  0
STYLE
  5
11
100
AcDbSymbolTableRecord
100
AcDbTextStyleTableRecord
  2
STANDARD
 70
0
 40
0.0
 41
1.0
 50
0.0
 71
0
 42
0.2
  3
ARIAL.TTF
  4

  0
STYLE
  5
20E
100
AcDbSymbolTableRecord
100
AcDbTextStyleTableRecord
  2
TEXTSTYLE_1
 70
0
 40
0.0
 41
0.8
 50
0.0
 71
0
 42
0.2
  3
gdt
  4

  0
ENDTAB
  0
TABLE
  2
VIEW
  5
6
100
AcDbSymbolTable
 70
0
  0
ENDTAB
  0
TABLE
  2
UCS
  5
7
100
AcDbSymbolTable
 70
0
  0
ENDTAB
  0
TABLE
  2
APPID
  5
9
100
AcDbSymbolTable
 70
1
  0
APPID
  5
20F
100
AcDbSymbolTableRecord
100
AcDbRegAppTableRecord
  2
ACAD
 70
0
  0
ENDTAB
  0
TABLE
  2
BLOCK_RECORD
  5
1
100
AcDbSymbolTable
 70
0
  0
BLOCK_RECORD
  5
210
100
AcDbSymbolTableRecord
100
AcDbBlockTableRecord
  2
*Model_Space
  0
BLOCK_RECORD
  5
211
100
AcDbSymbolTableRecord
100
AcDbBlockTableRecord
  2
*Paper_Space
  0
BLOCK_RECORD
  5
212
100
AcDbSymbolTableRecord
100
AcDbBlockTableRecord
  2
_FILLED
  0
ENDTAB
  0
TABLE
  2
DIMSTYLE
  5
A
100
AcDbSymbolTable
 70
1
100
AcDbDimStyleTable
 71
0
  0
DIMSTYLE
105
213
100
AcDbSymbolTableRecord
100
AcDbDimStyleTableRecord
  2
STANDARD
 70
0
  3

  4

 40
1.0
 41
0.742234533
 42
1.0
 43
0.38
 44
1.0
 45
0.0
 46
0.0
 47
0.01
 48
0.01
140
1.0391283462
141
0.09
142
0.0
143
25.4
144
1.0
145
0.0
146
1.0
147
0.625
 71
1
 72
0
 73
0
 74
0
 75
0
 76
0
 77
1
 78
8
 79
2
170
0
171
1
172
0
173
0
174
0
175
0
176
0
177
0
178
0
270
2
179
2
271
2
272
2
273
2
274
2
275
0
280
0
281
0
282
0
283
1
284
8
285
0
286
0
287
3
288
0
340
11
278
46
341
212
342
212
343
212
344
212
  0
ENDTAB
  0
ENDSEC
  0
SECTION
  2
BLOCKS
  0
BLOCK
  5
20
100
AcDbEntity
  8
0
100
AcDbBlockBegin
  2
*Model_Space
 70
0
 10
0.0
 20
0.0
 30
0.0
  3
*Model_Space
  1

  0
ENDBLK
  5
21
100
AcDbEntity
  8
0
100
AcDbBlockEnd
  0
BLOCK
  5
1C
100
AcDbEntity
  8
0
100
AcDbBlockBegin
  2
*Paper_Space
 70
0
 10
0.0
 20
0.0
 30
0.0
  3
*Paper_Space
  1

  0
ENDBLK
  5
1D
100
AcDbEntity
  8
0
100
AcDbBlockEnd
  0
BLOCK
  5
214
100
AcDbEntity
  8
0
100
AcDbBlockBegin
  2
_FILLED
 70
64
 10
0.0
 20
0.0
  3
_FILLED
  1

  0
SOLID
  5
215
100
AcDbEntity
  8
0
  6
BYBLOCK
 62
0
100
AcDbTrace
 10
0.0
 20
0.0
 11
-1.0
 21
0.25
 12
-1.0
 22
-0.25
 13
-1.0
 23
-0.25
  0
ENDBLK
  5
216
100
AcDbEntity
  8
0
  6
BYBLOCK
 62
0
100
AcDbBlockEnd
  0
ENDSEC
  0
SECTION
  2
ENTITIES
  0
LINE
  5
217
100
AcDbEntity
  8
0
100
AcDbLine
 62
7
  6
BYLAYER
 10
26.3270501148
 20
81.496673261
 11
24.5592905218
 21
80.4760628763
  0
LINE
  5
218
100
AcDbEntity
  8
0
100
AcDbLine
 62
7
  6
BYLAYER
 10
25.5592855828
 20
80.3770145851
 11
27.3270451758
 21
81.3976249698
  0
LINE
  5
219
100
AcDbEntity
  8
0
100
AcDbLine
 62
7
  6
BYLAYER
 10
26.2686647567
 20
79.9674635934
 11
28.0364243497
 21
80.9880739781
  0
LINE
  5
21A
100
AcDbEntity
  8
0
100
AcDbLine
 62
7
  6
BYLAYER
 10
27.3270603578
 20
78.1316588063
 11
29.0948199508
 21
79.152269191
  0
LINE
  5
21B
100
AcDbEntity
  8
0
100
AcDbLine
 62
7
  6
BYLAYER
 10
28.7412798081
 20
77.3151772972
 11
30.5090394011
 21
78.3357876819
  0
LINE
  5
21C
100
AcDbEntity
  8
0
100
AcDbLine
 62
7
  6
BYLAYER
 10
28.3877249455
 20
12.1991043041
 11
37.5801513724
 21
6.8919744954
  0
LINE
  5
21D
100
AcDbEntity
  8
0
100
AcDbLine
 62
7
  6
BYLAYER
 10
28.7412798081
 20
74.2941183539
 11
30.5090394011
 21
75.3147287385
  0
LINE
  5
21E
100
AcDbEntity
  8
0
100
AcDbLine
 62
7
  6
BYLAYER
 10
37.2265965098
 20
72.416288243
 11
38.9943561029
 21
73.4368986277
  0
LINE
  5
21F
100
AcDbEntity
  8
0
100
AcDbLine
 62
7
  6
BYLAYER
 10
39.6992115613
 20
72.2135091983
 11
38.6408159601
 21
71.599806734
  0
LINE
  5
220
100
AcDbEntity
  8
0
100
AcDbLine
 62
7
  6
BYLAYER
 10
39.6992115613
 20
72.2135091983
 11
41.4669711543
 21
73.2341195829
  0
LINE
  5
221
100
AcDbEntity
  8
0
100
AcDbLine
 62
7
  6
BYLAYER
 10
42.1763494039
 20
72.8245691249
 11
40.4085898108
 21
71.8039587402
  0
LINE
  5
222
100
AcDbEntity
  8
0
100
AcDbLine
 62
7
  6
BYLAYER
 10
22.3646147783
 20
61.0064289976
 11
20.2433032666
 21
59.7816965359
  0
LINE
  5
223
100
AcDbEntity
  8
0
100
AcDbLine
 62
7
  6
BYLAYER
 10
21.4932976705
 20
59.6578858384
 11
23.6146091822
 21
60.8826183
  0
LINE
  5
224
100
AcDbEntity
  8
0
100
AcDbLine
 62
7
  6
BYLAYER
 10
41.8228097233
 20
69.3544721301
 11
43.5905693163
 21
70.3750825147
  0
LINE
  5
225
100
AcDbEntity
  8
0
100
AcDbLine
 62
7
  6
BYLAYER
 10
21.4932976705
 20
31.0803012389
 11
27.6806152204
 21
27.5081325992
  0
LINE
  5
226
100
AcDbEntity
  8
0
100
AcDbLine
 62
7
  6
BYLAYER
 10
23.0493951427
 20
54.9224538996
 11
24.1450665946
 21
55.5550363314
  0
LINE
  5
227
100
AcDbEntity
  8
0
100
AcDbLine
 62
7
  6
BYLAYER
 10
23.0135835796
 20
54.6976561305
 11
23.0277256563
 21
54.7058210136
  0
LINE
  5
228
100
AcDbEntity
  8
0
100
AcDbLine
 62
7
  6
BYLAYER
 10
28.7412650882
 20
57.800725756
 11
26.9735054952
 21
56.7801153713
  0
LINE
  5
229
100
AcDbEntity
  8
0
100
AcDbLine
 62
7
  6
BYLAYER
 10
19.7255233577
 20
58.6372316819
 11
19.7255233577
 21
34.142159168
  0
LINE
  5
22A
100
AcDbEntity
  8
0
100
AcDbLine
 62
7
  6
BYLAYER
 10
29.9785967085
 20
57.2084515093
 11
29.8728679263
 21
57.1474093328
  0
LINE
  5
22B
100
AcDbEntity
  8
0
100
AcDbLine
 62
7
  6
BYLAYER
 10
23.0135835796
 20
54.6976561305
 11
23.0135835796
 21
50.6151440449
  0
LINE
  5
22C
100
AcDbEntity
  8
0
100
AcDbLine
 62
7
  6
BYLAYER
 10
23.0135835796
 20
38.3676077879
 11
23.0135835796
 21
34.2850957023
  0
LINE
  5
22D
100
AcDbEntity
  8
0
100
AcDbLine
 62
7
  6
BYLAYER
 10
23.0277256563
 20
34.2932605854
 11
23.0277256563
 21
38.375772671
  0
LINE
  5
22E
100
AcDbEntity
  8
0
100
AcDbLine
 62
7
  6
BYLAYER
 10
23.0277256563
 20
50.623308928
 11
23.0277256563
 21
54.7058210136
  0
LINE
  5
22F
100
AcDbEntity
  8
0
100
AcDbLine
 62
7
  6
BYLAYER
 10
24.1450665946
 20
79.5604909931
 11
24.1450665946
 21
55.0654184792
  0
LINE
  5
230
100
AcDbEntity
  8
0
100
AcDbLine
 62
7
  6
BYLAYER
 10
24.95811766
 20
51.9419366951
 11
23.0277256563
 21
50.8274310049
  0
LINE
  5
231
100
AcDbEntity
  8
0
100
AcDbLine
 62
7
  6
BYLAYER
 10
23.0277256563
 20
50.623308928
 11
23.0135835796
 21
50.6151440449
  0
LINE
  5
232
100
AcDbEntity
  8
0
100
AcDbLine
 62
7
  6
BYLAYER
 10
24.95811766
 20
35.6118883525
 11
24.95811766
 21
39.1038401527
  0
LINE
  5
233
100
AcDbEntity
  8
0
100
AcDbLine
 62
7
  6
BYLAYER
 10
24.95811766
 20
51.9419366951
 11
24.95811766
 21
53.77951143
  0
LINE
  5
234
100
AcDbEntity
  8
0
100
AcDbLine
 62
7
  6
BYLAYER
 10
26.3369992878
 20
32.366364156
 11
26.3369992878
 21
36.4488762417
  0
LINE
  5
235
100
AcDbEntity
  8
0
100
AcDbLine
 62
7
  6
BYLAYER
 10
26.3369992878
 20
48.6964124986
 11
26.3369992878
 21
52.7789245843
  0
LINE
  5
236
100
AcDbEntity
  8
0
100
AcDbLine
 62
7
  6
BYLAYER
 10
26.9735054952
 20
73.1101637139
 11
26.9735054952
 21
56.7801153713
  0
LINE
  5
237
100
AcDbEntity
  8
0
100
AcDbLine
 62
7
  6
BYLAYER
 10
27.6806152204
 20
51.3912098723
 11
27.6806152204
 21
13.4238474758
  0
LINE
  5
238
100
AcDbEntity
  8
0
100
AcDbLine
 62
7
  6
BYLAYER
 10
28.7412650882
 20
57.800725756
 11
28.7412650882
 21
72.0895703259
  0
LINE
  5
239
100
AcDbEntity
  8
0
100
AcDbLine
 62
7
  6
BYLAYER
 10
28.7412798081
 20
74.2941183539
 11
28.7412798081
 21
77.3151772972
  0
LINE
  5
23A
100
AcDbEntity
  8
0
100
AcDbLine
 62
7
  6
BYLAYER
 10
30.5090394011
 20
75.3147287385
 11
30.5090394011
 21
78.3357876819
  0
LINE
  5
23B
100
AcDbEntity
  8
0
100
AcDbLine
 62
7
  6
BYLAYER
 10
31.1100973873
 20
38.5109349442
 11
31.1100973873
 21
34.4284228586
  0
LINE
  5
23C
100
AcDbEntity
  8
0
100
AcDbLine
 62
7
  6
BYLAYER
 10
31.1100973873
 20
22.1808866016
 11
31.1100973873
 21
18.098374516
  0
LINE
  5
23D
100
AcDbEntity
  8
0
100
AcDbLine
 62
7
  6
BYLAYER
 10
32.8778569803
 20
19.1189849007
 11
32.8778569803
 21
23.2014969863
  0
LINE
  5
23E
100
AcDbEntity
  8
0
100
AcDbLine
 62
7
  6
BYLAYER
 10
32.8778569803
 20
35.4490332432
 11
32.8778569803
 21
39.5315453289
  0
LINE
  5
23F
100
AcDbEntity
  8
0
100
AcDbLine
 62
7
  6
BYLAYER
 10
23.0493951427
 20
38.592405557
 11
24.4732737363
 21
39.4144773392
  0
LINE
  5
240
100
AcDbEntity
  8
0
100
AcDbLine
 62
7
  6
BYLAYER
 10
23.0135835796
 20
38.3676077879
 11
23.0277256563
 21
38.375772671
  0
LINE
  5
241
100
AcDbEntity
  8
0
100
AcDbLine
 62
7
  6
BYLAYER
 10
38.2872610976
 20
45.2675985545
 11
38.9943769322
 21
45.6758496351
  0
LINE
  5
242
100
AcDbEntity
  8
0
100
AcDbLine
 62
7
  6
BYLAYER
 10
34.8577789306
 20
15.934698517
 11
34.8577789306
 21
20.0172106027
  0
LINE
  5
243
100
AcDbEntity
  8
0
100
AcDbLine
 62
7
  6
BYLAYER
 10
34.8577789306
 20
32.2647468596
 11
34.8577789306
 21
36.3472589453
  0
LINE
  5
244
100
AcDbEntity
  8
0
100
AcDbLine
 62
7
  6
BYLAYER
 10
37.2265965098
 20
72.416288243
 11
37.2265965098
 21
69.3952292996
  0
LINE
  5
245
100
AcDbEntity
  8
0
100
AcDbLine
 62
7
  6
BYLAYER
 10
24.95811766
 20
35.6118883525
 11
23.0277256563
 21
34.4973826623
  0
LINE
  5
246
100
AcDbEntity
  8
0
100
AcDbLine
 62
7
  6
BYLAYER
 10
23.0277256563
 20
34.2932605854
 11
23.0135835796
 21
34.2850957023
  0
LINE
  5
247
100
AcDbEntity
  8
0
100
AcDbLine
 62
7
  6
BYLAYER
 10
43.5905693163
 20
45.8800100008
 11
41.8228097233
 21
44.8593996162
  0
LINE
  5
248
100
AcDbEntity
  8
0
100
AcDbLine
 62
7
  6
BYLAYER
 10
31.1100973873
 20
38.5109349442
 11
32.8778569803
 21
39.5315453289
  0
LINE
  5
249
100
AcDbEntity
  8
0
100
AcDbLine
 62
7
  6
BYLAYER
 10
43.3834573527
 20
45.4222240592
 11
41.6156977597
 21
44.4016136745
  0
LINE
  5
24A
100
AcDbEntity
  8
0
100
AcDbLine
 62
7
  6
BYLAYER
 10
24.8521763198
 20
53.8406753075
 11
26.9735054952
 21
52.615953044
  0
LINE
  5
24B
100
AcDbEntity
  8
0
100
AcDbLine
 62
7
  6
BYLAYER
 10
38.9943708227
 20
45.6758602171
 11
41.1156999981
 21
44.4511379536
  0
LINE
  5
24C
100
AcDbEntity
  8
0
100
AcDbLine
 62
7
  6
BYLAYER
 10
38.2872610976
 20
7.300236158
 11
38.2872610976
 21
45.2675985545
  0
LINE
  5
24D
100
AcDbEntity
  8
0
100
AcDbLine
 62
7
  6
BYLAYER
 10
38.9943708227
 20
49.8400225445
 11
38.9943708227
 21
66.1700708871
  0
LINE
  5
24E
100
AcDbEntity
  8
0
100
AcDbLine
 62
7
  6
BYLAYER
 10
32.8778569803
 20
35.4490332432
 11
31.1100973873
 21
34.4284228586
  0
LINE
  5
24F
100
AcDbEntity
  8
0
100
AcDbLine
 62
7
  6
BYLAYER
 10
40.0550206906
 20
45.0635075836
 11
40.0550206906
 21
8.3208465427
  0
LINE
  5
250
100
AcDbEntity
  8
0
100
AcDbLine
 62
7
  6
BYLAYER
 10
41.8228097233
 20
44.8593996162
 11
41.8228097233
 21
69.3544721301
  0
LINE
  5
251
100
AcDbEntity
  8
0
100
AcDbLine
 62
7
  6
BYLAYER
 10
24.1450665946
 20
58.1269209713
 11
21.4932976705
 21
59.6578858384
  0
LINE
  5
252
100
AcDbEntity
  8
0
100
AcDbLine
 62
7
  6
BYLAYER
 10
26.9735054952
 20
56.7801153713
 11
38.9943708227
 21
49.8400225445
  0
LINE
  5
253
100
AcDbEntity
  8
0
100
AcDbLine
 62
7
  6
BYLAYER
 10
38.9943708227
 20
51.8812263172
 11
28.7412650882
 21
57.800725756
  0
LINE
  5
254
100
AcDbEntity
  8
0
100
AcDbLine
 62
7
  6
BYLAYER
 10
23.6146091822
 20
60.8826183
 11
24.1450665946
 21
60.5763654985
  0
LINE
  5
255
100
AcDbEntity
  8
0
100
AcDbLine
 62
7
  6
BYLAYER
 10
28.7412650882
 20
57.9228090924
 11
29.9785967085
 21
57.2084515093
  0
LINE
  5
256
100
AcDbEntity
  8
0
100
AcDbLine
 62
7
  6
BYLAYER
 10
43.5905693163
 20
70.3750825147
 11
43.5905693163
 21
45.8800100008
  0
LINE
  5
257
100
AcDbEntity
  8
0
100
AcDbLine
 62
7
  6
BYLAYER
 10
27.3270603578
 20
78.1316588063
 11
26.2686647567
 21
79.9674635934
  0
LINE
  5
258
100
AcDbEntity
  8
0
100
AcDbLine
 62
7
  6
BYLAYER
 10
28.0364243497
 20
80.9880739781
 11
29.0948199508
 21
79.152269191
  0
LINE
  5
259
100
AcDbEntity
  8
0
100
AcDbLine
 62
7
  6
BYLAYER
 10
31.1100973873
 20
22.1808866016
 11
32.8778569803
 21
23.2014969863
  0
LINE
  5
25A
100
AcDbEntity
  8
0
100
AcDbLine
 62
7
  6
BYLAYER
 10
32.8778569803
 20
19.1189849007
 11
31.1100973873
 21
18.098374516
  0
LINE
  5
25B
100
AcDbEntity
  8
0
100
AcDbLine
 62
7
  6
BYLAYER
 10
38.9943708227
 20
66.1700708871
 11
26.9735054952
 21
73.1101637139
  0
LINE
  5
25C
100
AcDbEntity
  8
0
100
AcDbLine
 62
7
  6
BYLAYER
 10
37.2265965098
 20
69.3952292996
 11
28.7412798081
 21
74.2941183539
  0
LINE
  5
25D
100
AcDbEntity
  8
0
100
AcDbLine
 62
7
  6
BYLAYER
 10
37.2265965098
 20
71.4364330723
 11
30.5090394011
 21
75.3147287385
  0
LINE
  5
25E
100
AcDbEntity
  8
0
100
AcDbLine
 62
7
  6
BYLAYER
 10
38.6408159601
 20
71.599806734
 11
37.2265965098
 21
72.416288243
  0
LINE
  5
25F
100
AcDbEntity
  8
0
100
AcDbLine
 62
7
  6
BYLAYER
 10
28.7412798081
 20
77.3151772972
 11
27.3270603578
 21
78.1316588063
  0
LINE
  5
260
100
AcDbEntity
  8
0
100
AcDbLine
 62
7
  6
BYLAYER
 10
40.408590273
 20
71.8039584734
 11
39.6992115613
 21
72.2135091983
  0
LINE
  5
261
100
AcDbEntity
  8
0
100
AcDbLine
 62
7
  6
BYLAYER
 10
26.2686647567
 20
79.9674635934
 11
25.5592860449
 21
80.3770143183
  0
LINE
  5
262
100
AcDbEntity
  8
0
100
AcDbLine
 62
7
  6
BYLAYER
 10
29.0948199508
 20
79.152269191
 11
30.5090394011
 21
78.3357876819
  0
LINE
  5
263
100
AcDbEntity
  8
0
100
AcDbLine
 62
7
  6
BYLAYER
 10
38.9943561029
 20
73.4368986277
 11
40.4085755532
 21
72.6204171186
  0
LINE
  5
264
100
AcDbEntity
  8
0
100
AcDbLine
 62
7
  6
BYLAYER
 10
27.3270456379
 20
81.397624703
 11
28.0364243497
 21
80.9880739781
  0
LINE
  5
265
100
AcDbEntity
  8
0
100
AcDbLine
 62
7
  6
BYLAYER
 10
41.4669711543
 20
73.2341195829
 11
42.176349866
 21
72.824568858
  0
LINE
  5
266
100
AcDbEntity
  8
0
100
AcDbLine
 62
7
  6
BYLAYER
 10
40.0550206906
 20
8.3208465427
 11
38.2872610976
 21
7.300236158
  0
LINE
  5
267
100
AcDbEntity
  8
0
100
AcDbLine
 62
7
  6
BYLAYER
 10
39.847908727
 20
7.863060601
 11
38.080149134
 21
6.8424502164
  0
ARC
  5
268
100
AcDbEntity
  8
0
100
AcDbCircle
 62
7
  6
BYLAYER
 10
35.9665040883
 20
34.307323811
 40
2.4293993536
100
AcDbArc
 50
239.997095315
 51
241.7747011263
  0
ARC
  5
269
100
AcDbEntity
  8
0
100
AcDbCircle
 62
7
  6
BYLAYER
 10
35.9665040883
 20
17.9772754685
 40
2.4293993537
100
AcDbArc
 50
239.997095315
 51
241.7747011263
  0
ARC
  5
26A
100
AcDbEntity
  8
0
100
AcDbCircle
 62
7
  6
BYLAYER
 10
35.2880955458
 20
23.2019409184
 40
2.4102386064
100
AcDbArc
 50
178.2175576605
 51
180.010553079
  0
ARC
  5
26B
100
AcDbEntity
  8
0
100
AcDbCircle
 62
7
  6
BYLAYER
 10
35.2880955458
 20
39.531989261
 40
2.4102386064
100
AcDbArc
 50
178.2175576605
 51
180.0105530791
  0
ARC
  5
26C
100
AcDbEntity
  8
0
100
AcDbCircle
 62
7
  6
BYLAYER
 10
25.2477005166
 20
50.6314670529
 40
2.2199748373
100
AcDbArc
 50
180.2107793506
 51
180.3786345153
  0
ARC
  5
26D
100
AcDbEntity
  8
0
100
AcDbCircle
 62
7
  6
BYLAYER
 10
25.2475545535
 20
34.3014180325
 40
2.2198288727
100
AcDbArc
 50
180.2107757165
 51
180.3747760488
  0
ARC
  5
26E
100
AcDbEntity
  8
0
100
AcDbCircle
 62
7
  6
BYLAYER
 10
25.1925021928
 20
54.6894559924
 40
2.1789334501
100
AcDbArc
 50
179.5212584337
 51
179.7885597296
  0
ARC
  5
26F
100
AcDbEntity
  8
0
100
AcDbCircle
 62
7
  6
BYLAYER
 10
25.1925021918
 20
38.3594076498
 40
2.1789334491
100
AcDbArc
 50
179.5212584336
 51
179.7885597296
  0
ARC
  5
270
100
AcDbEntity
  8
0
100
AcDbCircle
 62
7
  6
BYLAYER
 10
25.4582688999
 20
48.3076211445
 40
0.7838933776
100
AcDbArc
 50
300.0056006428
 51
301.1792243723
  0
ARC
  5
271
100
AcDbEntity
  8
0
100
AcDbCircle
 62
7
  6
BYLAYER
 10
25.4582688998
 20
31.9775728019
 40
0.7838933777
100
AcDbArc
 50
300.0056006428
 51
301.1792243722
  0
ARC
  5
272
100
AcDbEntity
  8
0
100
AcDbCircle
 62
7
  6
BYLAYER
 10
23.8921361802
 20
38.7567074274
 40
0.783537499
100
AcDbArc
 50
118.8688817265
 51
120.0055691406
  0
ARC
  5
273
100
AcDbEntity
  8
0
100
AcDbCircle
 62
7
  6
BYLAYER
 10
23.8921361802
 20
55.0867557701
 40
0.7835374989
100
AcDbArc
 50
118.8688817265
 51
120.0055691408
  0
SPLINE
  5
274
100
AcDbEntity
  8
0
100
AcDbSpline
 62
7
  6
BYLAYER
 70
0
 71
3
 72
9
 73
5
 74
0
 42
0.0000001
 43
0.0000001
 44
0.0000000001
 40
0.0
 40
0.0
 40
0.0
 40
0.0
 40
0.4839628242
 40
1.0
 40
1.0
 40
1.0
 40
1.0
 10
29.9785967085
 20
57.2084515093
 30
0.0
 10
30.0730250746
 20
57.1539345001
 30
0.0
 10
30.2604822071
 20
57.0277486821
 30
0.0
 10
30.4320598217
 20
56.8810023955
 30
0.0
 10
30.516510036
 20
56.8010958854
 30
0.0
  0
SPLINE
  5
275
100
AcDbEntity
  8
0
100
AcDbSpline
 62
7
  6
BYLAYER
 70
0
 71
3
 72
24
 73
20
 74
0
 42
0.0000001
 43
0.0000001
 44
0.0000000001
 40
0.0
 40
0.0
 40
0.0
 40
0.0
 40
0.0213186025
 40
0.0428976598
 40
0.0875801908
 40
0.1355128099
 40
0.1875751411
 40
0.2441439203
 40
0.3051760027
 40
0.3702959302
 40
0.4388729315
 40
0.5100954271
 40
0.5830248435
 40
0.6566417262
 40
0.729904374
 40
0.8017811656
 40
0.8712928376
 40
0.9376201812
 40
1.0
 40
1.0
 40
1.0
 40
1.0
 10
23.5138389219
 20
39.4428722739
 30
0.0
 10
23.5428669331
 20
39.4588760289
 30
0.0
 10
23.6034084702
 20
39.4873793616
 30
0.0
 10
23.7331741815
 20
39.5296216068
 30
0.0
 10
23.9109570116
 20
39.5529452353
 30
0.0
 10
24.1365055485
 20
39.5335102653
 30
0.0
 10
24.3723058477
 20
39.4685510367
 30
0.0
 10
24.613662611
 20
39.3599166685
 30
0.0
 10
24.8558668674
 20
39.2100780052
 30
0.0
 10
25.0940281406
 20
39.0221887624
 30
0.0
 10
25.3232809094
 20
38.8002029915
 30
0.0
 10
25.5388641542
 20
38.5487642493
 30
0.0
 10
25.7362427037
 20
38.2731349165
 30
0.0
 10
25.9112795013
 20
37.9791204441
 30
0.0
 10
26.060292253
 20
37.6729094545
 30
0.0
 10
26.180135435
 20
37.3609584806
 30
0.0
 10
26.2683164273
 20
37.0497529647
 30
0.0
 10
26.322895852
 20
36.7459098826
 30
0.0
 10
26.3366426122
 20
36.5457087161
 30
0.0
 10
26.3369992878
 20
36.4487178101
 30
0.0
  0
SPLINE
  5
276
100
AcDbEntity
  8
0
100
AcDbSpline
 62
7
  6
BYLAYER
 70
0
 71
3
 72
14
 73
10
 74
0
 42
0.0000001
 43
0.0000001
 44
0.0000000001
 40
0.0
 40
0.0
 40
0.0
 40
0.0
 40
0.1080715527
 40
0.2183317599
 40
0.3325324158
 40
0.452096943
 40
0.5781211845
 40
0.7113559685
 40
1.0
 40
1.0
 40
1.0
 40
1.0
 10
23.5006232821
 20
39.435229662
 30
0.0
 10
23.4632949717
 20
39.4126414105
 30
0.0
 10
23.3915739588
 20
39.3605808812
 30
0.0
 10
23.2969006664
 20
39.264630853
 30
0.0
 10
23.2154259617
 20
39.1515102311
 30
0.0
 10
23.1478419216
 20
39.0224443469
 30
0.0
 10
23.0946923386
 20
38.8786227211
 30
0.0
 10
23.0422201385
 20
38.6633662608
 30
0.0
 10
23.0281710595
 20
38.4922945121
 30
0.0
 10
23.0277407013
 20
38.375763985
 30
0.0
  0
SPLINE
  5
277
100
AcDbEntity
  8
0
100
AcDbSpline
 62
7
  6
BYLAYER
 70
0
 71
3
 72
15
 73
11
 74
0
 42
0.0000001
 43
0.0000001
 44
0.0000000001
 40
0.0
 40
0.0
 40
0.0
 40
0.0
 40
0.1118492009
 40
0.2313943943
 40
0.3569593611
 40
0.4865741792
 40
0.6179894058
 40
0.7488787676
 40
0.8769322471
 40
1.0
 40
1.0
 40
1.0
 40
1.0
 10
24.95811766
 20
51.9420902966
 30
0.0
 10
24.9585184286
 20
51.8215398217
 30
0.0
 10
24.9775257147
 20
51.5720161182
 30
0.0
 10
25.0527742115
 20
51.1939455471
 30
0.0
 10
25.1738778718
 20
50.8078852448
 30
0.0
 10
25.3375689367
 20
50.4240132944
 30
0.0
 10
25.5396110854
 20
50.0523476494
 30
0.0
 10
25.7746863947
 20
49.702644423
 30
0.0
 10
26.036583084
 20
49.3841331782
 30
0.0
 10
26.2294087813
 20
49.1933095293
 30
0.0
 10
26.328929738
 20
49.1056190912
 30
0.0
  0
SPLINE
  5
278
100
AcDbEntity
  8
0
100
AcDbSpline
 62
7
  6
BYLAYER
 70
0
 71
3
 72
11
 73
7
 74
0
 42
0.0000001
 43
0.0000001
 44
0.0000000001
 40
0.0
 40
0.0
 40
0.0
 40
0.0
 40
0.2361787686
 40
0.4785097673
 40
0.7318613562
 40
1.0
 40
1.0
 40
1.0
 40
1.0
 10
23.5138389219
 20
55.7729206165
 30
0.0
 10
23.5577477162
 20
55.7971284611
 30
0.0
 10
23.6517048468
 20
55.8376242383
 30
0.0
 10
23.8041354014
 20
55.8716625132
 30
0.0
 10
23.9668453665
 20
55.8791226131
 30
0.0
 10
24.0773412405
 20
55.8668917609
 30
0.0
 10
24.1333761521
 20
55.8568658317
 30
0.0
  0
SPLINE
  5
279
100
AcDbEntity
  8
0
100
AcDbSpline
 62
7
  6
BYLAYER
 70
0
 71
3
 72
9
 73
5
 74
0
 42
0.0000001
 43
0.0000001
 44
0.0000000001
 40
0.0
 40
0.0
 40
0.0
 40
0.0
 40
0.2549152456
 40
1.0
 40
1.0
 40
1.0
 40
1.0
 10
26.3266316739
 20
52.9905922229
 30
0.0
 10
26.3282830836
 20
52.9726440342
 30
0.0
 10
26.3340298637
 20
52.9021712879
 30
0.0
 10
26.3368055562
 20
52.8314476545
 30
0.0
 10
26.3369992878
 20
52.7787661527
 30
0.0
  0
SPLINE
  5
27A
100
AcDbEntity
  8
0
100
AcDbSpline
 62
7
  6
BYLAYER
 70
0
 71
3
 72
15
 73
11
 74
0
 42
0.0000001
 43
0.0000001
 44
0.0000000001
 40
0.0
 40
0.0
 40
0.0
 40
0.0
 40
0.1118492009
 40
0.2313943943
 40
0.3569593611
 40
0.4865741792
 40
0.6179894058
 40
0.7488787676
 40
0.8769322471
 40
1.0
 40
1.0
 40
1.0
 40
1.0
 10
24.95811766
 20
35.612041954
 30
0.0
 10
24.9585184286
 20
35.4914914791
 30
0.0
 10
24.9775257147
 20
35.2419677756
 30
0.0
 10
25.0527742115
 20
34.8638972045
 30
0.0
 10
25.1738778718
 20
34.4778369022
 30
0.0
 10
25.3375689367
 20
34.0939649519
 30
0.0
 10
25.5396110854
 20
33.7222993068
 30
0.0
 10
25.7746863947
 20
33.3725960804
 30
0.0
 10
26.036583084
 20
33.0540848356
 30
0.0
 10
26.2294087813
 20
32.8632611867
 30
0.0
 10
26.328929738
 20
32.7755707486
 30
0.0
  0
SPLINE
  5
27B
100
AcDbEntity
  8
0
100
AcDbSpline
 62
7
  6
BYLAYER
 70
0
 71
3
 72
15
 73
11
 74
0
 42
0.0000001
 43
0.0000001
 44
0.0000000001
 40
0.0
 40
0.0
 40
0.0
 40
0.0
 40
0.1141555516
 40
0.2373276756
 40
0.3669773296
 40
0.5000011
 40
0.6330247168
 40
0.7626739247
 40
0.885845342
 40
1.0
 40
1.0
 40
1.0
 40
1.0
 10
19.7255233577
 20
34.142159168
 30
0.0
 10
19.7255233577
 20
34.0024189807
 30
0.0
 10
19.7511187611
 20
33.7116298787
 30
0.0
 10
19.853154323
 20
33.2729429431
 30
0.0
 10
20.0166094063
 20
32.8285882586
 30
0.0
 10
20.2353753686
 20
32.3952749839
 30
0.0
 10
20.50125433
 20
31.9891631877
 30
0.0
 10
20.8043501402
 20
31.6254324127
 30
0.0
 10
21.1332465302
 20
31.3177273476
 30
0.0
 10
21.3722793814
 20
31.1501696001
 30
0.0
 10
21.4932976705
 20
31.0803012389
 30
0.0
  0
SPLINE
  5
27C
100
AcDbEntity
  8
0
100
AcDbSpline
 62
7
  6
BYLAYER
 70
0
 71
3
 72
14
 73
10
 74
0
 42
0.0000001
 43
0.0000001
 44
0.0000000001
 40
0.0
 40
0.0
 40
0.0
 40
0.0
 40
0.2886446287
 40
0.421882001
 40
0.5479086571
 40
0.6674743699
 40
0.7816746616
 40
0.8919324762
 40
1.0
 40
1.0
 40
1.0
 40
1.0
 10
26.3369992878
 20
48.6965716739
 30
0.0
 10
26.3365688777
 20
48.5800271017
 30
0.0
 10
26.3225234815
 20
48.4089340595
 30
0.0
 10
26.27005724
 20
48.1936468441
 30
0.0
 10
26.2169098086
 20
48.0498023899
 30
0.0
 10
26.1493239357
 20
47.9207163341
 30
0.0
 10
26.0678434907
 20
47.8075802142
 30
0.0
 10
25.9731641706
 20
47.7116175404
 30
0.0
 10
25.9014374562
 20
47.6595511768
 30
0.0
 10
25.8641061465
 20
47.6369610412
 30
0.0
  0
SPLINE
  5
27D
100
AcDbEntity
  8
0
100
AcDbSpline
 62
7
  6
BYLAYER
 70
0
 71
3
 72
14
 73
10
 74
0
 42
0.0000001
 43
0.0000001
 44
0.0000000001
 40
0.0
 40
0.0
 40
0.0
 40
0.0
 40
0.2886446287
 40
0.421882001
 40
0.5479086571
 40
0.6674743699
 40
0.7816746616
 40
0.8919324762
 40
1.0
 40
1.0
 40
1.0
 40
1.0
 10
26.3369992878
 20
32.3665233313
 30
0.0
 10
26.3365688777
 20
32.2499787591
 30
0.0
 10
26.3225234815
 20
32.0788857169
 30
0.0
 10
26.27005724
 20
31.8635985015
 30
0.0
 10
26.2169098086
 20
31.7197540473
 30
0.0
 10
26.1493239357
 20
31.5906679915
 30
0.0
 10
26.0678434907
 20
31.4775318716
 30
0.0
 10
25.9731641706
 20
31.3815691978
 30
0.0
 10
25.9014374562
 20
31.3295028342
 30
0.0
 10
25.8641061465
 20
31.3069126986
 30
0.0
  0
SPLINE
  5
27E
100
AcDbEntity
  8
0
100
AcDbSpline
 62
7
  6
BYLAYER
 70
0
 71
3
 72
14
 73
10
 74
0
 42
0.0000001
 43
0.0000001
 44
0.0000000001
 40
0.0
 40
0.0
 40
0.0
 40
0.0
 40
0.1080715527
 40
0.2183317599
 40
0.3325324158
 40
0.452096943
 40
0.5781211845
 40
0.7113559685
 40
1.0
 40
1.0
 40
1.0
 40
1.0
 10
23.5006232821
 20
55.7652780046
 30
0.0
 10
23.4632949717
 20
55.7426897531
 30
0.0
 10
23.3915739588
 20
55.6906292238
 30
0.0
 10
23.2969006664
 20
55.5946791956
 30
0.0
 10
23.2154259617
 20
55.4815585737
 30
0.0
 10
23.1478419216
 20
55.3524926895
 30
0.0
 10
23.0946923386
 20
55.2086710637
 30
0.0
 10
23.0422201385
 20
54.9934146034
 30
0.0
 10
23.0281710595
 20
54.8223428547
 30
0.0
 10
23.0277407013
 20
54.7058123276
 30
0.0
  0
SPLINE
  5
27F
100
AcDbEntity
  8
0
100
AcDbSpline
 62
7
  6
BYLAYER
 70
0
 71
3
 72
15
 73
11
 74
0
 42
0.0000001
 43
0.0000001
 44
0.0000000001
 40
0.0
 40
0.0
 40
0.0
 40
0.0
 40
0.1080120351
 40
0.2180609276
 40
0.3320049916
 40
0.4513555801
 40
0.5772588794
 40
0.7104993721
 40
0.8514742921
 40
1.0
 40
1.0
 40
1.0
 40
1.0
 10
20.2433054006
 20
59.7816928397
 30
0.0
 10
20.2023169007
 20
59.7580282645
 30
0.0
 10
20.123521322
 20
59.7030246319
 30
0.0
 10
20.0193717473
 20
59.6005637183
 30
0.0
 10
19.9298440005
 20
59.4789162049
 30
0.0
 10
19.8556706001
 20
59.3395270402
 30
0.0
 10
19.7975107112
 20
59.1837519484
 30
0.0
 10
19.7557496571
 20
59.0130993416
 30
0.0
 10
19.7307950421
 20
58.8292543971
 30
0.0
 10
19.7255233577
 20
58.7023135789
 30
0.0
 10
19.7255233577
 20
58.6372316819
 30
0.0
  0
SPLINE
  5
280
100
AcDbEntity
  8
0
100
AcDbSpline
 62
7
  6
BYLAYER
 70
0
 71
3
 72
15
 73
11
 74
0
 42
0.0000001
 43
0.0000001
 44
0.0000000001
 40
0.0
 40
0.0
 40
0.0
 40
0.0
 40
0.1080125436
 40
0.2180618663
 40
0.332006219
 40
0.451356913
 40
0.5772601256
 40
0.7105003496
 40
0.8514748396
 40
1.0
 40
1.0
 40
1.0
 40
1.0
 10
22.3646169123
 20
61.0064253013
 30
0.0
 10
22.4056045047
 20
61.0300893576
 30
0.0
 10
22.4926349879
 20
61.0708253101
 30
0.0
 10
22.6334402404
 20
61.1097901714
 30
0.0
 10
22.7835502117
 20
61.1264998142
 30
0.0
 10
22.9413473938
 20
61.12104232
 30
0.0
 10
23.1053282145
 20
61.0935246667
 30
0.0
 10
23.2739937903
 20
61.0443673252
 30
0.0
 10
23.445681021
 20
60.9740598403
 30
0.0
 10
23.5582480052
 20
60.9151577046
 30
0.0
 10
23.6146091822
 20
60.8826183
 30
0.0
  0
SPLINE
  5
281
100
AcDbEntity
  8
0
100
AcDbSpline
 62
7
  6
BYLAYER
 70
0
 71
3
 72
24
 73
20
 74
0
 42
0.0000001
 43
0.0000001
 44
0.0000000001
 40
0.0
 40
0.0
 40
0.0
 40
0.0
 40
0.0624716192
 40
0.1288679485
 40
0.1984290783
 40
0.2703350738
 40
0.3436090113
 40
0.4172206811
 40
0.4901300774
 40
0.5613225909
 40
0.6298635969
 40
0.6949454064
 40
0.7559408353
 40
0.8124775175
 40
0.8645149066
 40
0.9124311123
 40
0.9571052449
 40
0.9786823403
 40
1.0
 40
1.0
 40
1.0
 40
1.0
 10
23.0277731691
 20
34.2868980667
 30
0.0
 10
23.0284075139
 20
34.1899010145
 30
0.0
 10
23.0426601792
 20
33.9897687933
 30
0.0
 10
23.097877225
 20
33.6861484459
 30
0.0
 10
23.186566544
 20
33.3753201091
 30
0.0
 10
23.3067816661
 20
33.0638629093
 30
0.0
 10
23.4560423471
 20
32.7582405296
 30
0.0
 10
23.6311966732
 20
32.4648771356
 30
0.0
 10
23.8285722863
 20
32.1899327581
 30
0.0
 10
24.0440456408
 20
31.9391840387
 30
0.0
 10
24.273096609
 20
31.7178619107
 30
0.0
 10
24.5109809569
 20
31.5305822849
 30
0.0
 10
24.752853589
 20
31.3812780086
 30
0.0
 10
24.9938434894
 20
31.2730833187
 30
0.0
 10
25.2292609978
 20
31.2084525965
 30
0.0
 10
25.4544305656
 20
31.1892222402
 30
0.0
 10
25.6319075901
 20
31.2126028361
 30
0.0
 10
25.7614631726
 20
31.2548175866
 30
0.0
 10
25.8219122629
 20
31.2832866657
 30
0.0
 10
25.8508981839
 20
31.2992681924
 30
0.0
  0
SPLINE
  5
282
100
AcDbEntity
  8
0
100
AcDbSpline
 62
7
  6
BYLAYER
 70
0
 71
3
 72
24
 73
20
 74
0
 42
0.0000001
 43
0.0000001
 44
0.0000000001
 40
0.0
 40
0.0
 40
0.0
 40
0.0
 40
0.0624737729
 40
0.1288717339
 40
0.1984340343
 40
0.270340725
 40
0.3436149053
 40
0.4172264239
 40
0.490135349
 40
0.5613271555
 40
0.6298673101
 40
0.6949482181
 40
0.7559427838
 40
0.8124787179
 40
0.8645155337
 40
0.9124313695
 40
0.9571053181
 40
0.9786823687
 40
1.0
 40
1.0
 40
1.0
 40
1.0
 10
23.0277741536
 20
50.6167966359
 30
0.0
 10
23.0284150259
 20
50.5197993959
 30
0.0
 10
23.0426794743
 20
50.319668677
 30
0.0
 10
23.0979112019
 20
50.0160533102
 30
0.0
 10
23.1866122062
 20
49.7052335147
 30
0.0
 10
23.3068359685
 20
49.3937876692
 30
0.0
 10
23.4561022901
 20
49.0881788689
 30
0.0
 10
23.6312592875
 20
48.7948305592
 30
0.0
 10
23.8286347828
 20
48.5199020357
 30
0.0
 10
24.0441055386
 20
48.2691692517
 30
0.0
 10
24.2731517706
 20
48.0478624542
 30
0.0
 10
24.5110296501
 20
47.8605969146
 30
0.0
 10
24.7528945513
 20
47.7113049448
 30
0.0
 10
24.9938759412
 20
47.6031203426
 30
0.0
 10
25.2292846147
 20
47.5384971149
 30
0.0
 10
25.4544454767
 20
47.5192713839
 30
0.0
 10
25.6319154964
 20
47.5426532304
 30
0.0
 10
25.7614662588
 20
47.5848673014
 30
0.0
 10
25.821913232
 20
47.6133355426
 30
0.0
 10
25.8508981839
 20
47.629316535
 30
0.0
  0
SPLINE
  5
283
100
AcDbEntity
  8
0
100
AcDbSpline
 62
7
  6
BYLAYER
 70
0
 71
3
 72
25
 73
21
 74
0
 42
0.0000001
 43
0.0000001
 44
0.0000000001
 40
0.0
 40
0.0
 40
0.0
 40
0.0
 40
0.0213300683
 40
0.0428886329
 40
0.0648902706
 40
0.0875290703
 40
0.135285212
 40
0.1871561292
 40
0.2435524141
 40
0.3044524086
 40
0.3694911506
 40
0.4380411009
 40
0.5092883019
 40
0.5822872628
 40
0.6560087298
 40
0.7293993892
 40
0.8014153875
 40
0.8710647677
 40
0.9375168907
 40
1.0
 40
1.0
 40
1.0
 40
1.0
 10
25.8502819463
 20
31.2987395389
 30
0.0
 10
25.8214642109
 20
31.2820978802
 30
0.0
 10
25.7613075924
 20
31.2523119844
 30
0.0
 10
25.6653950324
 20
31.2191440429
 30
0.0
 10
25.5641543516
 20
31.1974776809
 30
0.0
 10
25.4203648775
 20
31.1838825559
 30
0.0
 10
25.2286521498
 20
31.1977746308
 30
0.0
 10
24.9922579205
 20
31.2603463883
 30
0.0
 10
24.7498865124
 20
31.3671074514
 30
0.0
 10
24.5064366858
 20
31.5156365509
 30
0.0
 10
24.2668211891
 20
31.7027531711
 30
0.0
 10
24.0359885943
 20
31.924484862
 30
0.0
 10
23.8187749142
 20
32.1761508404
 30
0.0
 10
23.61979365
 20
32.4524341301
 30
0.0
 10
23.4432520926
 20
32.7474571447
 30
0.0
 10
23.2929019192
 20
33.0549519237
 30
0.0
 10
23.1719494849
 20
33.3683726165
 30
0.0
 10
23.0829314015
 20
33.6811380053
 30
0.0
 10
23.0278248528
 20
33.986535653
 30
0.0
 10
23.0139420583
 20
34.1877728996
 30
0.0
 10
23.0135835796
 20
34.2852541338
 30
0.0
  0
SPLINE
  5
284
100
AcDbEntity
  8
0
100
AcDbSpline
 62
7
  6
BYLAYER
 70
0
 71
3
 72
15
 73
11
 74
0
 42
0.0000001
 43
0.0000001
 44
0.0000000001
 40
0.0
 40
0.0
 40
0.0
 40
0.0
 40
0.1485251574
 40
0.289499659
 40
0.4227398928
 40
0.5486431049
 40
0.667993794
 40
0.7819381439
 40
0.8919874623
 40
1.0
 40
1.0
 40
1.0
 40
1.0
 10
21.4932976705
 20
59.6578858384
 30
0.0
 10
21.4369364947
 20
59.6904252423
 30
0.0
 10
21.3243695056
 20
59.7493273763
 30
0.0
 10
21.1526822683
 20
59.819634866
 30
0.0
 10
20.9840166836
 20
59.8687922091
 30
0.0
 10
20.8200358607
 20
59.8963098612
 30
0.0
 10
20.6622386821
 20
59.9017673482
 30
0.0
 10
20.5121287168
 20
59.885057705
 30
0.0
 10
20.3713234687
 20
59.8460928469
 30
0.0
 10
20.284292993
 20
59.805356891
 30
0.0
 10
20.2433054006
 20
59.7816928397
 30
0.0
  0
SPLINE
  5
285
100
AcDbEntity
  8
0
100
AcDbSpline
 62
7
  6
BYLAYER
 70
0
 71
3
 72
15
 73
11
 74
0
 42
0.0000001
 43
0.0000001
 44
0.0000000001
 40
0.0
 40
0.0
 40
0.0
 40
0.0
 40
0.148213819
 40
0.2889590222
 40
0.4220614674
 40
0.5479180228
 40
0.6673220321
 40
0.7814240636
 40
0.8917102014
 40
1.0
 40
1.0
 40
1.0
 40
1.0
 10
23.0136448048
 20
54.7076621131
 30
0.0
 10
23.0141475726
 20
54.7678121199
 30
0.0
 10
23.0199879633
 20
54.8851189722
 30
0.0
 10
23.0444008448
 20
55.0549329288
 30
0.0
 10
23.0842160891
 20
55.2125317872
 30
0.0
 10
23.1390513797
 20
55.3563828234
 30
0.0
 10
23.2085501282
 20
55.4851253104
 30
0.0
 10
23.2921118087
 20
55.5975327403
 30
0.0
 10
23.3890326585
 20
55.6923403589
 30
0.0
 10
23.4622420432
 20
55.7433025163
 30
0.0
 10
23.5003009211
 20
55.7652807477
 30
0.0
  0
SPLINE
  5
286
100
AcDbEntity
  8
0
100
AcDbSpline
 62
7
  6
BYLAYER
 70
0
 71
3
 72
15
 73
11
 74
0
 42
0.0000001
 43
0.0000001
 44
0.0000000001
 40
0.0
 40
0.0
 40
0.0
 40
0.0
 40
0.148213819
 40
0.2889590222
 40
0.4220614674
 40
0.5479180228
 40
0.6673220321
 40
0.7814240636
 40
0.8917102014
 40
1.0
 40
1.0
 40
1.0
 40
1.0
 10
23.0136448048
 20
38.3776137705
 30
0.0
 10
23.0141475726
 20
38.4377637773
 30
0.0
 10
23.0199879633
 20
38.5550706296
 30
0.0
 10
23.0444008448
 20
38.7248845862
 30
0.0
 10
23.0842160891
 20
38.8824834446
 30
0.0
 10
23.1390513797
 20
39.0263344808
 30
0.0
 10
23.2085501282
 20
39.1550769678
 30
0.0
 10
23.2921118087
 20
39.2674843977
 30
0.0
 10
23.3890326585
 20
39.3622920163
 30
0.0
 10
23.4622420432
 20
39.4132541737
 30
0.0
 10
23.5003009211
 20
39.4352324051
 30
0.0
  0
SPLINE
  5
287
100
AcDbEntity
  8
0
100
AcDbSpline
 62
7
  6
BYLAYER
 70
0
 71
3
 72
25
 73
21
 74
0
 42
0.0000001
 43
0.0000001
 44
0.0000000001
 40
0.0
 40
0.0
 40
0.0
 40
0.0
 40
0.0213300683
 40
0.0428886329
 40
0.0648902706
 40
0.0875290703
 40
0.135285212
 40
0.1871561292
 40
0.2435524141
 40
0.3044524086
 40
0.3694911506
 40
0.4380411009
 40
0.5092883019
 40
0.5822872628
 40
0.6560087298
 40
0.7293993892
 40
0.8014153875
 40
0.8710647677
 40
0.9375168907
 40
1.0
 40
1.0
 40
1.0
 40
1.0
 10
25.8502819463
 20
47.6287878815
 30
0.0
 10
25.8214642109
 20
47.6121462228
 30
0.0
 10
25.7613075924
 20
47.582360327
 30
0.0
 10
25.6653950324
 20
47.5491923855
 30
0.0
 10
25.5641543516
 20
47.5275260235
 30
0.0
 10
25.4203648775
 20
47.5139308985
 30
0.0
 10
25.2286521498
 20
47.5278229734
 30
0.0
 10
24.9922579205
 20
47.5903947309
 30
0.0
 10
24.7498865124
 20
47.697155794
 30
0.0
 10
24.5064366858
 20
47.8456848935
 30
0.0
 10
24.2668211891
 20
48.0328015137
 30
0.0
 10
24.0359885943
 20
48.2545332046
 30
0.0
 10
23.8187749142
 20
48.506199183
 30
0.0
 10
23.61979365
 20
48.7824824727
 30
0.0
 10
23.4432520926
 20
49.0775054873
 30
0.0
 10
23.2929019192
 20
49.3850002663
 30
0.0
 10
23.1719494849
 20
49.6984209591
 30
0.0
 10
23.0829314015
 20
50.0111863479
 30
0.0
 10
23.0278248528
 20
50.3165839956
 30
0.0
 10
23.0139420583
 20
50.5178212422
 30
0.0
 10
23.0135835796
 20
50.6153024764
 30
0.0
  0
SPLINE
  5
288
100
AcDbEntity
  8
0
100
AcDbSpline
 62
7
  6
BYLAYER
 70
0
 71
3
 72
13
 73
9
 74
0
 42
0.0000001
 43
0.0000001
 44
0.0000000001
 40
0.0
 40
0.0
 40
0.0
 40
0.0
 40
0.1080947724
 40
0.2182340858
 40
0.3322580584
 40
0.4516863355
 40
0.7106233083
 40
1.0
 40
1.0
 40
1.0
 40
1.0
 10
31.6589538306
 20
23.3940024771
 30
0.0
 10
31.7024001055
 20
23.4190860474
 30
0.0
 10
31.7946372483
 20
23.4623093269
 30
0.0
 10
31.9439086319
 20
23.5035350377
 30
0.0
 10
32.1030116761
 20
23.5213086523
 30
0.0
 10
32.3320935728
 20
23.5133535839
 30
0.0
 10
32.6364627304
 20
23.4400120931
 30
0.0
 10
32.8676291872
 20
23.3299295046
 30
0.0
 10
32.983938159
 20
23.2627800075
 30
0.0
  0
SPLINE
  5
289
100
AcDbEntity
  8
0
100
AcDbSpline
 62
7
  6
BYLAYER
 70
0
 71
3
 72
13
 73
9
 74
0
 42
0.0000001
 43
0.0000001
 44
0.0000000001
 40
0.0
 40
0.0
 40
0.0
 40
0.0
 40
0.1080947724
 40
0.2182340858
 40
0.3322580584
 40
0.4516863355
 40
0.7106233083
 40
1.0
 40
1.0
 40
1.0
 40
1.0
 10
31.6589538306
 20
39.7240508197
 30
0.0
 10
31.7024001055
 20
39.74913439
 30
0.0
 10
31.7946372483
 20
39.7923576695
 30
0.0
 10
31.9439086319
 20
39.8335833803
 30
0.0
 10
32.1030116761
 20
39.8513569949
 30
0.0
 10
32.3320935728
 20
39.8434019264
 30
0.0
 10
32.6364627304
 20
39.7700604357
 30
0.0
 10
32.8676291872
 20
39.6599778472
 30
0.0
 10
32.983938159
 20
39.5928283501
 30
0.0
  0
SPLINE
  5
28A
100
AcDbEntity
  8
0
100
AcDbSpline
 62
7
  6
BYLAYER
 70
0
 71
3
 72
12
 73
8
 74
0
 42
0.0000001
 43
0.0000001
 44
0.0000000001
 40
0.0
 40
0.0
 40
0.0
 40
0.0
 40
0.1081706623
 40
0.2183736043
 40
0.4513247407
 40
0.7105152752
 40
1.0
 40
1.0
 40
1.0
 40
1.0
 10
24.5592955116
 20
80.4760542336
 30
0.0
 10
24.5265025924
 20
80.4571213403
 30
0.0
 10
24.4634790271
 20
80.413084631
 30
0.0
 10
24.3503763024
 20
80.3018800816
 30
0.0
 10
24.2383348378
 20
80.1192564094
 30
0.0
 10
24.1604794957
 20
79.8545738063
 30
0.0
 10
24.1450665946
 20
79.6618272818
 30
0.0
 10
24.1450665946
 20
79.5604909931
 30
0.0
  0
SPLINE
  5
28B
100
AcDbEntity
  8
0
100
AcDbSpline
 62
7
  6
BYLAYER
 70
0
 71
3
 72
12
 73
8
 74
0
 42
0.0000001
 43
0.0000001
 44
0.0000000001
 40
0.0
 40
0.0
 40
0.0
 40
0.0
 40
0.108171168
 40
0.2183745341
 40
0.4513260784
 40
0.7105162694
 40
1.0
 40
1.0
 40
1.0
 40
1.0
 10
26.3270551047
 20
81.4966646183
 30
0.0
 10
26.3598473084
 20
81.5155970781
 30
0.0
 10
26.4294945198
 20
81.5481577648
 30
0.0
 10
26.5823481636
 20
81.5905043751
 30
0.0
 10
26.7965199409
 20
81.5962242435
 30
0.0
 10
27.0646624724
 20
81.5313116518
 30
0.0
 10
27.2392879769
 20
81.4482904328
 30
0.0
 10
27.3270456379
 20
81.397624703
 30
0.0
  0
SPLINE
  5
28C
100
AcDbEntity
  8
0
100
AcDbSpline
 62
7
  6
BYLAYER
 70
0
 71
3
 72
11
 73
7
 74
0
 42
0.0000001
 43
0.0000001
 44
0.0000000001
 40
0.0
 40
0.0
 40
0.0
 40
0.0
 40
0.2177460211
 40
0.4508843679
 40
0.7104607696
 40
1.0
 40
1.0
 40
1.0
 40
1.0
 10
38.4944010372
 20
45.7253360392
 30
0.0
 10
38.5273804539
 20
45.744376593
 30
0.0
 10
38.6031309584
 20
45.7719640396
 30
0.0
 10
38.7290623687
 20
45.7751274318
 30
0.0
 10
38.8632065454
 20
45.7426584409
 30
0.0
 10
38.9505175588
 20
45.7011783381
 30
0.0
 10
38.9943708227
 20
45.6758602171
 30
0.0
  0
SPLINE
  5
28D
100
AcDbEntity
  8
0
100
AcDbSpline
 62
7
  6
BYLAYER
 70
0
 71
3
 72
11
 73
7
 74
0
 42
0.0000001
 43
0.0000001
 44
0.0000000001
 40
0.0
 40
0.0
 40
0.0
 40
0.0
 40
0.2895401978
 40
0.5491171512
 40
0.782255066
 40
1.0
 40
1.0
 40
1.0
 40
1.0
 10
40.0550206906
 20
8.3208465427
 30
0.0
 10
40.0550206906
 20
8.2702079195
 30
0.0
 10
40.0472886408
 20
8.173851401
 30
0.0
 10
40.0083355716
 20
8.0414405588
 30
0.0
 10
39.9426291061
 20
7.9339593717
 30
0.0
 10
39.8808608842
 20
7.8821500254
 30
0.0
 10
39.847880751
 20
7.863109058
 30
0.0
  0
SPLINE
  5
28E
100
AcDbEntity
  8
0
100
AcDbSpline
 62
7
  6
BYLAYER
 70
0
 71
3
 72
11
 73
7
 74
0
 42
0.0000001
 43
0.0000001
 44
0.0000000001
 40
0.0
 40
0.0
 40
0.0
 40
0.0
 40
0.2895401978
 40
0.5491171512
 40
0.782255066
 40
1.0
 40
1.0
 40
1.0
 40
1.0
 10
43.5905693163
 20
45.8800100008
 30
0.0
 10
43.5905693163
 20
45.8293713777
 30
0.0
 10
43.5828372665
 20
45.7330148592
 30
0.0
 10
43.5438841973
 20
45.600604017
 30
0.0
 10
43.4781777319
 20
45.4931228299
 30
0.0
 10
43.4164095099
 20
45.4413134836
 30
0.0
 10
43.3834293767
 20
45.4222725162
 30
0.0
  0
SPLINE
  5
28F
100
AcDbEntity
  8
0
100
AcDbSpline
 62
7
  6
BYLAYER
 70
0
 71
3
 72
15
 73
11
 74
0
 42
0.0000001
 43
0.0000001
 44
0.0000000001
 40
0.0
 40
0.0
 40
0.0
 40
0.0
 40
0.1141232764
 40
0.2373467952
 40
0.3669716249
 40
0.4999988495
 40
0.6330262333
 40
0.7626515288
 40
0.8858758021
 40
1.0
 40
1.0
 40
1.0
 40
1.0
 10
42.176349866
 20
72.824568858
 30
0.0
 10
42.2731374933
 20
72.7686897961
 30
0.0
 10
42.4643532649
 20
72.6345981966
 30
0.0
 10
42.7275107094
 20
72.3884850596
 30
0.0
 10
42.9699702859
 20
72.0974469324
 30
0.0
 10
43.182695868
 20
71.7725947406
 30
0.0
 10
43.3576652132
 20
71.425943331
 30
0.0
 10
43.48848422
 20
71.070447561
 30
0.0
 10
43.5700484112
 20
70.719488442
 30
0.0
 10
43.5905693163
 20
70.4868434922
 30
0.0
 10
43.5905693163
 20
70.3750825147
 30
0.0
  0
SPLINE
  5
290
100
AcDbEntity
  8
0
100
AcDbSpline
 62
7
  6
BYLAYER
 70
0
 71
3
 72
15
 73
11
 74
0
 42
0.0000001
 43
0.0000001
 44
0.0000000001
 40
0.0
 40
0.0
 40
0.0
 40
0.0
 40
0.1141474765
 40
0.2373368178
 40
0.3669776594
 40
0.5000010819
 40
0.633024354
 40
0.7626647561
 40
0.8858534048
 40
1.0
 40
1.0
 40
1.0
 40
1.0
 10
32.8778569803
 20
35.4490332432
 30
0.0
 10
32.8778569803
 20
35.3009193973
 30
0.0
 10
32.9050056788
 20
34.9926741125
 30
0.0
 10
33.0131359907
 20
34.5276594089
 30
0.0
 10
33.1864365009
 20
34.0566471753
 30
0.0
 10
33.4183005212
 20
33.5973363214
 30
0.0
 10
33.7001451095
 20
33.1668825738
 30
0.0
 10
34.0214043824
 20
32.781296769
 30
0.0
 10
34.370053949
 20
32.4551498054
 30
0.0
 10
34.6234276637
 20
32.277518933
 30
0.0
 10
34.751697752
 20
32.2034638384
 30
0.0
  0
SPLINE
  5
291
100
AcDbEntity
  8
0
100
AcDbSpline
 62
7
  6
BYLAYER
 70
0
 71
3
 72
15
 73
11
 74
0
 42
0.0000001
 43
0.0000001
 44
0.0000000001
 40
0.0
 40
0.0
 40
0.0
 40
0.0
 40
0.1141474765
 40
0.2373368178
 40
0.3669776594
 40
0.5000010819
 40
0.633024354
 40
0.7626647561
 40
0.8858534048
 40
1.0
 40
1.0
 40
1.0
 40
1.0
 10
32.8778569803
 20
19.1189849007
 30
0.0
 10
32.8778569803
 20
18.9708710548
 30
0.0
 10
32.9050056788
 20
18.6626257699
 30
0.0
 10
33.0131359907
 20
18.1976110663
 30
0.0
 10
33.1864365009
 20
17.7265988327
 30
0.0
 10
33.4183005212
 20
17.2672879788
 30
0.0
 10
33.7001451095
 20
16.8368342312
 30
0.0
 10
34.0214043824
 20
16.4512484264
 30
0.0
 10
34.370053949
 20
16.1251014628
 30
0.0
 10
34.6234276637
 20
15.9474705904
 30
0.0
 10
34.751697752
 20
15.8734154958
 30
0.0
  0
SPLINE
  5
292
100
AcDbEntity
  8
0
100
AcDbSpline
 62
7
  6
BYLAYER
 70
0
 71
3
 72
11
 73
7
 74
0
 42
0.0000001
 43
0.0000001
 44
0.0000000001
 40
0.0
 40
0.0
 40
0.0
 40
0.0
 40
0.2895391946
 40
0.5491157945
 40
0.7822541179
 40
1.0
 40
1.0
 40
1.0
 40
1.0
 10
41.1156999981
 20
44.4511379536
 30
0.0
 10
41.159553256
 20
44.4258198361
 30
0.0
 10
41.2468643141
 20
44.3843397772
 30
0.0
 10
41.3810084997
 20
44.3518707099
 30
0.0
 10
41.5069399109
 20
44.3550341647
 30
0.0
 10
41.582690398
 20
44.3826215722
 30
0.0
 10
41.615669783
 20
44.4016621311
 30
0.0
  0
SPLINE
  5
293
100
AcDbEntity
  8
0
100
AcDbSpline
 62
7
  6
BYLAYER
 70
0
 71
3
 72
11
 73
7
 74
0
 42
0.0000001
 43
0.0000001
 44
0.0000000001
 40
0.0
 40
0.0
 40
0.0
 40
0.0
 40
0.2895391946
 40
0.5491157945
 40
0.7822541179
 40
1.0
 40
1.0
 40
1.0
 40
1.0
 10
37.5801513724
 20
6.8919744954
 30
0.0
 10
37.6240046302
 20
6.866656378
 30
0.0
 10
37.7113156884
 20
6.825176319
 30
0.0
 10
37.8454598739
 20
6.7927072517
 30
0.0
 10
37.9713912852
 20
6.7958707065
 30
0.0
 10
38.0471417722
 20
6.823458114
 30
0.0
 10
38.0801211573
 20
6.8424986729
 30
0.0
  0
SPLINE
  5
294
100
AcDbEntity
  8
0
100
AcDbSpline
 62
7
  6
BYLAYER
 70
0
 71
3
 72
13
 73
9
 74
0
 42
0.0000001
 43
0.0000001
 44
0.0000000001
 40
0.0
 40
0.0
 40
0.0
 40
0.0
 40
0.1141767831
 40
0.2375713001
 40
0.500001251
 40
0.7624305195
 40
0.8858241805
 40
1.0
 40
1.0
 40
1.0
 40
1.0
 10
27.6806152204
 20
13.4238474758
 30
0.0
 10
27.6806152204
 20
13.3679915071
 30
0.0
 10
27.6909100321
 20
13.2516603421
 30
0.0
 10
27.7463901719
 20
13.0128294641
 30
0.0
 10
27.8756608383
 20
12.7199581862
 30
0.0
 10
28.0646604953
 20
12.4615721058
 30
0.0
 10
28.2437541901
 20
12.2941113967
 30
0.0
 10
28.3393523923
 20
12.2270315789
 30
0.0
 10
28.3877249455
 20
12.1991043041
 30
0.0
  0
SPLINE
  5
295
100
AcDbEntity
  8
0
100
AcDbSpline
 62
7
  6
BYLAYER
 70
0
 71
3
 72
13
 73
9
 74
0
 42
0.0000001
 43
0.0000001
 44
0.0000000001
 40
0.0
 40
0.0
 40
0.0
 40
0.0
 40
0.1141759018
 40
0.2375697245
 40
0.4999990825
 40
0.762428944
 40
0.8858232992
 40
1.0
 40
1.0
 40
1.0
 40
1.0
 10
26.9735054952
 20
52.615953044
 30
0.0
 10
27.0218780833
 20
52.588025749
 30
0.0
 10
27.1174763525
 20
52.5209458179
 30
0.0
 10
27.2965701859
 20
52.3534850217
 30
0.0
 10
27.4855698113
 20
52.0950988002
 30
0.0
 10
27.6148403397
 20
51.8022275654
 30
0.0
 10
27.6703204734
 20
51.563396851
 30
0.0
 10
27.6806152204
 20
51.4470658008
 30
0.0
 10
27.6806152204
 20
51.3912098723
 30
0.0
  0
SPLINE
  5
296
100
AcDbEntity
  8
0
100
AcDbSpline
 62
7
  6
BYLAYER
 70
0
 71
3
 72
13
 73
9
 74
0
 42
0.0000001
 43
0.0000001
 44
0.0000000001
 40
0.0
 40
0.0
 40
0.0
 40
0.0
 40
0.1141767831
 40
0.2375713001
 40
0.500001251
 40
0.7624305195
 40
0.8858241805
 40
1.0
 40
1.0
 40
1.0
 40
1.0
 10
24.1450665946
 20
55.0654184792
 30
0.0
 10
24.1450665946
 20
55.0095625105
 30
0.0
 10
24.1553614063
 20
54.8932313455
 30
0.0
 10
24.2108415461
 20
54.6544004675
 30
0.0
 10
24.3401122125
 20
54.3615291895
 30
0.0
 10
24.5291118696
 20
54.1031431092
 30
0.0
 10
24.7082055643
 20
53.9356824001
 30
0.0
 10
24.8038037666
 20
53.8686025823
 30
0.0
 10
24.8521763198
 20
53.8406753075
 30
0.0
  0
SPLINE
  5
297
100
AcDbEntity
  8
0
100
AcDbSpline
 62
7
  6
BYLAYER
 70
0
 71
3
 72
13
 73
9
 74
0
 42
0.0000001
 43
0.0000001
 44
0.0000000001
 40
0.0
 40
0.0
 40
0.0
 40
0.0
 40
0.2893776722
 40
0.5483149914
 40
0.6677431632
 40
0.7817668512
 40
0.8919057346
 40
1.0
 40
1.0
 40
1.0
 40
1.0
 10
34.8577789306
 20
32.2647468596
 30
0.0
 10
34.8577789306
 20
32.1304415352
 30
0.0
 10
34.8375318588
 20
31.8751965607
 30
0.0
 10
34.7488627884
 20
31.5749250103
 30
0.0
 10
34.6412093889
 20
31.3725507082
 30
0.0
 10
34.5462635812
 20
31.2436467474
 30
0.0
 10
34.4359228405
 20
31.1349842294
 30
0.0
 10
34.3523697219
 20
31.0767151085
 30
0.0
 10
34.3089224873
 20
31.0516309841
 30
0.0
  0
SPLINE
  5
298
100
AcDbEntity
  8
0
100
AcDbSpline
 62
7
  6
BYLAYER
 70
0
 71
3
 72
15
 73
11
 74
0
 42
0.0000001
 43
0.0000001
 44
0.0000000001
 40
0.0
 40
0.0
 40
0.0
 40
0.0
 40
0.1141465952
 40
0.2373352439
 40
0.366975646
 40
0.4999989181
 40
0.6330223406
 40
0.7626631822
 40
0.8858525235
 40
1.0
 40
1.0
 40
1.0
 40
1.0
 10
32.983938159
 20
39.5928283501
 30
0.0
 10
33.1122082473
 20
39.5187732555
 30
0.0
 10
33.365581962
 20
39.3411423831
 30
0.0
 10
33.7142315285
 20
39.0149954195
 30
0.0
 10
34.0354908014
 20
38.6294096147
 30
0.0
 10
34.3173353898
 20
38.1989558671
 30
0.0
 10
34.5491994101
 20
37.7396450132
 30
0.0
 10
34.7224999202
 20
37.2686327796
 30
0.0
 10
34.8306302321
 20
36.803618076
 30
0.0
 10
34.8577789306
 20
36.4953727912
 30
0.0
 10
34.8577789306
 20
36.3472589453
 30
0.0
  0
SPLINE
  5
299
100
AcDbEntity
  8
0
100
AcDbSpline
 62
7
  6
BYLAYER
 70
0
 71
3
 72
13
 73
9
 74
0
 42
0.0000001
 43
0.0000001
 44
0.0000000001
 40
0.0
 40
0.0
 40
0.0
 40
0.0
 40
0.2893776722
 40
0.5483149914
 40
0.6677431632
 40
0.7817668512
 40
0.8919057346
 40
1.0
 40
1.0
 40
1.0
 40
1.0
 10
34.8577789306
 20
15.934698517
 30
0.0
 10
34.8577789306
 20
15.8003931926
 30
0.0
 10
34.8375318588
 20
15.5451482181
 30
0.0
 10
34.7488627884
 20
15.2448766678
 30
0.0
 10
34.6412093889
 20
15.0425023656
 30
0.0
 10
34.5462635812
 20
14.9135984048
 30
0.0
 10
34.4359228405
 20
14.8049358868
 30
0.0
 10
34.3523697219
 20
14.7466667659
 30
0.0
 10
34.3089224873
 20
14.7215826415
 30
0.0
  0
SPLINE
  5
29A
100
AcDbEntity
  8
0
100
AcDbSpline
 62
7
  6
BYLAYER
 70
0
 71
3
 72
15
 73
11
 74
0
 42
0.0000001
 43
0.0000001
 44
0.0000000001
 40
0.0
 40
0.0
 40
0.0
 40
0.0
 40
0.1141465952
 40
0.2373352439
 40
0.366975646
 40
0.4999989181
 40
0.6330223406
 40
0.7626631822
 40
0.8858525235
 40
1.0
 40
1.0
 40
1.0
 40
1.0
 10
32.983938159
 20
23.2627800075
 30
0.0
 10
33.1122082473
 20
23.1887249129
 30
0.0
 10
33.365581962
 20
23.0110940406
 30
0.0
 10
33.7142315285
 20
22.6849470769
 30
0.0
 10
34.0354908014
 20
22.2993612721
 30
0.0
 10
34.3173353898
 20
21.8689075245
 30
0.0
 10
34.5491994101
 20
21.4095966706
 30
0.0
 10
34.7224999202
 20
20.938584437
 30
0.0
 10
34.8306302321
 20
20.4735697334
 30
0.0
 10
34.8577789306
 20
20.1653244486
 30
0.0
 10
34.8577789306
 20
20.0172106027
 30
0.0
  0
SPLINE
  5
29B
100
AcDbEntity
  8
0
100
AcDbSpline
 62
7
  6
BYLAYER
 70
0
 71
3
 72
11
 73
7
 74
0
 42
0.0000001
 43
0.0000001
 44
0.0000000001
 40
0.0
 40
0.0
 40
0.0
 40
0.0
 40
0.2895401978
 40
0.5491171512
 40
0.782255066
 40
1.0
 40
1.0
 40
1.0
 40
1.0
 10
38.2872610976
 20
45.2675985545
 30
0.0
 10
38.2872610976
 20
45.3182371777
 30
0.0
 10
38.2949931474
 20
45.4145936961
 30
0.0
 10
38.3339462166
 20
45.5470045383
 30
0.0
 10
38.399652682
 20
45.6544857255
 30
0.0
 10
38.461420904
 20
45.7062950718
 30
0.0
 10
38.4944010372
 20
45.7253360392
 30
0.0
  0
SPLINE
  5
29C
100
AcDbEntity
  8
0
100
AcDbSpline
 62
7
  6
BYLAYER
 70
0
 71
3
 72
13
 73
9
 74
0
 42
0.0000001
 43
0.0000001
 44
0.0000000001
 40
0.0
 40
0.0
 40
0.0
 40
0.0
 40
0.1080947724
 40
0.2182340858
 40
0.3322580584
 40
0.4516863355
 40
0.7106233083
 40
1.0
 40
1.0
 40
1.0
 40
1.0
 10
34.3089224873
 20
31.0516309841
 30
0.0
 10
34.2654762124
 20
31.0265474138
 30
0.0
 10
34.1732390696
 20
30.9833241343
 30
0.0
 10
34.023967686
 20
30.9420984235
 30
0.0
 10
33.8648646418
 20
30.924324809
 30
0.0
 10
33.6357827451
 20
30.9322798774
 30
0.0
 10
33.3314135875
 20
31.0056213681
 30
0.0
 10
33.1002471307
 20
31.1157039567
 30
0.0
 10
32.983938159
 20
31.1828534537
 30
0.0
  0
SPLINE
  5
29D
100
AcDbEntity
  8
0
100
AcDbSpline
 62
7
  6
BYLAYER
 70
0
 71
3
 72
11
 73
7
 74
0
 42
0.0000001
 43
0.0000001
 44
0.0000000001
 40
0.0
 40
0.0
 40
0.0
 40
0.0
 40
0.217745073
 40
0.4508830113
 40
0.7104597664
 40
1.0
 40
1.0
 40
1.0
 40
1.0
 10
38.0801211573
 20
6.8424986729
 30
0.0
 10
38.1131013019
 20
6.8615396704
 30
0.0
 10
38.1748695664
 20
6.9133490121
 30
0.0
 10
38.2405759771
 20
7.0208302298
 30
0.0
 10
38.2795291081
 20
7.1532410262
 30
0.0
 10
38.2872610976
 20
7.2495975278
 30
0.0
 10
38.2872610976
 20
7.300236158
 30
0.0
  0
SPLINE
  5
29E
100
AcDbEntity
  8
0
100
AcDbSpline
 62
7
  6
BYLAYER
 70
0
 71
3
 72
13
 73
9
 74
0
 42
0.0000001
 43
0.0000001
 44
0.0000000001
 40
0.0
 40
0.0
 40
0.0
 40
0.0
 40
0.2893776722
 40
0.5483149914
 40
0.6677431632
 40
0.7817668512
 40
0.8919057346
 40
1.0
 40
1.0
 40
1.0
 40
1.0
 10
31.1100973873
 20
38.5109349442
 30
0.0
 10
31.1100973873
 20
38.6452402686
 30
0.0
 10
31.1303444591
 20
38.9004852431
 30
0.0
 10
31.2190135296
 20
39.2007567935
 30
0.0
 10
31.326666929
 20
39.4031310956
 30
0.0
 10
31.4216127367
 20
39.5320350565
 30
0.0
 10
31.5319534775
 20
39.6406975744
 30
0.0
 10
31.615506596
 20
39.6989666953
 30
0.0
 10
31.6589538306
 20
39.7240508197
 30
0.0
  0
SPLINE
  5
29F
100
AcDbEntity
  8
0
100
AcDbSpline
 62
7
  6
BYLAYER
 70
0
 71
3
 72
15
 73
11
 74
0
 42
0.0000001
 43
0.0000001
 44
0.0000000001
 40
0.0
 40
0.0
 40
0.0
 40
0.0
 40
0.1141465952
 40
0.2373352439
 40
0.366975646
 40
0.4999989181
 40
0.6330223406
 40
0.7626631822
 40
0.8858525235
 40
1.0
 40
1.0
 40
1.0
 40
1.0
 10
32.983938159
 20
31.1828534537
 30
0.0
 10
32.8556680706
 20
31.2569085484
 30
0.0
 10
32.6022943559
 20
31.4345394207
 30
0.0
 10
32.2536447894
 20
31.7606863844
 30
0.0
 10
31.9323855165
 20
32.1462721891
 30
0.0
 10
31.6505409281
 20
32.5767259367
 30
0.0
 10
31.4186769079
 20
33.0360367906
 30
0.0
 10
31.2453763977
 20
33.5070490242
 30
0.0
 10
31.1372460858
 20
33.9720637278
 30
0.0
 10
31.1100973873
 20
34.2803090127
 30
0.0
 10
31.1100973873
 20
34.4284228586
 30
0.0
  0
SPLINE
  5
2A0
100
AcDbEntity
  8
0
100
AcDbSpline
 62
7
  6
BYLAYER
 70
0
 71
3
 72
11
 73
7
 74
0
 42
0.0000001
 43
0.0000001
 44
0.0000000001
 40
0.0
 40
0.0
 40
0.0
 40
0.0
 40
0.217745073
 40
0.4508830113
 40
0.7104597664
 40
1.0
 40
1.0
 40
1.0
 40
1.0
 10
41.615669783
 20
44.4016621311
 30
0.0
 10
41.6486499276
 20
44.4207031286
 30
0.0
 10
41.7104181921
 20
44.4725124703
 30
0.0
 10
41.7761246029
 20
44.579993688
 30
0.0
 10
41.8150777338
 20
44.7124044844
 30
0.0
 10
41.8228097233
 20
44.8087609859
 30
0.0
 10
41.8228097233
 20
44.8593996162
 30
0.0
  0
SPLINE
  5
2A1
100
AcDbEntity
  8
0
100
AcDbSpline
 62
7
  6
BYLAYER
 70
0
 71
3
 72
13
 73
9
 74
0
 42
0.0000001
 43
0.0000001
 44
0.0000000001
 40
0.0
 40
0.0
 40
0.0
 40
0.0
 40
0.2893776722
 40
0.5483149914
 40
0.6677431632
 40
0.7817668512
 40
0.8919057346
 40
1.0
 40
1.0
 40
1.0
 40
1.0
 10
31.1100973873
 20
22.1808866016
 30
0.0
 10
31.1100973873
 20
22.3151919261
 30
0.0
 10
31.1303444591
 20
22.5704369005
 30
0.0
 10
31.2190135296
 20
22.8707084509
 30
0.0
 10
31.326666929
 20
23.073082753
 30
0.0
 10
31.4216127367
 20
23.2019867139
 30
0.0
 10
31.5319534775
 20
23.3106492318
 30
0.0
 10
31.615506596
 20
23.3689183527
 30
0.0
 10
31.6589538306
 20
23.3940024771
 30
0.0
  0
SPLINE
  5
2A2
100
AcDbEntity
  8
0
100
AcDbSpline
 62
7
  6
BYLAYER
 70
0
 71
3
 72
15
 73
11
 74
0
 42
0.0000001
 43
0.0000001
 44
0.0000000001
 40
0.0
 40
0.0
 40
0.0
 40
0.0
 40
0.1141465952
 40
0.2373352439
 40
0.366975646
 40
0.4999989181
 40
0.6330223406
 40
0.7626631822
 40
0.8858525235
 40
1.0
 40
1.0
 40
1.0
 40
1.0
 10
32.983938159
 20
14.8528051111
 30
0.0
 10
32.8556680706
 20
14.9268602058
 30
0.0
 10
32.6022943559
 20
15.1044910781
 30
0.0
 10
32.2536447894
 20
15.4306380418
 30
0.0
 10
31.9323855165
 20
15.8162238465
 30
0.0
 10
31.6505409281
 20
16.2466775941
 30
0.0
 10
31.4186769079
 20
16.705988448
 30
0.0
 10
31.2453763977
 20
17.1770006816
 30
0.0
 10
31.1372460858
 20
17.6420153852
 30
0.0
 10
31.1100973873
 20
17.9502606701
 30
0.0
 10
31.1100973873
 20
18.098374516
 30
0.0
  0
SPLINE
  5
2A3
100
AcDbEntity
  8
0
100
AcDbSpline
 62
7
  6
BYLAYER
 70
0
 71
3
 72
15
 73
11
 74
0
 42
0.0000001
 43
0.0000001
 44
0.0000000001
 40
0.0
 40
0.0
 40
0.0
 40
0.0
 40
0.1141241597
 40
0.2373483674
 40
0.3669736383
 40
0.5000010131
 40
0.6330282467
 40
0.762653101
 40
0.8858766854
 40
1.0
 40
1.0
 40
1.0
 40
1.0
 10
41.8228097233
 20
69.3544721301
 30
0.0
 10
41.8228097233
 20
69.4662330701
 30
0.0
 10
41.8022888622
 20
69.6988779211
 30
0.0
 10
41.7207246945
 20
70.0498369171
 30
0.0
 10
41.5899057636
 20
70.4053326093
 30
0.0
 10
41.4149364699
 20
70.7519840184
 30
0.0
 10
41.2022109131
 20
71.0768362549
 30
0.0
 10
40.9597513071
 20
71.3678744868
 30
0.0
 10
40.6965937678
 20
71.6139877056
 30
0.0
 10
40.5053779327
 20
71.7480793927
 30
0.0
 10
40.408590273
 20
71.8039584734
 30
0.0
  0
SPLINE
  5
2A4
100
AcDbEntity
  8
0
100
AcDbSpline
 62
7
  6
BYLAYER
 70
0
 71
3
 72
13
 73
9
 74
0
 42
0.0000001
 43
0.0000001
 44
0.0000000001
 40
0.0
 40
0.0
 40
0.0
 40
0.0
 40
0.1080947724
 40
0.2182340858
 40
0.3322580584
 40
0.4516863355
 40
0.7106233083
 40
1.0
 40
1.0
 40
1.0
 40
1.0
 10
34.3089224873
 20
14.7215826415
 30
0.0
 10
34.2654762124
 20
14.6964990712
 30
0.0
 10
34.1732390696
 20
14.6532757917
 30
0.0
 10
34.023967686
 20
14.6120500809
 30
0.0
 10
33.8648646418
 20
14.5942764664
 30
0.0
 10
33.6357827451
 20
14.6022315348
 30
0.0
 10
33.3314135875
 20
14.6755730255
 30
0.0
 10
33.1002471307
 20
14.7856556141
 30
0.0
 10
32.983938159
 20
14.8528051111
 30
0.0
  0
SPLINE
  5
2A5
100
AcDbEntity
  8
0
100
AcDbSpline
 62
7
  6
BYLAYER
 70
0
 71
3
 72
12
 73
8
 74
0
 42
0.0000001
 43
0.0000001
 44
0.0000000001
 40
0.0
 40
0.0
 40
0.0
 40
0.0
 40
0.2894837289
 40
0.5486738486
 40
0.7816254188
 40
0.8918288099
 40
1.0
 40
1.0
 40
1.0
 40
1.0
 10
25.5592860449
 20
80.3770143183
 30
0.0
 10
25.4715283839
 20
80.4276800482
 30
0.0
 10
25.2969029147
 20
80.5107012862
 30
0.0
 10
25.028760389
 20
80.5756138531
 30
0.0
 10
24.8145886238
 20
80.5698939824
 30
0.0
 10
24.6617349434
 20
80.5275474081
 30
0.0
 10
24.5920877135
 20
80.4949867127
 30
0.0
 10
24.5592955116
 20
80.4760542336
 30
0.0
  0
ENDSEC
  0
SECTION
  2
OBJECTS
  0
DICTIONARY
  5
C
100
AcDbDictionary
280
0
281
1
  3
ACAD_GROUP
350
D
  3
ACAD_MLINESTYLE
350
17
  3
ACAD_LAYOUT
350
1A
  3
ACAD_PLOTSETTINGS
350
19
  3
ACAD_PLOTSTYLENAME
350
E
  0
DICTIONARY
  5
D
102
{ACAD_REACTORS
330
C
102
}
100
AcDbDictionary
280
0
281
1
  0
ACDBDICTIONARYWDFLT
  5
E
102
{ACAD_REACTORS
330
C
102
}
100
AcDbDictionary
281
1
  3
Normal
350
F
100
AcDbDictionaryWithDefault
340
F
  0
DICTIONARY
  5
17
102
{ACAD_REACTORS
330
C
102
}
100
AcDbDictionary
280
0
281
1
  3
Standard
350
18
  0
DICTIONARY
  5
19
102
{ACAD_REACTORS
330
C
102
}
100
AcDbDictionary
281
1
  0
DICTIONARY
  5
1A
102
{ACAD_REACTORS
330
C
102
}
100
AcDbDictionary
281
1
  3
Model
350
2A6
  3
Layout1
350
2A7
  0
ACDBPLACEHOLDER
  5
F
102
{ACAD_REACTORS
330
E
102
}
  0
MLINESTYLE
  5
18
102
{ACAD_REACTORS
330
17
102
}
100
AcDbMlineStyle
  2
STANDARD
 70
0
  3

 62
256
 51
90.0
 52
90.0
 71
2
 49
0.5
 62
256
  6
BYLAYER
 49
-0.5
 62
256
  6
BYLAYER
  0
LAYOUT
  5
2A6
102
{ACAD_REACTORS
330
1A
102
}
100
AcDbPlotSettings
  1

  2
none_device
  4

  6

 40
0.0
 41
0.0
 42
0.0
 43
0.0
 44
210.0
 45
297.0
 46
0.0
 47
0.0
 48
0.0
 49
0.0
140
0.0
141
0.0
142
1.0
143
1.0
 70
1024
 72
1
 73
0
 74
0
  7

 75
0
147
1.0
148
0.0
149
0.0
100
AcDbLayout
  1
Model
 70
0
 71
0
 10
0.0
 20
0.0
 11
210.0
 21
297.0
 12
0.0
 22
0.0
 32
0.0
 14
0.0
 24
0.0
 34
0.0
 15
0.0
 25
0.0
 35
0.0
146
0.0
 13
0.0
 23
0.0
 33
0.0
 16
1.0
 26
0.0
 36
0.0
 17
0.0
 27
1.0
 37
0.0
 76
0
330
210
345
0
346
0
  0
LAYOUT
  5
2A7
102
{ACAD_REACTORS
330
1A
102
}
100
AcDbPlotSettings
  1

  2
none_device
  4

  6

 40
0.0
 41
0.0
 42
0.0
 43
0.0
 44
210.0
 45
297.0
 46
0.0
 47
0.0
 48
0.0
 49
0.0
140
0.0
141
0.0
142
1.0
143
1.0
 70
0
 72
1
 73
0
 74
0
  7

 75
0
147
1.0
148
0.0
149
0.0
100
AcDbLayout
  1
Layout1
 70
0
 71
1
 10
0.0
 20
0.0
 11
210.0
 21
297.0
 12
0.0
 22
0.0
 32
0.0
 14
0.0
 24
0.0
 34
0.0
 15
0.0
 25
0.0
 35
0.0
146
0.0
 13
0.0
 23
0.0
 33
0.0
 16
1.0
 26
0.0
 36
0.0
 17
0.0
 27
1.0
 37
0.0
 76
0
330
211
345
0
346
0
  0
ENDSEC
  0
EOF
