999
DXF file: C:\Users\sesa63760\Dev\_Creo\CAD\MCADID0004751_3D-CAD\drw0001_4.dxf
999
Pro/ENGINEER 2019471 by Parametric Technology Corporation
  0
SECTION
  2
HEADER
  9
$ACADVER
  1
AC1024
  9
$DWGCODEPAGE
  3
ANSI_1252
  9
$EXTMAX
 10
51.8539598572
 20
73.3363146552
 30
0.0
  9
$EXTMIN
 10
0.0
 20
0.0
 30
0.0
  9
$LIMMIN
 10
0.0
 20
0.0
  9
$LIMMAX
 10
51.8539598572
 20
73.3363146552
  9
$VIEWCTR
 10
25.9269799286
 20
36.6681573276
  9
$VIEWSIZE
 40
73.3363146552
  9
$CLAYER
  8
0
  9
$LTSCALE
 40
4.7804412516
  9
$CELTYPE
  6
BYLAYER
  9
$DIMSCALE
 40
1.0
  9
$DIMASZ
 40
0.6173090459
  9
$DIMEXO
 40
1.0
  9
$DIMDLI
 40
3.3028503193
  9
$DIMEXE
 40
1.0
  9
$DIMCEN
 40
0.782254023
  9
$DIMLFAC
 40
1.0
  9
$DIMBLK
  1
_FILLED
  9
$DIMALT
 70
0
  9
$DIMALTF
 40
0.0393700787
  9
$DIMTXT
 40
0.8642326643
  9
$DIMTOL
 70
1
  9
$DIMLIM
 70
0
  9
$DIMTFAC
 40
1.0
  9
$DIMTP
 40
0.01
  9
$DIMTM
 40
0.01
  9
$DIMGAP
 40
0.625
  9
$DIMDSEP
 70
46
  9
$AUNITS
 70
0
  9
$PDMODE
 70
3
  9
$PDSIZE
 40
0.3125
  9
$HANDSEED
  5
2D3
  9
$TILEMODE
 70
1
  9
$MEASUREMENT
 70
1
  9
$INSUNITS
 70
4
  0
ENDSEC
  0
SECTION
  2
CLASSES
  0
CLASS
  1
ACDBDICTIONARYWDFLT
  2
AcDbDictionaryWithDefault
  3
AutoCAD 2000
 90
0
 91
1
280
0
281
0
  0
CLASS
  1
ACDBPLACEHOLDER
  2
AcDbPlaceHolder
  3
AutoCAD 2000
 90
0
 91
1
280
0
281
0
  0
CLASS
  1
LAYOUT
  2
AcDbLayout
  3
AutoCAD 2000
 90
0
 91
0
280
0
281
0
  0
ENDSEC
  0
SECTION
  2
TABLES
  0
TABLE
  2
VPORT
  5
8
100
AcDbSymbolTable
 70
2
  0
VPORT
  5
1F4
100
AcDbSymbolTableRecord
100
AcDbViewportTableRecord
  2
*ACTIVE
 70
0
 10
0.0
 20
0.0
 11
1.0
 21
1.0
 12
25.9269799286
 22
36.6681573276
 13
0.0
 23
0.0
 14
1.0
 24
1.0
 15
0.0
 25
0.0
 16
0.0
 26
0.0
 36
1.0
 17
0.0
 27
0.0
 37
0.0
 40
73.3363146552
 41
0.7070707071
 42
50.0
 43
0.0
 44
0.0
 50
0.0
 51
0.0
 71
0
 72
100
 73
1
 74
1
 75
0
 76
0
 77
0
 78
0
  0
ENDTAB
  0
TABLE
  2
LTYPE
  5
5
100
AcDbSymbolTable
 70
6
  0
LTYPE
  5
14
100
AcDbSymbolTableRecord
100
AcDbLinetypeTableRecord
  2
BYBLOCK
 70
0
  3

 72
65
 73
0
 40
0.0
  0
LTYPE
  5
15
100
AcDbSymbolTableRecord
100
AcDbLinetypeTableRecord
  2
BYLAYER
 70
0
  3

 72
65
 73
0
 40
0.0
  0
LTYPE
  5
16
100
AcDbSymbolTableRecord
100
AcDbLinetypeTableRecord
  2
CONTINUOUS
 70
64
  3
Solid line
 72
65
 73
0
 40
0.0
  0
LTYPE
  5
1F5
100
AcDbSymbolTableRecord
100
AcDbLinetypeTableRecord
  2
CENTER
 70
64
  3
____ _ ____ _ ____ _ ____ _ ____ _ ____ _ ____
 72
65
 73
4
 40
0.6
 49
0.375
 74
0
 49
-0.075
 74
0
 49
0.075
 74
0
 49
-0.075
 74
0
  0
LTYPE
  5
1F6
100
AcDbSymbolTableRecord
100
AcDbLinetypeTableRecord
  2
HIDDEN
 70
64
  3
- - - - - - - - - - - - - - - - - - - -
 72
65
 73
2
 40
0.2
 49
0.1
 74
0
 49
-0.1
 74
0
  0
LTYPE
  5
1F7
100
AcDbSymbolTableRecord
100
AcDbLinetypeTableRecord
  2
PHANTOM
 70
64
  3
_____ _ _ _____ _ _ _____ _ _ _____
 72
65
 73
6
 40
0.8
 49
0.45
 74
0
 49
-0.05
 74
0
 49
0.1
 74
0
 49
-0.05
 74
0
 49
0.1
 74
0
 49
-0.05
 74
0
  0
LTYPE
  5
1F8
100
AcDbSymbolTableRecord
100
AcDbLinetypeTableRecord
  2
DOT
 70
64
  3
. . . . . . . . . . . . . . . . . . . .
 72
65
 73
2
 40
0.2
 49
0.1
 74
0
 49
-0.1
 74
0
  0
LTYPE
  5
1F9
100
AcDbSymbolTableRecord
100
AcDbLinetypeTableRecord
  2
DASHED
 70
64
  3
- - - - - - - - - - - - - - - - - - - -
 72
65
 73
2
 40
0.2
 49
0.1
 74
0
 49
-0.1
 74
0
  0
ENDTAB
  0
TABLE
  2
LAYER
  5
2
100
AcDbSymbolTable
 70
36
  0
LAYER
  5
10
100
AcDbSymbolTableRecord
100
AcDbLayerTableRecord
  2
0
 70
0
 62
7
  6
CONTINUOUS
370
-3
390
F
  0
LAYER
  5
1FA
100
AcDbSymbolTableRecord
100
AcDbLayerTableRecord
  2
DEFAULT_1
 70
0
 62
7
  6
CENTER
370
-3
390
F
  0
LAYER
  5
1FB
100
AcDbSymbolTableRecord
100
AcDbLayerTableRecord
  2
DEFAULT_2
 70
0
 62
7
  6
HIDDEN
370
-3
390
F
  0
LAYER
  5
1FC
100
AcDbSymbolTableRecord
100
AcDbLayerTableRecord
  2
DEFAULT_3
 70
0
 62
7
  6
PHANTOM
370
-3
390
F
  0
LAYER
  5
1FD
100
AcDbSymbolTableRecord
100
AcDbLayerTableRecord
  2
00_COMPONENTS
 70
0
 62
7
  6
CONTINUOUS
370
-3
390
F
  0
LAYER
  5
1FE
100
AcDbSymbolTableRecord
100
AcDbLayerTableRecord
  2
01_1_DEFAULT_DATUMS
 70
0
 62
7
  6
CONTINUOUS
370
-3
390
F
  0
LAYER
  5
1FF
100
AcDbSymbolTableRecord
100
AcDbLayerTableRecord
  2
01_PLANES
 70
0
 62
7
  6
CONTINUOUS
370
-3
390
F
  0
LAYER
  5
200
100
AcDbSymbolTableRecord
100
AcDbLayerTableRecord
  2
02_COORD_SYS
 70
0
 62
7
  6
CONTINUOUS
370
-3
390
F
  0
LAYER
  5
201
100
AcDbSymbolTableRecord
100
AcDbLayerTableRecord
  2
03_AXES
 70
0
 62
7
  6
CONTINUOUS
370
-3
390
F
  0
LAYER
  5
202
100
AcDbSymbolTableRecord
100
AcDbLayerTableRecord
  2
04_POINTS
 70
0
 62
7
  6
CONTINUOUS
370
-3
390
F
  0
LAYER
  5
203
100
AcDbSymbolTableRecord
100
AcDbLayerTableRecord
  2
05_CURVES
 70
0
 62
7
  6
CONTINUOUS
370
-3
390
F
  0
LAYER
  5
204
100
AcDbSymbolTableRecord
100
AcDbLayerTableRecord
  2
06_SURFS
 70
0
 62
7
  6
CONTINUOUS
370
-3
390
F
  0
LAYER
  5
205
100
AcDbSymbolTableRecord
100
AcDbLayerTableRecord
  2
07_COSMETICS
 70
0
 62
7
  6
CONTINUOUS
370
-3
390
F
  0
LAYER
  5
206
100
AcDbSymbolTableRecord
100
AcDbLayerTableRecord
  2
10_NOTES
 70
0
 62
7
  6
CONTINUOUS
370
-3
390
F
  0
LAYER
  5
207
100
AcDbSymbolTableRecord
100
AcDbLayerTableRecord
  2
11_NOTES_PUB
 70
0
 62
7
  6
CONTINUOUS
370
-3
390
F
  0
LAYER
  5
208
100
AcDbSymbolTableRecord
100
AcDbLayerTableRecord
  2
13_REF_GTOL
 70
0
 62
7
  6
CONTINUOUS
370
-3
390
F
  0
LAYER
  5
209
100
AcDbSymbolTableRecord
100
AcDbLayerTableRecord
  2
16_MISC
 70
0
 62
7
  6
CONTINUOUS
370
-3
390
F
  0
LAYER
  5
20A
100
AcDbSymbolTableRecord
100
AcDbLayerTableRecord
  2
17_NO_PRINT
 70
0
 62
7
  6
CONTINUOUS
370
-3
390
F
  0
LAYER
  5
20B
100
AcDbSymbolTableRecord
100
AcDbLayerTableRecord
  2
18_DATUM_CAMS_JOINTS
 70
0
 62
7
  6
CONTINUOUS
370
-3
390
F
  0
LAYER
  5
20C
100
AcDbSymbolTableRecord
100
AcDbLayerTableRecord
  2
19_DATUM_FUNCTIONAL
 70
0
 62
7
  6
CONTINUOUS
370
-3
390
F
  0
LAYER
  5
20D
100
AcDbSymbolTableRecord
100
AcDbLayerTableRecord
  2
20_DATUM_KINEMATIC_SCHEME
 70
0
 62
7
  6
CONTINUOUS
370
-3
390
F
  0
ENDTAB
  0
TABLE
  2
STYLE
  5
3
100
AcDbSymbolTable
 70
1
  0
STYLE
  5
11
100
AcDbSymbolTableRecord
100
AcDbTextStyleTableRecord
  2
STANDARD
 70
0
 40
0.0
 41
1.0
 50
0.0
 71
0
 42
0.2
  3
ARIAL.TTF
  4

  0
STYLE
  5
20E
100
AcDbSymbolTableRecord
100
AcDbTextStyleTableRecord
  2
TEXTSTYLE_1
 70
0
 40
0.0
 41
0.8
 50
0.0
 71
0
 42
0.2
  3
gdt
  4

  0
ENDTAB
  0
TABLE
  2
VIEW
  5
6
100
AcDbSymbolTable
 70
0
  0
ENDTAB
  0
TABLE
  2
UCS
  5
7
100
AcDbSymbolTable
 70
0
  0
ENDTAB
  0
TABLE
  2
APPID
  5
9
100
AcDbSymbolTable
 70
1
  0
APPID
  5
20F
100
AcDbSymbolTableRecord
100
AcDbRegAppTableRecord
  2
ACAD
 70
0
  0
ENDTAB
  0
TABLE
  2
BLOCK_RECORD
  5
1
100
AcDbSymbolTable
 70
0
  0
BLOCK_RECORD
  5
210
100
AcDbSymbolTableRecord
100
AcDbBlockTableRecord
  2
*Model_Space
  0
BLOCK_RECORD
  5
211
100
AcDbSymbolTableRecord
100
AcDbBlockTableRecord
  2
*Paper_Space
  0
BLOCK_RECORD
  5
212
100
AcDbSymbolTableRecord
100
AcDbBlockTableRecord
  2
_FILLED
  0
ENDTAB
  0
TABLE
  2
DIMSTYLE
  5
A
100
AcDbSymbolTable
 70
1
100
AcDbDimStyleTable
 71
0
  0
DIMSTYLE
105
213
100
AcDbSymbolTableRecord
100
AcDbDimStyleTableRecord
  2
STANDARD
 70
0
  3

  4

 40
1.0
 41
0.6173090459
 42
1.0
 43
0.38
 44
1.0
 45
0.0
 46
0.0
 47
0.01
 48
0.01
140
0.8642326643
141
0.09
142
0.0
143
25.4
144
1.0
145
0.0
146
1.0
147
0.625
 71
1
 72
0
 73
0
 74
0
 75
0
 76
0
 77
1
 78
8
 79
2
170
0
171
1
172
0
173
0
174
0
175
0
176
0
177
0
178
0
270
2
179
2
271
2
272
2
273
2
274
2
275
0
280
0
281
0
282
0
283
1
284
8
285
0
286
0
287
3
288
0
340
11
278
46
341
212
342
212
343
212
344
212
  0
ENDTAB
  0
ENDSEC
  0
SECTION
  2
BLOCKS
  0
BLOCK
  5
20
100
AcDbEntity
  8
0
100
AcDbBlockBegin
  2
*Model_Space
 70
0
 10
0.0
 20
0.0
 30
0.0
  3
*Model_Space
  1

  0
ENDBLK
  5
21
100
AcDbEntity
  8
0
100
AcDbBlockEnd
  0
BLOCK
  5
1C
100
AcDbEntity
  8
0
100
AcDbBlockBegin
  2
*Paper_Space
 70
0
 10
0.0
 20
0.0
 30
0.0
  3
*Paper_Space
  1

  0
ENDBLK
  5
1D
100
AcDbEntity
  8
0
100
AcDbBlockEnd
  0
BLOCK
  5
214
100
AcDbEntity
  8
0
100
AcDbBlockBegin
  2
_FILLED
 70
64
 10
0.0
 20
0.0
  3
_FILLED
  1

  0
SOLID
  5
215
100
AcDbEntity
  8
0
  6
BYBLOCK
 62
0
100
AcDbTrace
 10
0.0
 20
0.0
 11
-1.0
 21
0.25
 12
-1.0
 22
-0.25
 13
-1.0
 23
-0.25
  0
ENDBLK
  5
216
100
AcDbEntity
  8
0
  6
BYBLOCK
 62
0
100
AcDbBlockEnd
  0
ENDSEC
  0
SECTION
  2
ENTITIES
  0
LINE
  5
217
100
AcDbEntity
  8
0
100
AcDbLine
 62
7
  6
BYLAYER
 10
5.7752019114
 20
32.19375
 11
5.7752019114
 21
48.69375
  0
LINE
  5
218
100
AcDbEntity
  8
0
100
AcDbLine
 62
7
  6
BYLAYER
 10
6.4120335147
 20
32.19375
 11
6.4120335147
 21
30.39375
  0
LINE
  5
219
100
AcDbEntity
  8
0
100
AcDbLine
 62
7
  6
BYLAYER
 10
6.4720755631
 20
30.39375
 11
6.4720755631
 21
32.19375
  0
LWPOLYLINE
  5
21A
100
AcDbEntity
  8
0
100
AcDbPolyline
 62
7
  6
BYLAYER
 90
4
 70
0
 10
8.9947142957
 20
25.79375
 10
9.0380635259
 20
25.7405045871
 10
9.0818177761
 20
25.6172524701
 10
9.0881482826
 20
25.5438030903
  0
LWPOLYLINE
  5
21B
100
AcDbEntity
  8
0
100
AcDbPolyline
 62
7
  6
BYLAYER
 90
3
 70
0
 10
9.0524996559
 20
25.6998391984
 10
9.0810345407
 20
25.6216136298
 10
9.0812996437
 20
25.6187120062
  0
LINE
  5
21C
100
AcDbEntity
  8
0
100
AcDbLine
 62
7
  6
BYLAYER
 10
6.8537792243
 20
32.19375
 11
6.8537792243
 21
30.39375
  0
LINE
  5
21D
100
AcDbEntity
  8
0
100
AcDbLine
 62
7
  6
BYLAYER
 10
7.0298136032
 20
30.39375
 11
7.0298136032
 21
32.19375
  0
LINE
  5
21E
100
AcDbEntity
  8
0
100
AcDbLine
 62
7
  6
BYLAYER
 10
7.0752019114
 20
30.04375
 11
7.0752019114
 21
30.19375
  0
LINE
  5
21F
100
AcDbEntity
  8
0
100
AcDbLine
 62
7
  6
BYLAYER
 10
7.4252019114
 20
25.79375
 11
7.4252019114
 21
26.39375
  0
LINE
  5
220
100
AcDbEntity
  8
0
100
AcDbLine
 62
7
  6
BYLAYER
 10
7.4252019114
 20
27.59375
 11
7.4252019114
 21
28.74375
  0
LINE
  5
221
100
AcDbEntity
  8
0
100
AcDbLine
 62
7
  6
BYLAYER
 10
7.8238945687
 20
32.19375
 11
7.8238945687
 21
30.19375
  0
LINE
  5
222
100
AcDbEntity
  8
0
100
AcDbLine
 62
7
  6
BYLAYER
 10
8.0252019114
 20
22.44375
 11
8.0252019114
 21
23.84375
  0
LINE
  5
223
100
AcDbEntity
  8
0
100
AcDbLine
 62
7
  6
BYLAYER
 10
8.2752019114
 20
28.74375
 11
8.2752019114
 21
30.04375
  0
LINE
  5
224
100
AcDbEntity
  8
0
100
AcDbLine
 62
7
  6
BYLAYER
 10
9.088142074
 20
25.5437590134
 11
9.088142074
 21
24.3437500082
  0
LINE
  5
225
100
AcDbEntity
  8
0
100
AcDbLine
 62
7
  6
BYLAYER
 10
9.1364575365
 20
25.5437499765
 11
9.1364575365
 21
24.3437500112
  0
LINE
  5
226
100
AcDbEntity
  8
0
100
AcDbLine
 62
7
  6
BYLAYER
 10
10.6975500609
 20
30.19375
 11
10.6975500609
 21
32.19375
  0
LINE
  5
227
100
AcDbEntity
  8
0
100
AcDbLine
 62
7
  6
BYLAYER
 10
10.7322203846
 20
32.19375
 11
10.7322203846
 21
30.39375
  0
LINE
  5
228
100
AcDbEntity
  8
0
100
AcDbLine
 62
7
  6
BYLAYER
 10
11.1572049695
 20
30.39375
 11
11.1572049695
 21
32.19375
  0
LWPOLYLINE
  5
229
100
AcDbEntity
  8
0
100
AcDbPolyline
 62
7
  6
BYLAYER
 90
4
 70
0
 10
9.0881479896
 20
24.3437500276
 10
9.0787592182
 20
24.2544812767
 10
9.0327529762
 20
24.1383138663
 10
9.0002665275
 20
24.0984192479
  0
LINE
  5
22A
100
AcDbEntity
  8
0
100
AcDbLine
 62
7
  6
BYLAYER
 10
11.743220626
 20
32.19375
 11
11.743220626
 21
30.19375
  0
LINE
  5
22B
100
AcDbEntity
  8
0
100
AcDbLine
 62
7
  6
BYLAYER
 10
12.3427301882
 20
30.19375
 11
12.3427301882
 21
32.19375
  0
LINE
  5
22C
100
AcDbEntity
  8
0
100
AcDbLine
 62
7
  6
BYLAYER
 10
12.5817424265
 20
32.19375
 11
12.5817424265
 21
30.39375
  0
LINE
  5
22D
100
AcDbEntity
  8
0
100
AcDbLine
 62
7
  6
BYLAYER
 10
12.7074940862
 20
22.44375
 11
12.7074940862
 21
25.79375
  0
LINE
  5
22E
100
AcDbEntity
  8
0
100
AcDbLine
 62
7
  6
BYLAYER
 10
13.0378070627
 20
30.39375
 11
13.0378070627
 21
32.19375
  0
LINE
  5
22F
100
AcDbEntity
  8
0
100
AcDbLine
 62
7
  6
BYLAYER
 10
8.275202062
 20
22.19375
 11
19.2752017607
 21
22.19375
  0
LINE
  5
230
100
AcDbEntity
  8
0
100
AcDbLine
 62
7
  6
BYLAYER
 10
19.5252019114
 20
22.44375
 11
14.8429097366
 21
22.44375
  0
LINE
  5
231
100
AcDbEntity
  8
0
100
AcDbLine
 62
7
  6
BYLAYER
 10
12.7074940862
 20
22.44375
 11
8.0252019114
 21
22.44375
  0
LWPOLYLINE
  5
232
100
AcDbEntity
  8
0
100
AcDbPolyline
 62
7
  6
BYLAYER
 90
5
 70
0
 10
18.5608501553
 20
24.0901651076
 10
18.5590696407
 20
24.0912967642
 10
18.5123406809
 20
24.14699472
 10
18.4685833348
 20
24.270262841
 10
18.4622559859
 20
24.3436725086
  0
LINE
  5
233
100
AcDbEntity
  8
0
100
AcDbLine
 62
7
  6
BYLAYER
 10
13.4648729265
 20
32.19375
 11
13.4648729265
 21
30.19375
  0
LINE
  5
234
100
AcDbEntity
  8
0
100
AcDbLine
 62
7
  6
BYLAYER
 10
13.7752019114
 20
38.088198717
 11
13.7752019175
 21
50.0401389447
  0
LINE
  5
235
100
AcDbEntity
  8
0
100
AcDbLine
 62
7
  6
BYLAYER
 10
14.0855308962
 20
30.19375
 11
14.0855308962
 21
32.19375
  0
LINE
  5
236
100
AcDbEntity
  8
0
100
AcDbLine
 62
7
  6
BYLAYER
 10
14.51259676
 20
32.19375
 11
14.51259676
 21
30.39375
  0
LINE
  5
237
100
AcDbEntity
  8
0
100
AcDbLine
 62
7
  6
BYLAYER
 10
14.8429097366
 20
25.79375
 11
14.8429097366
 21
22.44375
  0
LINE
  5
238
100
AcDbEntity
  8
0
100
AcDbLine
 62
7
  6
BYLAYER
 10
14.9686613962
 20
30.39375
 11
14.9686613962
 21
32.19375
  0
LINE
  5
239
100
AcDbEntity
  8
0
100
AcDbLine
 62
7
  6
BYLAYER
 10
8.0252019114
 20
23.84375
 11
8.7955558395
 21
23.84375
  0
LINE
  5
23A
100
AcDbEntity
  8
0
100
AcDbLine
 62
7
  6
BYLAYER
 10
18.7548479834
 20
23.84375
 11
19.5247711153
 21
23.84375
  0
LINE
  5
23B
100
AcDbEntity
  8
0
100
AcDbLine
 62
7
  6
BYLAYER
 10
8.2752805982
 20
24.09375
 11
9.0002665275
 21
24.09375
  0
LINE
  5
23C
100
AcDbEntity
  8
0
100
AcDbLine
 62
7
  6
BYLAYER
 10
18.5570114475
 20
24.09375
 11
19.2747898455
 21
24.09375
  0
LINE
  5
23D
100
AcDbEntity
  8
0
100
AcDbLine
 62
7
  6
BYLAYER
 10
9.1364575365
 20
24.3437500082
 11
9.088142074
 21
24.3437500082
  0
LINE
  5
23E
100
AcDbEntity
  8
0
100
AcDbLine
 62
7
  6
BYLAYER
 10
18.4139462863
 20
24.3437510318
 11
18.4622617487
 21
24.343745975
  0
LINE
  5
23F
100
AcDbEntity
  8
0
100
AcDbLine
 62
7
  6
BYLAYER
 10
15.2076736345
 20
32.19375
 11
15.2076736345
 21
30.19375
  0
LINE
  5
240
100
AcDbEntity
  8
0
100
AcDbLine
 62
7
  6
BYLAYER
 10
15.8071831967
 20
30.19375
 11
15.8071831967
 21
32.19375
  0
LINE
  5
241
100
AcDbEntity
  8
0
100
AcDbLine
 62
7
  6
BYLAYER
 10
16.3931988532
 20
32.19375
 11
16.3931988532
 21
30.39375
  0
LINE
  5
242
100
AcDbEntity
  8
0
100
AcDbLine
 62
7
  6
BYLAYER
 10
9.1364575365
 20
25.5437570303
 11
9.088142074
 21
25.5437590134
  0
LINE
  5
243
100
AcDbEntity
  8
0
100
AcDbLine
 62
7
  6
BYLAYER
 10
18.4139462863
 20
25.5437499917
 11
18.4622617472
 21
25.5437499917
  0
LINE
  5
244
100
AcDbEntity
  8
0
100
AcDbLine
 62
7
  6
BYLAYER
 10
20.1252019114
 20
25.79375
 11
7.4252019114
 21
25.79375
  0
LINE
  5
245
100
AcDbEntity
  8
0
100
AcDbLine
 62
7
  6
BYLAYER
 10
7.4252019114
 20
26.39375
 11
20.1252019114
 21
26.39375
  0
LINE
  5
246
100
AcDbEntity
  8
0
100
AcDbLine
 62
7
  6
BYLAYER
 10
19.7752019114
 20
26.49375
 11
7.7752019114
 21
26.49375
  0
LINE
  5
247
100
AcDbEntity
  8
0
100
AcDbLine
 62
7
  6
BYLAYER
 10
18.4982442884
 20
24.1739884742
 11
18.4897814933
 21
24.2105458472
  0
LINE
  5
248
100
AcDbEntity
  8
0
100
AcDbLine
 62
7
  6
BYLAYER
 10
16.8181834381
 20
30.39375
 11
16.8181834381
 21
32.19375
  0
LINE
  5
249
100
AcDbEntity
  8
0
100
AcDbLine
 62
7
  6
BYLAYER
 10
16.8528537618
 20
32.19375
 11
16.8528537618
 21
30.19375
  0
LINE
  5
24A
100
AcDbEntity
  8
0
100
AcDbLine
 62
7
  6
BYLAYER
 10
18.4139462863
 20
24.3437500105
 11
18.4139462863
 21
25.5437499909
  0
LINE
  5
24B
100
AcDbEntity
  8
0
100
AcDbLine
 62
7
  6
BYLAYER
 10
19.7752019114
 20
27.49375
 11
7.7752019114
 21
27.49375
  0
LINE
  5
24C
100
AcDbEntity
  8
0
100
AcDbLine
 62
7
  6
BYLAYER
 10
20.1252019114
 20
27.59375
 11
7.4252019114
 21
27.59375
  0
LINE
  5
24D
100
AcDbEntity
  8
0
100
AcDbLine
 62
7
  6
BYLAYER
 10
18.4622617487
 20
24.343745975
 11
18.4622617487
 21
25.5437499917
  0
LINE
  5
24E
100
AcDbEntity
  8
0
100
AcDbLine
 62
7
  6
BYLAYER
 10
19.2752019114
 20
28.74375
 11
19.2752019114
 21
30.04375
  0
LINE
  5
24F
100
AcDbEntity
  8
0
100
AcDbLine
 62
7
  6
BYLAYER
 10
19.5252019114
 20
23.84375
 11
19.5252019114
 21
22.44375
  0
LINE
  5
250
100
AcDbEntity
  8
0
100
AcDbLine
 62
7
  6
BYLAYER
 10
19.7265092541
 20
30.19375
 11
19.7265092541
 21
32.19375
  0
LWPOLYLINE
  5
251
100
AcDbEntity
  8
0
100
AcDbPolyline
 62
7
  6
BYLAYER
 90
4
 70
0
 10
18.462255374
 20
25.5437499737
 10
18.4716597526
 20
25.6330895065
 10
18.5176824698
 20
25.7492356851
 10
18.5501512646
 20
25.7890933855
  0
LINE
  5
252
100
AcDbEntity
  8
0
100
AcDbLine
 62
7
  6
BYLAYER
 10
7.4252019114
 20
28.74375
 11
20.1252019114
 21
28.74375
  0
LINE
  5
253
100
AcDbEntity
  8
0
100
AcDbLine
 62
7
  6
BYLAYER
 10
20.1252019114
 20
25.79375
 11
20.1252019114
 21
26.39375
  0
LINE
  5
254
100
AcDbEntity
  8
0
100
AcDbLine
 62
7
  6
BYLAYER
 10
20.1252019114
 20
27.59375
 11
20.1252019114
 21
28.74375
  0
LINE
  5
255
100
AcDbEntity
  8
0
100
AcDbLine
 62
7
  6
BYLAYER
 10
20.4752019114
 20
30.04375
 11
20.4752019114
 21
30.19375
  0
LINE
  5
256
100
AcDbEntity
  8
0
100
AcDbLine
 62
7
  6
BYLAYER
 10
20.5205902195
 20
32.19375
 11
20.5205902195
 21
30.39375
  0
LINE
  5
257
100
AcDbEntity
  8
0
100
AcDbLine
 62
7
  6
BYLAYER
 10
20.6966245984
 20
30.39375
 11
20.6966245984
 21
32.19375
  0
LINE
  5
258
100
AcDbEntity
  8
0
100
AcDbLine
 62
7
  6
BYLAYER
 10
21.0783282596
 20
32.19375
 11
21.0783282596
 21
30.39375
  0
LINE
  5
259
100
AcDbEntity
  8
0
100
AcDbLine
 62
7
  6
BYLAYER
 10
21.138370308
 20
30.39375
 11
21.138370308
 21
32.19375
  0
LINE
  5
25A
100
AcDbEntity
  8
0
100
AcDbLine
 62
7
  6
BYLAYER
 10
21.7752019114
 20
32.19375
 11
21.7752019114
 21
32.44375
  0
LINE
  5
25B
100
AcDbEntity
  8
0
100
AcDbLine
 62
7
  6
BYLAYER
 10
20.4752019114
 20
30.04375
 11
7.0752019114
 21
30.04375
  0
LINE
  5
25C
100
AcDbEntity
  8
0
100
AcDbLine
 62
7
  6
BYLAYER
 10
20.9487513496
 20
30.19375
 11
19.7265092541
 21
30.19375
  0
LINE
  5
25D
100
AcDbEntity
  8
0
100
AcDbLine
 62
7
  6
BYLAYER
 10
16.8528537618
 20
30.19375
 11
15.8071831967
 21
30.19375
  0
LINE
  5
25E
100
AcDbEntity
  8
0
100
AcDbLine
 62
7
  6
BYLAYER
 10
15.2076736345
 20
30.19375
 11
14.0855308962
 21
30.19375
  0
LINE
  5
25F
100
AcDbEntity
  8
0
100
AcDbLine
 62
7
  6
BYLAYER
 10
13.4648729265
 20
30.19375
 11
12.3427301882
 21
30.19375
  0
LINE
  5
260
100
AcDbEntity
  8
0
100
AcDbLine
 62
7
  6
BYLAYER
 10
11.743220626
 20
30.19375
 11
10.6975500609
 21
30.19375
  0
LINE
  5
261
100
AcDbEntity
  8
0
100
AcDbLine
 62
7
  6
BYLAYER
 10
7.8238945687
 20
30.19375
 11
6.6864989052
 21
30.19375
  0
LINE
  5
262
100
AcDbEntity
  8
0
100
AcDbLine
 62
7
  6
BYLAYER
 10
21.138370308
 20
30.39375
 11
21.0783282596
 21
30.39375
  0
LINE
  5
263
100
AcDbEntity
  8
0
100
AcDbLine
 62
7
  6
BYLAYER
 10
20.6966245984
 20
30.39375
 11
20.5205902195
 21
30.39375
  0
LINE
  5
264
100
AcDbEntity
  8
0
100
AcDbLine
 62
7
  6
BYLAYER
 10
16.8181834381
 20
30.39375
 11
16.3931988532
 21
30.39375
  0
LINE
  5
265
100
AcDbEntity
  8
0
100
AcDbLine
 62
7
  6
BYLAYER
 10
14.9686613962
 20
30.39375
 11
14.51259676
 21
30.39375
  0
LINE
  5
266
100
AcDbEntity
  8
0
100
AcDbLine
 62
7
  6
BYLAYER
 10
13.0378070627
 20
30.39375
 11
12.5817424265
 21
30.39375
  0
LINE
  5
267
100
AcDbEntity
  8
0
100
AcDbLine
 62
7
  6
BYLAYER
 10
11.1572049695
 20
30.39375
 11
10.7322203846
 21
30.39375
  0
LINE
  5
268
100
AcDbEntity
  8
0
100
AcDbLine
 62
7
  6
BYLAYER
 10
7.0298136032
 20
30.39375
 11
6.8537792243
 21
30.39375
  0
LINE
  5
269
100
AcDbEntity
  8
0
100
AcDbLine
 62
7
  6
BYLAYER
 10
6.4720755631
 20
30.39375
 11
6.4120335147
 21
30.39375
  0
LINE
  5
26A
100
AcDbEntity
  8
0
100
AcDbLine
 62
7
  6
BYLAYER
 10
21.7752019114
 20
32.19375
 11
5.7752019114
 21
32.19375
  0
LINE
  5
26B
100
AcDbEntity
  8
0
100
AcDbLine
 62
7
  6
BYLAYER
 10
31.9252019114
 20
32.69375
 11
22.0252019114
 21
32.69375
  0
LINE
  5
26C
100
AcDbEntity
  8
0
100
AcDbLine
 62
7
  6
BYLAYER
 10
31.9252019114
 20
32.84375
 11
36.4252019114
 21
32.84375
  0
LINE
  5
26D
100
AcDbEntity
  8
0
100
AcDbLine
 62
7
  6
BYLAYER
 10
36.6752019114
 20
33.79375
 11
37.1252019114
 21
33.79375
  0
LINE
  5
26E
100
AcDbEntity
  8
0
100
AcDbLine
 62
7
  6
BYLAYER
 10
37.8252019114
 20
41.94375
 11
37.1252019114
 21
41.69375
  0
LINE
  5
26F
100
AcDbEntity
  8
0
100
AcDbLine
 62
7
  6
BYLAYER
 10
36.4252019114
 20
37.0580412172
 11
16.0556086952
 21
37.0580412172
  0
LINE
  5
270
100
AcDbEntity
  8
0
100
AcDbLine
 62
7
  6
BYLAYER
 10
46.3918066199
 20
37.69375
 11
38.2252019114
 21
37.69375
  0
LINE
  5
271
100
AcDbEntity
  8
0
100
AcDbLine
 62
7
  6
BYLAYER
 10
36.4252019114
 20
38.0881987245
 11
13.7752019114
 21
38.088198717
  0
LINE
  5
272
100
AcDbEntity
  8
0
100
AcDbLine
 62
7
  6
BYLAYER
 10
31.9252019114
 20
32.84375
 11
31.9252019114
 21
32.693798976
  0
LINE
  5
273
100
AcDbEntity
  8
0
100
AcDbLine
 62
7
  6
BYLAYER
 10
37.7658755757
 20
34.0789962933
 11
37.1252019114
 21
33.79375
  0
LINE
  5
274
100
AcDbEntity
  8
0
100
AcDbLine
 62
7
  6
BYLAYER
 10
36.6752019114
 20
33.79375
 11
36.4252019114
 21
33.69375
  0
LINE
  5
275
100
AcDbEntity
  8
0
100
AcDbLine
 62
7
  6
BYLAYER
 10
37.8252019114
 20
36.29375
 11
38.2252019114
 21
36.69375
  0
LINE
  5
276
100
AcDbEntity
  8
0
100
AcDbLine
 62
7
  6
BYLAYER
 10
37.1252019114
 20
41.69375
 11
37.8252019114
 21
41.44375
  0
LINE
  5
277
100
AcDbEntity
  8
0
100
AcDbLine
 62
7
  6
BYLAYER
 10
36.4252019114
 20
50.6937468981
 11
36.4252019114
 21
32.84375
  0
LINE
  5
278
100
AcDbEntity
  8
0
100
AcDbLine
 62
7
  6
BYLAYER
 10
36.6752019114
 20
33.79375
 11
36.6752019114
 21
49.59375
  0
LINE
  5
279
100
AcDbEntity
  8
0
100
AcDbLine
 62
7
  6
BYLAYER
 10
46.3918066199
 20
45.69375
 11
38.2252019114
 21
45.69375
  0
LINE
  5
27A
100
AcDbEntity
  8
0
100
AcDbLine
 62
7
  6
BYLAYER
 10
37.1252019114
 20
49.59375
 11
37.1252019114
 21
33.79375
  0
LINE
  5
27B
100
AcDbEntity
  8
0
100
AcDbLine
 62
7
  6
BYLAYER
 10
37.7252019114
 20
41.9080357143
 11
37.7252019114
 21
41.4794642857
  0
LINE
  5
27C
100
AcDbEntity
  8
0
100
AcDbLine
 62
7
  6
BYLAYER
 10
37.7658755757
 20
49.3085037067
 11
37.7658755757
 21
48.3997482853
  0
LINE
  5
27D
100
AcDbEntity
  8
0
100
AcDbLine
 62
7
  6
BYLAYER
 10
37.7658755757
 20
48.1709361114
 11
37.7658755757
 21
41.9225619269
  0
LINE
  5
27E
100
AcDbEntity
  8
0
100
AcDbLine
 62
7
  6
BYLAYER
 10
37.7658755757
 20
41.4649376036
 11
37.7658755757
 21
35.2165636416
  0
LINE
  5
27F
100
AcDbEntity
  8
0
100
AcDbLine
 62
7
  6
BYLAYER
 10
37.7658755757
 20
34.9877514922
 11
37.7658755757
 21
34.0789962933
  0
LINE
  5
280
100
AcDbEntity
  8
0
100
AcDbLine
 62
7
  6
BYLAYER
 10
37.8252019114
 20
48.0806065864
 11
37.8252019114
 21
41.94375
  0
LINE
  5
281
100
AcDbEntity
  8
0
100
AcDbLine
 62
7
  6
BYLAYER
 10
37.8252019114
 20
41.44375
 11
37.8252019114
 21
35.3068934136
  0
LINE
  5
282
100
AcDbEntity
  8
0
100
AcDbLine
 62
7
  6
BYLAYER
 10
37.8252019114
 20
35.2504729405
 11
37.8252019114
 21
34.1703565477
  0
LINE
  5
283
100
AcDbEntity
  8
0
100
AcDbLine
 62
7
  6
BYLAYER
 10
37.8252019114
 20
48.1370270595
 11
37.8252019114
 21
49.2171434523
  0
LINE
  5
284
100
AcDbEntity
  8
0
100
AcDbLine
 62
7
  6
BYLAYER
 10
38.2252019114
 20
46.69375
 11
38.2252019114
 21
36.69375
  0
LINE
  5
285
100
AcDbEntity
  8
0
100
AcDbLine
 62
7
  6
BYLAYER
 10
13.7752019114
 20
48.0813762352
 11
36.4252019114
 21
48.0813762352
  0
LINE
  5
286
100
AcDbEntity
  8
0
100
AcDbLine
 62
7
  6
BYLAYER
 10
36.6752019114
 20
49.59375
 11
37.1252019114
 21
49.59375
  0
LINE
  5
287
100
AcDbEntity
  8
0
100
AcDbLine
 62
7
  6
BYLAYER
 10
13.7752019113
 20
50.0401389447
 11
36.4252019114
 21
50.0401389447
  0
LINE
  5
288
100
AcDbEntity
  8
0
100
AcDbLine
 62
7
  6
BYLAYER
 10
7.7752042929
 20
50.69375
 11
36.4252019114
 21
50.69375
  0
LINE
  5
289
100
AcDbEntity
  8
0
100
AcDbLine
 62
7
  6
BYLAYER
 10
36.6752019114
 20
49.59375
 11
36.4252019114
 21
49.69375
  0
LINE
  5
28A
100
AcDbEntity
  8
0
100
AcDbLine
 62
7
  6
BYLAYER
 10
37.7658755757
 20
49.3085037067
 11
37.1252019114
 21
49.59375
  0
LINE
  5
28B
100
AcDbEntity
  8
0
100
AcDbLine
 62
7
  6
BYLAYER
 10
37.8252019114
 20
47.09375
 11
38.2252019114
 21
46.69375
  0
LINE
  5
28C
100
AcDbEntity
  8
0
100
AcDbLine
 62
7
  6
BYLAYER
 10
46.3918066199
 20
45.69375
 11
46.3918066199
 21
37.69375
  0
LINE
  5
28D
100
AcDbEntity
  8
0
100
AcDbLine
 62
7
  6
BYLAYER
 10
46.6691243468
 20
37.8793171446
 11
46.6691243468
 21
45.5081828554
  0
ARC
  5
28E
100
AcDbEntity
  8
0
100
AcDbCircle
 62
7
  6
BYLAYER
 10
-13.4768595961
 20
124.5611236094
 40
102.9964473044
100
AcDbArc
 50
299.4260032362
 51
299.8360251272
  0
ARC
  5
28F
100
AcDbEntity
  8
0
100
AcDbCircle
 62
7
  6
BYLAYER
 10
-13.4755570548
 20
-41.1713314811
 40
102.9938142098
100
AcDbArc
 50
60.163980684
 51
60.574002451
  0
ARC
  5
290
100
AcDbEntity
  8
0
100
AcDbCircle
 62
7
  6
BYLAYER
 10
22.3737976229
 20
106.1298323268
 40
72.7881317876
100
AcDbArc
 50
281.6926816803
 51
282.2081563892
  0
ARC
  5
291
100
AcDbEntity
  8
0
100
AcDbCircle
 62
7
  6
BYLAYER
 10
22.5960685645
 20
-21.692162614
 40
71.7147050256
100
AcDbArc
 50
77.787971729
 51
78.3111756423
  0
ARC
  5
292
100
AcDbEntity
  8
0
100
AcDbCircle
 62
7
  6
BYLAYER
 10
37.4252019114
 20
41.69375
 40
10.0
100
AcDbArc
 50
337.5768882255
 51
22.4231117745
  0
ARC
  5
293
100
AcDbEntity
  8
0
100
AcDbCircle
 62
7
  6
BYLAYER
 10
7.7752044243
 20
48.6937489101
 40
2.000000393
100
AcDbArc
 50
90.0001356052
 51
179.9999687719
  0
ARC
  5
294
100
AcDbEntity
  8
0
100
AcDbCircle
 62
7
  6
BYLAYER
 10
19.0684250332
 20
25.5435935336
 40
0.6544787657
100
AcDbArc
 50
172.6189097168
 51
179.9863030838
  0
ARC
  5
295
100
AcDbEntity
  8
0
100
AcDbCircle
 62
7
  6
BYLAYER
 10
8.4821256199
 20
25.5436058307
 40
0.6543319325
100
AcDbArc
 50
0.0126219532
 51
7.3280089804
  0
ARC
  5
296
100
AcDbEntity
  8
0
100
AcDbCircle
 62
7
  6
BYLAYER
 10
19.0652150987
 20
24.3437992384
 40
0.6512688143
100
AcDbArc
 50
180.0043308548
 51
180.438545692
  0
ARC
  5
297
100
AcDbEntity
  8
0
100
AcDbCircle
 62
7
  6
BYLAYER
 10
8.4852054806
 20
24.3437996664
 40
0.6512520578
100
AcDbArc
 50
359.5678673526
 51
359.9956314419
  0
ARC
  5
298
100
AcDbEntity
  8
0
100
AcDbCircle
 62
7
  6
BYLAYER
 10
8.5530730517
 20
24.3217042526
 40
0.5795902218
100
AcDbArc
 50
332.5652072335
 51
335.4720702759
  0
ARC
  5
299
100
AcDbEntity
  8
0
100
AcDbCircle
 62
7
  6
BYLAYER
 10
18.9936730808
 20
24.3199795122
 40
0.5755466054
100
AcDbArc
 50
204.5236861239
 51
208.7754395729
  0
ARC
  5
29A
100
AcDbEntity
  8
0
100
AcDbCircle
 62
7
  6
BYLAYER
 10
19.7752019114
 20
26.99375
 40
0.5
100
AcDbArc
 50
270.0
 51
90.0
  0
ARC
  5
29B
100
AcDbEntity
  8
0
100
AcDbCircle
 62
7
  6
BYLAYER
 10
7.7752019114
 20
26.99375
 40
0.5
100
AcDbArc
 50
90.0
 51
270.0
  0
ARC
  5
29C
100
AcDbEntity
  8
0
100
AcDbCircle
 62
7
  6
BYLAYER
 10
46.3918066199
 20
37.99375
 40
0.3
100
AcDbArc
 50
270.0
 51
337.5769151456
  0
ARC
  5
29D
100
AcDbEntity
  8
0
100
AcDbCircle
 62
7
  6
BYLAYER
 10
46.3918066199
 20
45.39375
 40
0.3
100
AcDbArc
 50
22.4230848544
 51
90.0
  0
ARC
  5
29E
100
AcDbEntity
  8
0
100
AcDbCircle
 62
7
  6
BYLAYER
 10
22.0252975536
 20
32.4436540456
 40
0.2501044792
100
AcDbArc
 50
90.0219108721
 51
179.9780177122
  0
ARC
  5
29F
100
AcDbEntity
  8
0
100
AcDbCircle
 62
7
  6
BYLAYER
 10
19.2752019114
 20
23.84375
 40
0.25
100
AcDbArc
 50
0.0
 51
90.0
  0
ARC
  5
2A0
100
AcDbEntity
  8
0
100
AcDbCircle
 62
7
  6
BYLAYER
 10
8.2752019114
 20
23.84375
 40
0.25
100
AcDbArc
 50
90.0
 51
180.0
  0
ARC
  5
2A1
100
AcDbEntity
  8
0
100
AcDbCircle
 62
7
  6
BYLAYER
 10
19.6252019114
 20
26.64375
 40
0.25
100
AcDbArc
 50
211.6563736642
 51
269.999963225
  0
ARC
  5
2A2
100
AcDbEntity
  8
0
100
AcDbCircle
 62
7
  6
BYLAYER
 10
7.9252019114
 20
26.64375
 40
0.25
100
AcDbArc
 50
270.000036775
 51
328.3436263358
  0
ARC
  5
2A3
100
AcDbEntity
  8
0
100
AcDbCircle
 62
7
  6
BYLAYER
 10
7.9252019114
 20
27.34375
 40
0.25
100
AcDbArc
 50
31.6563789643
 51
89.9999873184
  0
ARC
  5
2A4
100
AcDbEntity
  8
0
100
AcDbCircle
 62
7
  6
BYLAYER
 10
19.2752019114
 20
22.44375
 40
0.25
100
AcDbArc
 50
269.9999654747
 51
360.0
  0
ARC
  5
2A5
100
AcDbEntity
  8
0
100
AcDbCircle
 62
7
  6
BYLAYER
 10
8.2752019114
 20
22.44375
 40
0.25
100
AcDbArc
 50
180.0
 51
270.0000345253
  0
ARC
  5
2A6
100
AcDbEntity
  8
0
100
AcDbCircle
 62
7
  6
BYLAYER
 10
19.6252019114
 20
27.34375
 40
0.25
100
AcDbArc
 50
90.0000126816
 51
148.3436210357
  0
ARC
  5
2A7
100
AcDbEntity
  8
0
100
AcDbCircle
 62
7
  6
BYLAYER
 10
37.7252019114
 20
34.170350839
 40
0.1
100
AcDbArc
 50
294.0000000011
 51
360.0
  0
ARC
  5
2A8
100
AcDbEntity
  8
0
100
AcDbCircle
 62
7
  6
BYLAYER
 10
37.7252019114
 20
49.217149161
 40
0.1
100
AcDbArc
 50
0.0
 51
65.9999999989
  0
SPLINE
  5
2A9
100
AcDbEntity
  8
0
100
AcDbSpline
 62
7
  6
BYLAYER
 70
0
 71
3
 72
11
 73
7
 74
0
 42
0.0000001
 43
0.0000001
 44
0.0000000001
 40
0.0
 40
0.0
 40
0.0
 40
0.0
 40
0.2333426736
 40
0.4810194242
 40
0.7388432976
 40
1.0
 40
1.0
 40
1.0
 40
1.0
 10
37.8252019114
 20
35.3068934136
 30
0.0
 10
37.8252019114
 20
35.2981319772
 30
0.0
 10
37.8219655137
 20
35.2799970131
 30
0.0
 10
37.8093684597
 20
35.2549300466
 30
0.0
 10
37.7902743239
 20
35.2330372963
 30
0.0
 10
37.7743846938
 20
35.2214454866
 30
0.0
 10
37.7658789412
 20
35.2165663911
 30
0.0
  0
SPLINE
  5
2AA
100
AcDbEntity
  8
0
100
AcDbSpline
 62
7
  6
BYLAYER
 70
0
 71
3
 72
11
 73
7
 74
0
 42
0.0000001
 43
0.0000001
 44
0.0000000001
 40
0.0
 40
0.0
 40
0.0
 40
0.0
 40
0.2611362341
 40
0.5189824116
 40
0.7666787818
 40
1.0
 40
1.0
 40
1.0
 40
1.0
 10
37.765862405
 20
48.1709468491
 30
0.0
 10
37.7743691871
 20
48.1660671631
 30
0.0
 10
37.7902644866
 20
48.1544763173
 30
0.0
 10
37.8093628583
 20
48.1325786594
 30
0.0
 10
37.8219681759
 20
48.1075082845
 30
0.0
 10
37.8252019114
 20
48.0893689644
 30
0.0
 10
37.8252019114
 20
48.0806065864
 30
0.0
  0
SPLINE
  5
2AB
100
AcDbEntity
  8
0
100
AcDbSpline
 62
7
  6
BYLAYER
 70
0
 71
3
 72
13
 73
9
 74
0
 42
0.0000001
 43
0.0000001
 44
0.0000000001
 40
0.0
 40
0.0
 40
0.0
 40
0.0
 40
0.2951435911
 40
0.4335039823
 40
0.5625846978
 40
0.7925000371
 40
0.8980278516
 40
1.0
 40
1.0
 40
1.0
 40
1.0
 10
6.8537792243
 20
30.39375
 30
0.0
 10
6.8537792243
 20
30.3665290626
 30
0.0
 10
6.859956952
 20
30.3261038904
 30
0.0
 10
6.8804154721
 20
30.2781825939
 30
0.0
 10
6.9055125258
 20
30.2396108156
 30
0.0
 10
6.9390253951
 20
30.2105509295
 30
0.0
 10
6.9770524385
 20
30.1961415947
 30
0.0
 10
6.9962666228
 20
30.19375
 30
0.0
 10
7.0056714601
 20
30.19375
 30
0.0
  0
SPLINE
  5
2AC
100
AcDbEntity
  8
0
100
AcDbSpline
 62
7
  6
BYLAYER
 70
0
 71
3
 72
13
 73
9
 74
0
 42
0.0000001
 43
0.0000001
 44
0.0000000001
 40
0.0
 40
0.0
 40
0.0
 40
0.0
 40
0.1019542656
 40
0.2074566517
 40
0.4374084788
 40
0.5665606187
 40
0.7049588921
 40
1.0
 40
1.0
 40
1.0
 40
1.0
 10
20.5447322714
 20
30.19375
 30
0.0
 10
20.5541354737
 20
30.19375
 30
0.0
 10
20.5733461158
 20
30.1961377311
 30
0.0
 10
20.6113724999
 20
30.2105467885
 30
0.0
 10
20.6448963747
 20
30.2396080878
 30
0.0
 10
20.6699898809
 20
30.278198445
 30
0.0
 10
20.6904535969
 20
30.32611783
 30
0.0
 10
20.6966245984
 20
30.3665384732
 30
0.0
 10
20.6966245984
 20
30.39375
 30
0.0
  0
SPLINE
  5
2AD
100
AcDbEntity
  8
0
100
AcDbSpline
 62
7
  6
BYLAYER
 70
0
 71
3
 72
11
 73
7
 74
0
 42
0.0000001
 43
0.0000001
 44
0.0000000001
 40
0.0
 40
0.0
 40
0.0
 40
0.0
 40
0.2314915562
 40
0.4727161218
 40
0.7297748385
 40
1.0
 40
1.0
 40
1.0
 40
1.0
 10
20.9487513825
 20
30.19375
 30
0.0
 10
20.9722231033
 20
30.19375
 30
0.0
 10
21.0206587011
 20
30.2033501063
 30
0.0
 10
21.0836109547
 20
30.2457051779
 30
0.0
 10
21.1277710001
 20
30.3122773117
 30
0.0
 10
21.138370308
 20
30.3663509464
 30
0.0
 10
21.138370308
 20
30.39375
 30
0.0
  0
SPLINE
  5
2AE
100
AcDbEntity
  8
0
100
AcDbSpline
 62
7
  6
BYLAYER
 70
0
 71
3
 72
11
 73
7
 74
0
 42
0.0000001
 43
0.0000001
 44
0.0000000001
 40
0.0
 40
0.0
 40
0.0
 40
0.0
 40
0.2703205273
 40
0.5272762955
 40
0.7684608431
 40
1.0
 40
1.0
 40
1.0
 40
1.0
 10
6.4120335147
 20
30.39375
 30
0.0
 10
6.4120335147
 20
30.3663413444
 30
0.0
 10
6.4226360379
 20
30.3122677547
 30
0.0
 10
6.4667980436
 20
30.245704984
 30
0.0
 10
6.5297397738
 20
30.2033545483
 30
0.0
 10
6.578175837
 20
30.19375
 30
0.0
 10
6.6016523264
 20
30.19375
 30
0.0
  0
SPLINE
  5
2AF
100
AcDbEntity
  8
0
100
AcDbSpline
 62
7
  6
BYLAYER
 70
0
 71
3
 72
11
 73
7
 74
0
 42
0.0000001
 43
0.0000001
 44
0.0000000001
 40
0.0
 40
0.0
 40
0.0
 40
0.0
 40
0.2574538349
 40
0.5044264579
 40
0.7484980978
 40
1.0
 40
1.0
 40
1.0
 40
1.0
 10
37.7658624051
 20
34.9877458318
 30
0.0
 10
37.774123446
 20
34.9895341832
 30
0.0
 10
37.7899536322
 20
34.9952816391
 30
0.0
 10
37.8096352642
 20
35.0107844535
 30
0.0
 10
37.8224159766
 20
35.0321898781
 30
0.0
 10
37.8252019114
 20
35.0486364239
 30
0.0
 10
37.8252019114
 20
35.0568934136
 30
0.0
  0
SPLINE
  5
2B0
100
AcDbEntity
  8
0
100
AcDbSpline
 62
7
  6
BYLAYER
 70
0
 71
3
 72
9
 73
5
 74
0
 42
0.0000001
 43
0.0000001
 44
0.0000000001
 40
0.0
 40
0.0
 40
0.0
 40
0.0
 40
0.5190886447
 40
1.0
 40
1.0
 40
1.0
 40
1.0
 10
18.4139653615
 20
24.3388144325
 30
0.0
 10
18.414316511
 20
24.2929273123
 30
0.0
 10
18.4243299583
 20
24.2043367438
 30
0.0
 10
18.4523943681
 20
24.1197632468
 30
0.0
 10
18.4700466737
 20
24.0810877361
 30
0.0
  0
SPLINE
  5
2B1
100
AcDbEntity
  8
0
100
AcDbSpline
 62
7
  6
BYLAYER
 70
0
 71
3
 72
11
 73
7
 74
0
 42
0.0000001
 43
0.0000001
 44
0.0000000001
 40
0.0
 40
0.0
 40
0.0
 40
0.0
 40
0.3038757773
 40
0.5673953081
 40
0.7960829776
 40
1.0
 40
1.0
 40
1.0
 40
1.0
 10
18.4891989369
 20
24.042924043
 30
0.0
 10
18.5061006353
 20
24.0121859
 30
0.0
 10
18.5431752715
 20
23.9575344583
 30
0.0
 10
18.610298752
 20
23.8936474566
 30
0.0
 10
18.6811428425
 20
23.8537179353
 30
0.0
 10
18.7313084241
 20
23.8437414224
 30
0.0
 10
18.7548479834
 20
23.84375
 30
0.0
  0
SPLINE
  5
2B2
100
AcDbEntity
  8
0
100
AcDbSpline
 62
7
  6
BYLAYER
 70
0
 71
3
 72
14
 73
10
 74
0
 42
0.0000001
 43
0.0000001
 44
0.0000000001
 40
0.0
 40
0.0
 40
0.0
 40
0.0
 40
0.1391861137
 40
0.2805805218
 40
0.420183901
 40
0.5545075048
 40
0.7957917953
 40
0.9024921199
 40
1.0
 40
1.0
 40
1.0
 40
1.0
 10
8.7955598089
 20
23.8437500001
 30
0.0
 10
8.7955594192
 20
23.8603104028
 30
0.0
 10
8.7985353579
 20
23.8937507386
 30
0.0
 10
8.8113850815
 20
23.9423353267
 30
0.0
 10
8.833031984
 20
23.9871139215
 30
0.0
 10
8.869500093
 20
24.0367148312
 30
0.0
 10
8.9169703338
 20
24.0721994075
 30
0.0
 10
8.9673297199
 20
24.089580812
 30
0.0
 10
8.9915584277
 20
24.0929901642
 30
0.0
 10
9.0031468487
 20
24.0935412049
 30
0.0
  0
SPLINE
  5
2B3
100
AcDbEntity
  8
0
100
AcDbSpline
 62
7
  6
BYLAYER
 70
0
 71
3
 72
9
 73
5
 74
0
 42
0.0000001
 43
0.0000001
 44
0.0000000001
 40
0.0
 40
0.0
 40
0.0
 40
0.0
 40
0.2383026113
 40
1.0
 40
1.0
 40
1.0
 40
1.0
 10
9.0859469957
 20
25.79375
 30
0.0
 10
9.0913581493
 20
25.7811182181
 30
0.0
 10
9.1122330391
 20
25.7273428938
 30
0.0
 10
9.1255025828
 20
25.6706299
 30
0.0
 10
9.1311131057
 20
25.6270655284
 30
0.0
  0
SPLINE
  5
2B4
100
AcDbEntity
  8
0
100
AcDbSpline
 62
7
  6
BYLAYER
 70
0
 71
3
 72
15
 73
11
 74
0
 42
0.0000001
 43
0.0000001
 44
0.0000000001
 40
0.0
 40
0.0
 40
0.0
 40
0.0
 40
0.1372991475
 40
0.2768732118
 40
0.4150622456
 40
0.5487670853
 40
0.674878874
 40
0.7924038101
 40
0.9007084735
 40
1.0
 40
1.0
 40
1.0
 40
1.0
 10
18.7548454035
 20
23.8437500001
 30
0.0
 10
18.7548457419
 20
23.8595319132
 30
0.0
 10
18.7521378239
 20
23.8914055067
 30
0.0
 10
18.7404483881
 20
23.9378959401
 30
0.0
 10
18.7207204206
 20
23.9811679358
 30
0.0
 10
18.6945653424
 20
24.0190125103
 30
0.0
 10
18.6633987926
 20
24.0495734271
 30
0.0
 10
18.6293854793
 20
24.0719292069
 30
0.0
 10
18.5946727652
 20
24.0863427788
 30
0.0
 10
18.5711561627
 20
24.0912212141
 30
0.0
 10
18.5598174961
 20
24.0925226417
 30
0.0
  0
SPLINE
  5
2B5
100
AcDbEntity
  8
0
100
AcDbSpline
 62
7
  6
BYLAYER
 70
0
 71
3
 72
9
 73
5
 74
0
 42
0.0000001
 43
0.0000001
 44
0.0000000001
 40
0.0
 40
0.0
 40
0.0
 40
0.0
 40
0.5190888673
 40
1.0
 40
1.0
 40
1.0
 40
1.0
 10
9.1364390156
 20
24.3388878804
 30
0.0
 10
9.1360929151
 20
24.2929894427
 30
0.0
 10
9.1260847035
 20
24.2043759129
 30
0.0
 10
9.098016586
 20
24.119780262
 30
0.0
 10
9.0803604805
 20
24.0810950411
 30
0.0
  0
SPLINE
  5
2B6
100
AcDbEntity
  8
0
100
AcDbSpline
 62
7
  6
BYLAYER
 70
0
 71
3
 72
11
 73
7
 74
0
 42
0.0000001
 43
0.0000001
 44
0.0000000001
 40
0.0
 40
0.0
 40
0.0
 40
0.0
 40
0.3055099782
 40
0.569536559
 40
0.7975917414
 40
1.0
 40
1.0
 40
1.0
 40
1.0
 10
9.0674801031
 20
24.0546645353
 30
0.0
 10
9.0506030123
 20
24.0221718961
 30
0.0
 10
9.013178161
 20
23.9643836658
 30
0.0
 10
8.9444936825
 20
23.8967201644
 30
0.0
 10
8.8716387681
 20
23.8543777092
 30
0.0
 10
8.8198137657
 20
23.843741169
 30
0.0
 10
8.7955558395
 20
23.84375
 30
0.0
  0
SPLINE
  5
2B7
100
AcDbEntity
  8
0
100
AcDbSpline
 62
7
  6
BYLAYER
 70
0
 71
3
 72
39
 73
35
 74
0
 42
0.0000001
 43
0.0000001
 44
0.0000000001
 40
0.0
 40
0.0
 40
0.0
 40
0.0
 40
0.0078005152
 40
0.0156126775
 40
0.0234278182
 40
0.0312428467
 40
0.0468607901
 40
0.0624848312
 40
0.0781104281
 40
0.0937365066
 40
0.1249847866
 40
0.156235499
 40
0.1874871083
 40
0.218739137
 40
0.2499913549
 40
0.3124938385
 40
0.3749974141
 40
0.4999996811
 40
0.6250021727
 40
0.687505851
 40
0.7500083961
 40
0.7812606376
 40
0.8125126807
 40
0.8437642953
 40
0.8750150157
 40
0.9062633038
 40
0.9218893895
 40
0.9375149973
 40
0.9531390454
 40
0.9687570225
 40
0.9765720573
 40
0.9843872521
 40
0.992199356
 40
1.0
 40
1.0
 40
1.0
 40
1.0
 10
12.7074940862
 20
22.44375
 30
0.0
 10
12.7074940862
 20
22.4379197568
 30
0.0
 10
12.7098127167
 20
22.4261717462
 30
0.0
 10
12.7185510266
 20
22.4107819832
 30
0.0
 10
12.7302525554
 20
22.3976282559
 30
0.0
 10
12.7481321504
 20
22.3825227425
 30
0.0
 10
12.7730514003
 20
22.3670740447
 30
0.0
 10
12.8047110402
 20
22.3520071088
 30
0.0
 10
12.837399632
 20
22.33932831
 30
0.0
 10
12.8818099335
 20
22.3247934206
 30
0.0
 10
12.9383576954
 20
22.3100349028
 30
0.0
 10
13.0070215395
 20
22.295966971
 30
0.0
 10
13.0761790355
 20
22.2845849982
 30
0.0
 10
13.1456412239
 20
22.275278827
 30
0.0
 10
13.2385243214
 20
22.2651006411
 30
0.0
 10
13.3549688139
 20
22.2557994981
 30
0.0
 10
13.5416014833
 20
22.2462449939
 30
0.0
 10
13.7752013694
 20
22.2420863019
 30
0.0
 10
14.0088013257
 20
22.2462450209
 30
0.0
 10
14.195434299
 20
22.2557993119
 30
0.0
 10
14.311878922
 20
22.2651005904
 30
0.0
 10
14.4047620978
 20
22.2752787364
 30
0.0
 10
14.4742243202
 20
22.2845849037
 30
0.0
 10
14.5433818291
 20
22.2959669204
 30
0.0
 10
14.6120457053
 20
22.3100347738
 30
0.0
 10
14.6685934856
 20
22.3247932937
 30
0.0
 10
14.7130038142
 20
22.3393281593
 30
0.0
 10
14.7456924416
 20
22.3520069229
 30
0.0
 10
14.7773521029
 20
22.3670738982
 30
0.0
 10
14.80227143
 20
22.3825225371
 30
0.0
 10
14.8201510862
 20
22.3976280923
 30
0.0
 10
14.8318526195
 20
22.4107818095
 30
0.0
 10
14.8405910983
 20
22.4261715821
 30
0.0
 10
14.8429097366
 20
22.4379196606
 30
0.0
 10
14.8429097366
 20
22.44375
 30
0.0
  0
SPLINE
  5
2B8
100
AcDbEntity
  8
0
100
AcDbSpline
 62
7
  6
BYLAYER
 70
0
 71
3
 72
11
 73
7
 74
0
 42
0.0000001
 43
0.0000001
 44
0.0000000001
 40
0.0
 40
0.0
 40
0.0
 40
0.0
 40
0.2515201901
 40
0.4955792554
 40
0.7425312788
 40
1.0
 40
1.0
 40
1.0
 40
1.0
 10
37.8252019114
 20
48.3306065864
 30
0.0
 10
37.8252019114
 20
48.3388624958
 30
0.0
 10
37.8224129415
 20
48.3553048378
 30
0.0
 10
37.8096408871
 20
48.3767084371
 30
0.0
 10
37.7899639707
 20
48.3922081767
 30
0.0
 10
37.7741387782
 20
48.397958743
 30
0.0
 10
37.7658789412
 20
48.3997468339
 30
0.0
  0
SPLINE
  5
2B9
100
AcDbEntity
  8
0
100
AcDbSpline
 62
7
  6
BYLAYER
 70
0
 71
3
 72
40
 73
36
 74
0
 42
0.0000001
 43
0.0000001
 44
0.0000000001
 40
0.0
 40
0.0
 40
0.0
 40
0.0
 40
0.0000383209
 40
0.0000801546
 40
0.0001608425
 40
0.0002860008
 40
0.0004566689
 40
0.0006730381
 40
0.0012424867
 40
0.0019928854
 40
0.0029222013
 40
0.0040282366
 40
0.0053087263
 40
0.0083838785
 40
0.0121292009
 40
0.0165262345
 40
0.021557773
 40
0.0334893922
 40
0.0478692296
 40
0.0646452488
 40
0.0837636882
 40
0.1051388939
 40
0.128657052
 40
0.1542033727
 40
0.181664539
 40
0.2419307244
 40
0.3086835138
 40
0.3811603103
 40
0.4586418349
 40
0.540576103
 40
0.6264539669
 40
0.7157536789
 40
0.8079843563
 40
0.9028196356
 40
1.0
 40
1.0
 40
1.0
 40
1.0
 10
22.0252019114
 20
32.69375
 30
0.0
 10
22.0252726532
 20
32.69375
 30
0.0
 10
22.0254620378
 20
32.6938003785
 30
0.0
 10
22.0253670829
 20
32.6941554818
 30
0.0
 10
22.0251184609
 20
32.6945039734
 30
0.0
 10
22.0246708818
 20
32.6950557349
 30
0.0
 10
22.0240229277
 20
32.6957366413
 30
0.0
 10
22.0227664139
 20
32.6969816449
 30
0.0
 10
22.020679449
 20
32.6988998587
 30
0.0
 10
22.0175684349
 20
32.7016508931
 30
0.0
 10
22.0136746377
 20
32.7050098633
 30
0.0
 10
22.0090131214
 20
32.7089772672
 30
0.0
 10
22.0013093754
 20
32.7154817078
 30
0.0
 10
21.98985539
 20
32.7250967781
 30
0.0
 10
21.974007549
 20
32.7384258556
 30
0.0
 10
21.9554456587
 20
32.7541388501
 30
0.0
 10
21.9254762845
 20
32.779765127
 30
0.0
 10
21.8816923155
 20
32.8175911134
 30
0.0
 10
21.8215995162
 20
32.8697028021
 30
0.0
 10
21.7514614847
 20
32.930481312
 30
0.0
 10
21.6714199653
 20
32.9995501022
 30
0.0
 10
21.5817821933
 20
33.0765488073
 30
0.0
 10
21.4829938303
 20
33.1611051877
 30
0.0
 10
21.3755238019
 20
33.2527958938
 30
0.0
 10
21.2162593783
 20
33.3882977468
 30
0.0
 10
20.9985568092
 20
33.5725028676
 30
0.0
 10
20.7161859609
 20
33.8089255299
 30
0.0
 10
20.408109586
 20
34.0641421711
 30
0.0
 10
20.0770176204
 20
34.3355003426
 30
0.0
 10
19.7242339273
 20
34.6193992026
 30
0.0
 10
19.3509369762
 20
34.9125580326
 30
0.0
 10
18.9590718962
 20
35.2127877032
 30
0.0
 10
18.5503160323
 20
35.5181117678
 30
0.0
 10
18.1244957756
 20
35.8247841176
 30
0.0
 10
17.8323165461
 20
36.0255666166
 30
0.0
 10
17.682948197
 20
36.1249292407
 30
0.0
  0
SPLINE
  5
2BA
100
AcDbEntity
  8
0
100
AcDbSpline
 62
7
  6
BYLAYER
 70
0
 71
3
 72
11
 73
7
 74
0
 42
0.0000001
 43
0.0000001
 44
0.0000000001
 40
0.0
 40
0.0
 40
0.0
 40
0.0
 40
0.2446036578
 40
0.4931689976
 40
0.745212578
 40
1.0
 40
1.0
 40
1.0
 40
1.0
 10
17.682948197
 20
36.1249292407
 30
0.0
 10
17.5555006185
 20
36.2097097576
 30
0.0
 10
17.2963141648
 20
36.3773394673
 30
0.0
 10
16.8966099915
 20
36.6177667928
 30
0.0
 10
16.4827468622
 20
36.8464177606
 30
0.0
 10
16.1994113435
 20
36.9891714693
 30
0.0
 10
16.0556086952
 20
37.0580412172
 30
0.0
  0
SPLINE
  5
2BB
100
AcDbEntity
  8
0
100
AcDbSpline
 62
7
  6
BYLAYER
 70
0
 71
3
 72
9
 73
5
 74
0
 42
0.0000001
 43
0.0000001
 44
0.0000000001
 40
0.0
 40
0.0
 40
0.0
 40
0.0
 40
0.260942409
 40
1.0
 40
1.0
 40
1.0
 40
1.0
 10
18.4193695302
 20
25.627673309
 30
0.0
 10
18.4212989409
 20
25.6425440529
 30
0.0
 10
18.4306712531
 20
25.6992570342
 30
0.0
 10
18.447733172
 20
25.7547103381
 30
0.0
 10
18.4644568338
 20
25.79375
 30
0.0
  0
SPLINE
  5
2BC
100
AcDbEntity
  8
0
100
AcDbSpline
 62
7
  6
BYLAYER
 70
0
 71
3
 72
41
 73
37
 74
0
 42
0.0000001
 43
0.0000001
 44
0.0000000001
 40
0.0
 40
0.0
 40
0.0
 40
0.0
 40
0.0000191987
 40
0.0000764902
 40
0.0001718545
 40
0.0003052717
 40
0.0004767217
 40
0.0006861845
 40
0.0012190681
 40
0.0019037623
 40
0.0027401068
 40
0.0037279412
 40
0.0048671052
 40
0.0075987809
 40
0.0109338521
 40
0.0148709118
 40
0.0194070351
 40
0.0245382861
 40
0.0302607128
 40
0.0434632965
 40
0.0589824334
 40
0.0767755007
 40
0.0967927019
 40
0.1189839894
 40
0.1432926414
 40
0.1696537983
 40
0.1980022477
 40
0.2282690633
 40
0.2942487036
 40
0.366956188
 40
0.4456938385
 40
0.5297193874
 40
0.6182436966
 40
0.7104200187
 40
0.8053787561
 40
1.0
 40
1.0
 40
1.0
 40
1.0
 10
5.7752019114
 20
48.69375
 30
0.0
 10
5.7752372916
 20
48.6937127222
 30
0.0
 10
5.7754768612
 20
48.6937516151
 30
0.0
 10
5.7758957258
 20
48.693614082
 30
0.0
 10
5.7766731449
 20
48.6935368566
 30
0.0
 10
5.7777232918
 20
48.6933582911
 30
0.0
 10
5.7790879423
 20
48.6931576343
 30
0.0
 10
5.7815046936
 20
48.6927867852
 30
0.0
 10
5.7852826836
 20
48.6922156303
 30
0.0
 10
5.7907184753
 20
48.6913911652
 30
0.0
 10
5.7973593085
 20
48.6903871029
 30
0.0
 10
5.8052030999
 20
48.6892024263
 30
0.0
 10
5.8180642601
 20
48.6872630434
 30
0.0
 10
5.8371395683
 20
48.6843929058
 30
0.0
 10
5.863623025
 20
48.680419066
 30
0.0
 10
5.894885212
 20
48.6757401497
 30
0.0
 10
5.9309056449
 20
48.6703688004
 30
0.0
 10
5.9716574701
 20
48.6643213101
 30
0.0
 10
6.0353654859
 20
48.6549197199
 30
0.0
 10
6.1266025709
 20
48.6415867962
 30
0.0
 10
6.2498481015
 20
48.6238241406
 30
0.0
 10
6.3911974485
 20
48.6037933551
 30
0.0
 10
6.5502929983
 20
48.5816958979
 30
0.0
 10
6.7267378263
 20
48.5577303711
 30
0.0
 10
6.920096939
 20
48.5321209725
 30
0.0
 10
7.1298970564
 20
48.5051211611
 30
0.0
 10
7.3556304212
 20
48.4769830349
 30
0.0
 10
7.6867797471
 20
48.4371353505
 30
0.0
 10
8.1362035085
 20
48.3862707862
 30
0.0
 10
8.7152034575
 20
48.326746768
 30
0.0
 10
9.3429507954
 20
48.2693757349
 30
0.0
 10
10.0135666188
 20
48.2163565878
 30
0.0
 10
10.720720991
 20
48.1697893143
 30
0.0
 10
11.4576847359
 20
48.1314563772
 30
0.0
 10
12.4789405722
 20
48.0931100897
 30
0.0
 10
13.254205923
 20
48.0813769414
 30
0.0
 10
13.7752019114
 20
48.0813762352
 30
0.0
  0
SPLINE
  5
2BD
100
AcDbEntity
  8
0
100
AcDbSpline
 62
7
  6
BYLAYER
 70
0
 71
3
 72
33
 73
29
 74
0
 42
0.0000001
 43
0.0000001
 44
0.0000000001
 40
0.0
 40
0.0
 40
0.0
 40
0.0
 40
0.0000761711
 40
0.0003033505
 40
0.0006813467
 40
0.0012099687
 40
0.0027183249
 40
0.0048268899
 40
0.0075341355
 40
0.0108385344
 40
0.0147385602
 40
0.0192326874
 40
0.0299930141
 40
0.0430866899
 40
0.0584768507
 40
0.0761267455
 40
0.0959963668
 40
0.1180323701
 40
0.1683777685
 40
0.2266912976
 40
0.2924130572
 40
0.3649449597
 40
0.4436085575
 40
0.5276904878
 40
0.6163967802
 40
0.7089001215
 40
0.804297552
 40
1.0
 40
1.0
 40
1.0
 40
1.0
 10
7.7751996908
 20
50.6937493031
 30
0.0
 10
7.7753413132
 20
50.6936900181
 30
0.0
 10
7.7759588713
 20
50.6936234172
 30
0.0
 10
7.7772814732
 20
50.693270531
 30
0.0
 10
7.7795258134
 20
50.6928208522
 30
0.0
 10
7.7842766605
 20
50.6917703088
 30
0.0
 10
7.7924494439
 20
50.6900237829
 30
0.0
 10
7.8049092846
 20
50.6873369187
 30
0.0
 10
7.8209141133
 20
50.6839109851
 30
0.0
 10
7.8404513804
 20
50.6797384331
 30
0.0
 10
7.8635148421
 20
50.6748316588
 30
0.0
 10
7.9012828955
 20
50.6668233113
 30
0.0
 10
7.957192803
 20
50.6550378793
 30
0.0
 10
8.0346322318
 20
50.638911882
 30
0.0
 10
8.1257221954
 20
50.6202233377
 30
0.0
 10
8.230261171
 20
50.5991341837
 30
0.0
 10
8.3480148198
 20
50.5758149232
 30
0.0
 10
8.5305644216
 20
50.5404600994
 30
0.0
 10
8.7895534512
 20
50.4922735525
 30
0.0
 10
9.1357927666
 20
50.4317470974
 30
0.0
 10
9.5269258748
 20
50.368503165
 30
0.0
 10
9.9595111202
 20
50.3049064387
 30
0.0
 10
10.4297489216
 20
50.2433685924
 30
0.0
 10
10.9333857891
 20
50.1863533216
 30
0.0
 10
11.4657659596
 20
50.1360243633
 30
0.0
 10
12.0217946389
 20
50.0945793663
 30
0.0
 10
12.7938965493
 20
50.0528782822
 30
0.0
 10
13.3807439603
 20
50.0401377996
 30
0.0
 10
13.7752019114
 20
50.040138097
 30
0.0
  0
SPLINE
  5
2BE
100
AcDbEntity
  8
0
100
AcDbSpline
 62
7
  6
BYLAYER
 70
0
 71
3
 72
11
 73
7
 74
0
 42
0.0000001
 43
0.0000001
 44
0.0000000001
 40
0.0
 40
0.0
 40
0.0
 40
0.0
 40
0.2501068455
 40
0.5003080765
 40
0.7502902164
 40
1.0
 40
1.0
 40
1.0
 40
1.0
 10
7.2544285763
 20
30.19375
 30
0.0
 10
7.2267760844
 20
30.19375
 30
0.0
 10
7.171012204
 20
30.2028754211
 30
0.0
 10
7.0968913018
 20
30.2439010434
 30
0.0
 10
7.0432469871
 20
30.3101390709
 30
0.0
 10
7.0298136032
 20
30.3661414084
 30
0.0
 10
7.0298136032
 20
30.39375
 30
0.0
  0
SPLINE
  5
2BF
100
AcDbEntity
  8
0
100
AcDbSpline
 62
7
  6
BYLAYER
 70
0
 71
3
 72
18
 73
14
 74
0
 42
0.0000001
 43
0.0000001
 44
0.0000000001
 40
0.0
 40
0.0
 40
0.0
 40
0.0
 40
0.2057388678
 40
0.401494086
 40
0.5766328148
 40
0.7251745891
 40
0.8430307094
 40
0.889865372
 40
0.9283830444
 40
0.9584952578
 40
0.980246519
 40
0.993795207
 40
1.0
 40
1.0
 40
1.0
 40
1.0
 10
10.7322203846
 20
30.39375
 30
0.0
 10
10.7322203846
 20
30.3799740991
 30
0.0
 10
10.7320818553
 20
30.3530905336
 30
0.0
 10
10.7314933251
 20
30.3144843008
 30
0.0
 10
10.7305512691
 20
30.2797147231
 30
0.0
 10
10.7293342049
 20
30.2501766978
 30
0.0
 10
10.7280705013
 20
30.2292332664
 30
0.0
 10
10.7269220137
 20
30.2156831159
 30
0.0
 10
10.7260845655
 20
30.2079781067
 30
0.0
 10
10.7252742857
 20
30.2020278826
 30
0.0
 10
10.7243661261
 20
30.1976231535
 30
0.0
 10
10.723695261
 20
30.1951473412
 30
0.0
 10
10.7228289453
 20
30.19375
 30
0.0
 10
10.7224134836
 20
30.19375
 30
0.0
  0
SPLINE
  5
2C0
100
AcDbEntity
  8
0
100
AcDbSpline
 62
7
  6
BYLAYER
 70
0
 71
3
 72
14
 73
10
 74
0
 42
0.0000001
 43
0.0000001
 44
0.0000000001
 40
0.0
 40
0.0
 40
0.0
 40
0.0
 40
0.1070631528
 40
0.2168796655
 40
0.3312764384
 40
0.4518135352
 40
0.5797861096
 40
0.7150895467
 40
1.0
 40
1.0
 40
1.0
 40
1.0
 10
11.3229662666
 20
30.19375
 30
0.0
 10
11.3127165955
 20
30.19375
 30
0.0
 10
11.29188487
 20
30.1961072439
 30
0.0
 10
11.2616872261
 20
30.2065619887
 30
0.0
 10
11.2333296351
 20
30.2239307465
 30
0.0
 10
11.2078535971
 20
30.2478900236
 30
0.0
 10
11.1863758858
 20
30.27799174
 30
0.0
 10
11.1640822515
 20
30.3257310983
 30
0.0
 10
11.1572049695
 20
30.3664741506
 30
0.0
 10
11.1572049695
 20
30.39375
 30
0.0
  0
SPLINE
  5
2C1
100
AcDbEntity
  8
0
100
AcDbSpline
 62
7
  6
BYLAYER
 70
0
 71
3
 72
15
 73
11
 74
0
 42
0.0000001
 43
0.0000001
 44
0.0000000001
 40
0.0
 40
0.0
 40
0.0
 40
0.0
 40
0.1854821683
 40
0.3628612185
 40
0.5234625366
 40
0.6628215631
 40
0.7784543015
 40
0.8706240126
 40
0.9420177612
 40
1.0
 40
1.0
 40
1.0
 40
1.0
 10
12.5817424265
 20
30.39375
 30
0.0
 10
12.5817424265
 20
30.3799655732
 30
0.0
 10
12.5807822528
 20
30.3529903648
 30
0.0
 10
12.576701961
 20
30.3142685299
 30
0.0
 10
12.5701565576
 20
30.2793585166
 30
0.0
 10
12.5616644102
 20
30.2496076828
 30
0.0
 10
12.5516220042
 20
30.225747755
 30
0.0
 10
12.5403987806
 20
30.2081415472
 30
0.0
 10
12.5280972029
 20
30.1967521355
 30
0.0
 10
12.5184441077
 20
30.19375
 30
0.0
 10
12.5141350578
 20
30.19375
 30
0.0
  0
SPLINE
  5
2C2
100
AcDbEntity
  8
0
100
AcDbSpline
 62
7
  6
BYLAYER
 70
0
 71
3
 72
14
 73
10
 74
0
 42
0.0000001
 43
0.0000001
 44
0.0000000001
 40
0.0
 40
0.0
 40
0.0
 40
0.0
 40
0.0882499517
 40
0.1823899328
 40
0.286744266
 40
0.4041431632
 40
0.5360843935
 40
0.6817068606
 40
1.0
 40
1.0
 40
1.0
 40
1.0
 10
13.158607575
 20
30.19375
 30
0.0
 10
13.1510973051
 20
30.19375
 30
0.0
 10
13.1354889159
 20
30.1962257805
 30
0.0
 10
13.1132669963
 20
30.2070012832
 30
0.0
 10
13.0926371085
 20
30.2246197627
 30
0.0
 10
13.0742365036
 20
30.2486706208
 30
0.0
 10
13.0587761982
 20
30.2786914756
 30
0.0
 10
13.0425404791
 20
30.3268682556
 30
0.0
 10
13.0378070627
 20
30.3666625362
 30
0.0
 10
13.0378070627
 20
30.39375
 30
0.0
  0
SPLINE
  5
2C3
100
AcDbEntity
  8
0
100
AcDbSpline
 62
7
  6
BYLAYER
 70
0
 71
3
 72
9
 73
5
 74
0
 42
0.0000001
 43
0.0000001
 44
0.0000000001
 40
0.0
 40
0.0
 40
0.0
 40
0.0
 40
0.4960709698
 40
1.0
 40
1.0
 40
1.0
 40
1.0
 10
15.9865058715
 20
36.9292725177
 30
0.0
 10
15.6162981415
 20
37.1119929551
 30
0.0
 10
14.8771487753
 20
37.4947233148
 30
0.0
 10
14.1444401216
 20
37.8893364716
 30
0.0
 10
13.7752030927
 20
38.0882009104
 30
0.0
  0
SPLINE
  5
2C4
100
AcDbEntity
  8
0
100
AcDbSpline
 62
7
  6
BYLAYER
 70
0
 71
3
 72
15
 73
11
 74
0
 42
0.0000001
 43
0.0000001
 44
0.0000000001
 40
0.0
 40
0.0
 40
0.0
 40
0.0
 40
0.1620945315
 40
0.3188433476
 40
0.4643320895
 40
0.5961121991
 40
0.7134054559
 40
0.8176883566
 40
0.9117908865
 40
1.0
 40
1.0
 40
1.0
 40
1.0
 10
14.51259676
 20
30.39375
 30
0.0
 10
14.51259676
 20
30.3799464964
 30
0.0
 10
14.5108607256
 20
30.3527676345
 30
0.0
 10
14.5034808279
 20
30.3138118568
 30
0.0
 10
14.4916210896
 20
30.2786714163
 30
0.0
 10
14.4761647971
 20
30.2486719349
 30
0.0
 10
14.4577718022
 20
30.2246252785
 30
0.0
 10
14.4371434017
 20
30.2070066498
 30
0.0
 10
14.4149192121
 20
30.1962295497
 30
0.0
 10
14.3993078882
 20
30.19375
 30
0.0
 10
14.391796254
 20
30.19375
 30
0.0
  0
SPLINE
  5
2C5
100
AcDbEntity
  8
0
100
AcDbSpline
 62
7
  6
BYLAYER
 70
0
 71
3
 72
15
 73
11
 74
0
 42
0.0000001
 43
0.0000001
 44
0.0000000001
 40
0.0
 40
0.0
 40
0.0
 40
0.0
 40
0.0579694844
 40
0.1293428191
 40
0.2215126673
 40
0.3371714318
 40
0.4766172881
 40
0.6372623142
 40
0.8145563609
 40
1.0
 40
1.0
 40
1.0
 40
1.0
 10
15.0362687685
 20
30.19375
 30
0.0
 10
15.0319606455
 20
30.19375
 30
0.0
 10
15.0223091538
 20
30.1967480158
 30
0.0
 10
15.0100087792
 20
30.2081361852
 30
0.0
 10
14.9987846316
 20
30.2257419843
 30
0.0
 10
14.9887368063
 20
30.24960921
 30
0.0
 10
14.9802468337
 20
30.2793730241
 30
0.0
 10
14.9736997282
 20
30.3142860652
 30
0.0
 10
14.9696170588
 20
30.3530020569
 30
0.0
 10
14.9686613962
 20
30.3799683696
 30
0.0
 10
14.9686613962
 20
30.39375
 30
0.0
  0
SPLINE
  5
2C6
100
AcDbEntity
  8
0
100
AcDbSpline
 62
7
  6
BYLAYER
 70
0
 71
3
 72
26
 73
22
 74
0
 42
0.0000001
 43
0.0000001
 44
0.0000000001
 40
0.0
 40
0.0
 40
0.0
 40
0.0
 40
0.0003472013
 40
0.0013805157
 40
0.0030947068
 40
0.0054845386
 40
0.0122701804
 40
0.0216955552
 40
0.0337183766
 40
0.0482742603
 40
0.0652657153
 40
0.0845925468
 40
0.1298511629
 40
0.1832219903
 40
0.2438378251
 40
0.3108531504
 40
0.3835145754
 40
0.4611020656
 40
0.6286659615
 40
0.809373115
 40
1.0
 40
1.0
 40
1.0
 40
1.0
 10
21.7751973349
 20
32.4437522135
 30
0.0
 10
21.7747215495
 20
32.4442299934
 30
0.0
 10
21.7727014345
 20
32.4459963051
 30
0.0
 10
21.7683260379
 20
32.4501148851
 30
0.0
 10
21.7609580217
 20
32.4568430298
 30
0.0
 10
21.7454070466
 20
32.4711742643
 30
0.0
 10
21.7187949676
 20
32.4956021285
 30
0.0
 10
21.678404656
 20
32.5326834403
 30
0.0
 10
21.6268650317
 20
32.5799338788
 30
0.0
 10
21.564460086
 20
32.6370759173
 30
0.0
 10
21.4915278438
 20
32.7037252038
 30
0.0
 10
21.3744590446
 20
32.8104641949
 30
0.0
 10
21.2048774643
 20
32.9644680783
 30
0.0
 10
20.9752700957
 20
33.1716435399
 30
0.0
 10
20.7133132525
 20
33.4060345302
 30
0.0
 10
20.4221611309
 20
33.6639728288
 30
0.0
 10
20.1045881019
 20
33.9417821035
 30
0.0
 10
19.6370573552
 20
34.344715187
 30
0.0
 10
19.0030127151
 20
34.8758422466
 30
0.0
 10
18.18269827
 20
35.5259484981
 30
0.0
 10
17.5988593837
 20
35.9500183262
 30
0.0
 10
17.2920814676
 20
36.1572309793
 30
0.0
  0
SPLINE
  5
2C7
100
AcDbEntity
  8
0
100
AcDbSpline
 62
7
  6
BYLAYER
 70
0
 71
3
 72
9
 73
5
 74
0
 42
0.0000001
 43
0.0000001
 44
0.0000000001
 40
0.0
 40
0.0
 40
0.0
 40
0.0
 40
0.246219879
 40
1.0
 40
1.0
 40
1.0
 40
1.0
 10
17.2920814676
 20
36.1572309793
 30
0.0
 10
17.1888839478
 20
36.226935579
 30
0.0
 10
16.7667160931
 20
36.5053440173
 30
0.0
 10
16.328437097
 20
36.7606532893
 30
0.0
 10
15.9865154497
 20
36.929290473
 30
0.0
  0
SPLINE
  5
2C8
100
AcDbEntity
  8
0
100
AcDbSpline
 62
7
  6
BYLAYER
 70
0
 71
3
 72
11
 73
7
 74
0
 42
0.0000001
 43
0.0000001
 44
0.0000000001
 40
0.0
 40
0.0
 40
0.0
 40
0.0
 40
0.2860590739
 40
0.5490699567
 40
0.7835896374
 40
1.0
 40
1.0
 40
1.0
 40
1.0
 10
16.3931988532
 20
30.39375
 30
0.0
 10
16.3931988532
 20
30.3664647286
 30
0.0
 10
16.3843025779
 20
30.3136094853
 30
0.0
 10
16.3465798844
 20
30.247193935
 30
0.0
 10
16.2916092802
 20
30.2038723347
 30
0.0
 10
16.2480795091
 20
30.19375
 30
0.0
 10
16.2274375648
 20
30.19375
 30
0.0
  0
SPLINE
  5
2C9
100
AcDbEntity
  8
0
100
AcDbSpline
 62
7
  6
BYLAYER
 70
0
 71
3
 72
18
 73
14
 74
0
 42
0.0000001
 43
0.0000001
 44
0.0000000001
 40
0.0
 40
0.0
 40
0.0
 40
0.0
 40
0.0062013266
 40
0.0197398436
 40
0.041479725
 40
0.0715844376
 40
0.1101005922
 40
0.1569340599
 40
0.2748149251
 40
0.423454003
 40
0.5986412267
 40
0.7943027287
 40
1.0
 40
1.0
 40
1.0
 40
1.0
 10
16.8279903396
 20
30.19375
 30
0.0
 10
16.8275751095
 20
30.19375
 30
0.0
 10
16.82670861
 20
30.1951455196
 30
0.0
 10
16.8260380002
 20
30.1976202793
 30
0.0
 10
16.8251299626
 20
30.2020227608
 30
0.0
 10
16.8243199121
 20
30.2079717635
 30
0.0
 10
16.8234825178
 20
30.2156760605
 30
0.0
 10
16.8223335943
 20
30.2292276916
 30
0.0
 10
16.8210692304
 20
30.2501792194
 30
0.0
 10
16.8198525085
 20
30.2797287361
 30
0.0
 10
16.8189101829
 20
30.3145018398
 30
0.0
 10
16.8183213138
 20
30.3531023156
 30
0.0
 10
16.8181834381
 20
30.3799768638
 30
0.0
 10
16.8181834381
 20
30.39375
 30
0.0
  0
SPLINE
  5
2CA
100
AcDbEntity
  8
0
100
AcDbSpline
 62
7
  6
BYLAYER
 70
0
 71
3
 72
11
 73
7
 74
0
 42
0.0000001
 43
0.0000001
 44
0.0000000001
 40
0.0
 40
0.0
 40
0.0
 40
0.0
 40
0.2497965598
 40
0.499686242
 40
0.749841835
 40
1.0
 40
1.0
 40
1.0
 40
1.0
 10
20.5205902195
 20
30.39375
 30
0.0
 10
20.5205902195
 20
30.3661318502
 30
0.0
 10
20.5071537065
 20
30.3101287579
 30
0.0
 10
20.4535064044
 20
30.2439034754
 30
0.0
 10
20.3793979375
 20
30.2028785662
 30
0.0
 10
20.3236331091
 20
30.19375
 30
0.0
 10
20.2959749793
 20
30.19375
 30
0.0
  0
SPLINE
  5
2CB
100
AcDbEntity
  8
0
100
AcDbSpline
 62
7
  6
BYLAYER
 70
0
 71
3
 72
12
 73
8
 74
0
 42
0.0000001
 43
0.0000001
 44
0.0000000001
 40
0.0
 40
0.0
 40
0.0
 40
0.0
 40
0.2551353416
 40
0.3821255103
 40
0.507869096
 40
0.755193833
 40
1.0
 40
1.0
 40
1.0
 40
1.0
 10
21.0783282596
 20
30.39375
 30
0.0
 10
21.0783282596
 20
30.3661963997
 30
0.0
 10
21.068772581
 20
30.3242463162
 30
0.0
 10
21.0400101676
 20
30.2772199354
 30
0.0
 10
21.0029600677
 20
30.2374537866
 30
0.0
 10
20.9439287811
 20
30.2029676275
 30
0.0
 10
20.8903429045
 20
30.19375
 30
0.0
 10
20.863904814
 20
30.19375
 30
0.0
  0
SPLINE
  5
2CC
100
AcDbEntity
  8
0
100
AcDbSpline
 62
7
  6
BYLAYER
 70
0
 71
3
 72
9
 73
5
 74
0
 42
0.0000001
 43
0.0000001
 44
0.0000000001
 40
0.0
 40
0.0
 40
0.0
 40
0.0
 40
0.5127360268
 40
1.0
 40
1.0
 40
1.0
 40
1.0
 10
15.9865058027
 20
36.9292725516
 30
0.0
 10
15.9966118579
 20
36.9521337325
 30
0.0
 10
16.01812527
 20
36.9959292057
 30
0.0
 10
16.0426428086
 20
37.0381382043
 30
0.0
 10
16.055608754
 20
37.0580408925
 30
0.0
  0
SPLINE
  5
2CD
100
AcDbEntity
  8
0
100
AcDbSpline
 62
7
  6
BYLAYER
 70
0
 71
3
 72
10
 73
6
 74
0
 42
0.0000001
 43
0.0000001
 44
0.0000000001
 40
0.0
 40
0.0
 40
0.0
 40
0.0
 40
0.5032984067
 40
0.7529252962
 40
1.0
 40
1.0
 40
1.0
 40
1.0
 10
13.7752019114
 20
38.0881987245
 30
0.0
 10
14.155988442
 20
37.9114271218
 30
0.0
 10
14.7256286001
 20
37.6469315158
 30
0.0
 10
15.4861583657
 20
37.3043104633
 30
0.0
 10
15.8659645614
 20
37.1387220417
 30
0.0
 10
16.0556086952
 20
37.0580412172
 30
0.0
  0
SPLINE
  5
2CE
100
AcDbEntity
  8
0
100
AcDbSpline
 62
7
  6
BYLAYER
 70
0
 71
3
 72
12
 73
8
 74
0
 42
0.0000001
 43
0.0000001
 44
0.0000000001
 40
0.0
 40
0.0
 40
0.0
 40
0.0
 40
0.2447561106
 40
0.4921258461
 40
0.6179291167
 40
0.7449525754
 40
1.0
 40
1.0
 40
1.0
 40
1.0
 10
6.6864987537
 20
30.19375
 30
0.0
 10
6.6600660721
 20
30.19375
 30
0.0
 10
6.6064822872
 20
30.2029654153
 30
0.0
 10
6.5474381504
 20
30.2374475883
 30
0.0
 10
6.5103898
 20
30.2772357959
 30
0.0
 10
6.4816238314
 20
30.3242602049
 30
0.0
 10
6.4720755631
 20
30.3662058976
 30
0.0
 10
6.4720755631
 20
30.39375
 30
0.0
  0
ELLIPSE
  5
2CF
100
AcDbEntity
  8
0
100
AcDbEllipse
 62
7
  6
BYLAYER
 10
37.1252019114
 20
41.69375
 30
0.0
 11
20.4047686873
 21
-4.0147354537
 31
0.0
 40
0.2987966333
 41
4.8043933932
 42
4.8053643247
  0
ELLIPSE
  5
2D0
100
AcDbEntity
  8
0
100
AcDbEllipse
 62
7
  6
BYLAYER
 10
37.1252019114
 20
41.69375
 30
0.0
 11
20.4047686873
 21
4.0147354537
 31
0.0
 40
0.2987966333
 41
7.7610062897
 42
7.7619776672
  0
ENDSEC
  0
SECTION
  2
OBJECTS
  0
DICTIONARY
  5
C
100
AcDbDictionary
280
0
281
1
  3
ACAD_GROUP
350
D
  3
ACAD_MLINESTYLE
350
17
  3
ACAD_LAYOUT
350
1A
  3
ACAD_PLOTSETTINGS
350
19
  3
ACAD_PLOTSTYLENAME
350
E
  0
DICTIONARY
  5
D
102
{ACAD_REACTORS
330
C
102
}
100
AcDbDictionary
280
0
281
1
  0
ACDBDICTIONARYWDFLT
  5
E
102
{ACAD_REACTORS
330
C
102
}
100
AcDbDictionary
281
1
  3
Normal
350
F
100
AcDbDictionaryWithDefault
340
F
  0
DICTIONARY
  5
17
102
{ACAD_REACTORS
330
C
102
}
100
AcDbDictionary
280
0
281
1
  3
Standard
350
18
  0
DICTIONARY
  5
19
102
{ACAD_REACTORS
330
C
102
}
100
AcDbDictionary
281
1
  0
DICTIONARY
  5
1A
102
{ACAD_REACTORS
330
C
102
}
100
AcDbDictionary
281
1
  3
Model
350
2D1
  3
Layout1
350
2D2
  0
ACDBPLACEHOLDER
  5
F
102
{ACAD_REACTORS
330
E
102
}
  0
MLINESTYLE
  5
18
102
{ACAD_REACTORS
330
17
102
}
100
AcDbMlineStyle
  2
STANDARD
 70
0
  3

 62
256
 51
90.0
 52
90.0
 71
2
 49
0.5
 62
256
  6
BYLAYER
 49
-0.5
 62
256
  6
BYLAYER
  0
LAYOUT
  5
2D1
102
{ACAD_REACTORS
330
1A
102
}
100
AcDbPlotSettings
  1

  2
none_device
  4

  6

 40
0.0
 41
0.0
 42
0.0
 43
0.0
 44
210.0
 45
297.0
 46
0.0
 47
0.0
 48
0.0
 49
0.0
140
0.0
141
0.0
142
1.0
143
1.0
 70
1024
 72
1
 73
0
 74
0
  7

 75
0
147
1.0
148
0.0
149
0.0
100
AcDbLayout
  1
Model
 70
0
 71
0
 10
0.0
 20
0.0
 11
210.0
 21
297.0
 12
0.0
 22
0.0
 32
0.0
 14
0.0
 24
0.0
 34
0.0
 15
0.0
 25
0.0
 35
0.0
146
0.0
 13
0.0
 23
0.0
 33
0.0
 16
1.0
 26
0.0
 36
0.0
 17
0.0
 27
1.0
 37
0.0
 76
0
330
210
345
0
346
0
  0
LAYOUT
  5
2D2
102
{ACAD_REACTORS
330
1A
102
}
100
AcDbPlotSettings
  1

  2
none_device
  4

  6

 40
0.0
 41
0.0
 42
0.0
 43
0.0
 44
210.0
 45
297.0
 46
0.0
 47
0.0
 48
0.0
 49
0.0
140
0.0
141
0.0
142
1.0
143
1.0
 70
0
 72
1
 73
0
 74
0
  7

 75
0
147
1.0
148
0.0
149
0.0
100
AcDbLayout
  1
Layout1
 70
0
 71
1
 10
0.0
 20
0.0
 11
210.0
 21
297.0
 12
0.0
 22
0.0
 32
0.0
 14
0.0
 24
0.0
 34
0.0
 15
0.0
 25
0.0
 35
0.0
146
0.0
 13
0.0
 23
0.0
 33
0.0
 16
1.0
 26
0.0
 36
0.0
 17
0.0
 27
1.0
 37
0.0
 76
0
330
211
345
0
346
0
  0
ENDSEC
  0
EOF
