999
DXF file: C:\Users\sesa63760\Dev\_Creo\CAD\MCADID0004735_3D-CAD\drw0001_3.dxf
999
Pro/ENGINEER 2019471 by Parametric Technology Corporation
  0
SECTION
  2
HEADER
  9
$ACADVER
  1
AC1024
  9
$DWGCODEPAGE
  3
ANSI_1252
  9
$EXTMAX
 10
33.1184492629
 20
46.8389496718
 30
0.0
  9
$EXTMIN
 10
0.0
 20
0.0
 30
0.0
  9
$LIMMIN
 10
0.0
 20
0.0
  9
$LIMMAX
 10
33.1184492629
 20
46.8389496718
  9
$VIEWCTR
 10
16.5592246314
 20
23.4194748359
  9
$VIEWSIZE
 40
46.8389496718
  9
$CLAYER
  8
0
  9
$LTSCALE
 40
3.0532056082
  9
$CELTYPE
  6
BYLAYER
  9
$DIMSCALE
 40
1.0
  9
$DIMASZ
 40
0.3942672531
  9
$DIMEXO
 40
1.0
  9
$DIMDLI
 40
2.1094875111
  9
$DIMEXE
 40
1.0
  9
$DIMCEN
 40
0.4996154632
  9
$DIMLFAC
 40
1.0
  9
$DIMBLK
  1
_FILLED
  9
$DIMALT
 70
0
  9
$DIMALTF
 40
0.0393700787
  9
$DIMTXT
 40
0.5519741544
  9
$DIMTOL
 70
1
  9
$DIMLIM
 70
0
  9
$DIMTFAC
 40
1.0
  9
$DIMTP
 40
0.01
  9
$DIMTM
 40
0.01
  9
$DIMGAP
 40
0.625
  9
$DIMDSEP
 70
46
  9
$AUNITS
 70
0
  9
$PDMODE
 70
3
  9
$PDSIZE
 40
0.3125
  9
$HANDSEED
  5
2D9
  9
$TILEMODE
 70
1
  9
$MEASUREMENT
 70
1
  9
$INSUNITS
 70
4
  0
ENDSEC
  0
SECTION
  2
CLASSES
  0
CLASS
  1
ACDBDICTIONARYWDFLT
  2
AcDbDictionaryWithDefault
  3
AutoCAD 2000
 90
0
 91
1
280
0
281
0
  0
CLASS
  1
ACDBPLACEHOLDER
  2
AcDbPlaceHolder
  3
AutoCAD 2000
 90
0
 91
1
280
0
281
0
  0
CLASS
  1
LAYOUT
  2
AcDbLayout
  3
AutoCAD 2000
 90
0
 91
0
280
0
281
0
  0
ENDSEC
  0
SECTION
  2
TABLES
  0
TABLE
  2
VPORT
  5
8
100
AcDbSymbolTable
 70
2
  0
VPORT
  5
1F4
100
AcDbSymbolTableRecord
100
AcDbViewportTableRecord
  2
*ACTIVE
 70
0
 10
0.0
 20
0.0
 11
1.0
 21
1.0
 12
16.5592246314
 22
23.4194748359
 13
0.0
 23
0.0
 14
1.0
 24
1.0
 15
0.0
 25
0.0
 16
0.0
 26
0.0
 36
1.0
 17
0.0
 27
0.0
 37
0.0
 40
46.8389496718
 41
0.7070707071
 42
50.0
 43
0.0
 44
0.0
 50
0.0
 51
0.0
 71
0
 72
100
 73
1
 74
1
 75
0
 76
0
 77
0
 78
0
  0
ENDTAB
  0
TABLE
  2
LTYPE
  5
5
100
AcDbSymbolTable
 70
6
  0
LTYPE
  5
14
100
AcDbSymbolTableRecord
100
AcDbLinetypeTableRecord
  2
BYBLOCK
 70
0
  3

 72
65
 73
0
 40
0.0
  0
LTYPE
  5
15
100
AcDbSymbolTableRecord
100
AcDbLinetypeTableRecord
  2
BYLAYER
 70
0
  3

 72
65
 73
0
 40
0.0
  0
LTYPE
  5
16
100
AcDbSymbolTableRecord
100
AcDbLinetypeTableRecord
  2
CONTINUOUS
 70
64
  3
Solid line
 72
65
 73
0
 40
0.0
  0
LTYPE
  5
1F5
100
AcDbSymbolTableRecord
100
AcDbLinetypeTableRecord
  2
CENTER
 70
64
  3
____ _ ____ _ ____ _ ____ _ ____ _ ____ _ ____
 72
65
 73
4
 40
0.6
 49
0.375
 74
0
 49
-0.075
 74
0
 49
0.075
 74
0
 49
-0.075
 74
0
  0
LTYPE
  5
1F6
100
AcDbSymbolTableRecord
100
AcDbLinetypeTableRecord
  2
HIDDEN
 70
64
  3
- - - - - - - - - - - - - - - - - - - -
 72
65
 73
2
 40
0.2
 49
0.1
 74
0
 49
-0.1
 74
0
  0
LTYPE
  5
1F7
100
AcDbSymbolTableRecord
100
AcDbLinetypeTableRecord
  2
PHANTOM
 70
64
  3
_____ _ _ _____ _ _ _____ _ _ _____
 72
65
 73
6
 40
0.8
 49
0.45
 74
0
 49
-0.05
 74
0
 49
0.1
 74
0
 49
-0.05
 74
0
 49
0.1
 74
0
 49
-0.05
 74
0
  0
LTYPE
  5
1F8
100
AcDbSymbolTableRecord
100
AcDbLinetypeTableRecord
  2
DOT
 70
64
  3
. . . . . . . . . . . . . . . . . . . .
 72
65
 73
2
 40
0.2
 49
0.1
 74
0
 49
-0.1
 74
0
  0
LTYPE
  5
1F9
100
AcDbSymbolTableRecord
100
AcDbLinetypeTableRecord
  2
DASHED
 70
64
  3
- - - - - - - - - - - - - - - - - - - -
 72
65
 73
2
 40
0.2
 49
0.1
 74
0
 49
-0.1
 74
0
  0
ENDTAB
  0
TABLE
  2
LAYER
  5
2
100
AcDbSymbolTable
 70
36
  0
LAYER
  5
10
100
AcDbSymbolTableRecord
100
AcDbLayerTableRecord
  2
0
 70
0
 62
7
  6
CONTINUOUS
370
-3
390
F
  0
LAYER
  5
1FA
100
AcDbSymbolTableRecord
100
AcDbLayerTableRecord
  2
DEFAULT_1
 70
0
 62
7
  6
CENTER
370
-3
390
F
  0
LAYER
  5
1FB
100
AcDbSymbolTableRecord
100
AcDbLayerTableRecord
  2
DEFAULT_2
 70
0
 62
7
  6
HIDDEN
370
-3
390
F
  0
LAYER
  5
1FC
100
AcDbSymbolTableRecord
100
AcDbLayerTableRecord
  2
DEFAULT_3
 70
0
 62
7
  6
PHANTOM
370
-3
390
F
  0
LAYER
  5
1FD
100
AcDbSymbolTableRecord
100
AcDbLayerTableRecord
  2
00_COMPONENTS
 70
0
 62
7
  6
CONTINUOUS
370
-3
390
F
  0
LAYER
  5
1FE
100
AcDbSymbolTableRecord
100
AcDbLayerTableRecord
  2
01_1_DEFAULT_DATUMS
 70
0
 62
7
  6
CONTINUOUS
370
-3
390
F
  0
LAYER
  5
1FF
100
AcDbSymbolTableRecord
100
AcDbLayerTableRecord
  2
01_PLANES
 70
0
 62
7
  6
CONTINUOUS
370
-3
390
F
  0
LAYER
  5
200
100
AcDbSymbolTableRecord
100
AcDbLayerTableRecord
  2
02_COORD_SYS
 70
0
 62
7
  6
CONTINUOUS
370
-3
390
F
  0
LAYER
  5
201
100
AcDbSymbolTableRecord
100
AcDbLayerTableRecord
  2
03_AXES
 70
0
 62
7
  6
CONTINUOUS
370
-3
390
F
  0
LAYER
  5
202
100
AcDbSymbolTableRecord
100
AcDbLayerTableRecord
  2
04_POINTS
 70
0
 62
7
  6
CONTINUOUS
370
-3
390
F
  0
LAYER
  5
203
100
AcDbSymbolTableRecord
100
AcDbLayerTableRecord
  2
05_CURVES
 70
0
 62
7
  6
CONTINUOUS
370
-3
390
F
  0
LAYER
  5
204
100
AcDbSymbolTableRecord
100
AcDbLayerTableRecord
  2
06_SURFS
 70
0
 62
7
  6
CONTINUOUS
370
-3
390
F
  0
LAYER
  5
205
100
AcDbSymbolTableRecord
100
AcDbLayerTableRecord
  2
07_COSMETICS
 70
0
 62
7
  6
CONTINUOUS
370
-3
390
F
  0
LAYER
  5
206
100
AcDbSymbolTableRecord
100
AcDbLayerTableRecord
  2
10_NOTES
 70
0
 62
7
  6
CONTINUOUS
370
-3
390
F
  0
LAYER
  5
207
100
AcDbSymbolTableRecord
100
AcDbLayerTableRecord
  2
11_NOTES_PUB
 70
0
 62
7
  6
CONTINUOUS
370
-3
390
F
  0
LAYER
  5
208
100
AcDbSymbolTableRecord
100
AcDbLayerTableRecord
  2
13_REF_GTOL
 70
0
 62
7
  6
CONTINUOUS
370
-3
390
F
  0
LAYER
  5
209
100
AcDbSymbolTableRecord
100
AcDbLayerTableRecord
  2
16_MISC
 70
0
 62
7
  6
CONTINUOUS
370
-3
390
F
  0
LAYER
  5
20A
100
AcDbSymbolTableRecord
100
AcDbLayerTableRecord
  2
17_NO_PRINT
 70
0
 62
7
  6
CONTINUOUS
370
-3
390
F
  0
LAYER
  5
20B
100
AcDbSymbolTableRecord
100
AcDbLayerTableRecord
  2
18_DATUM_CAMS_JOINTS
 70
0
 62
7
  6
CONTINUOUS
370
-3
390
F
  0
LAYER
  5
20C
100
AcDbSymbolTableRecord
100
AcDbLayerTableRecord
  2
19_DATUM_FUNCTIONAL
 70
0
 62
7
  6
CONTINUOUS
370
-3
390
F
  0
LAYER
  5
20D
100
AcDbSymbolTableRecord
100
AcDbLayerTableRecord
  2
20_DATUM_KINEMATIC_SCHEME
 70
0
 62
7
  6
CONTINUOUS
370
-3
390
F
  0
ENDTAB
  0
TABLE
  2
STYLE
  5
3
100
AcDbSymbolTable
 70
1
  0
STYLE
  5
11
100
AcDbSymbolTableRecord
100
AcDbTextStyleTableRecord
  2
STANDARD
 70
0
 40
0.0
 41
1.0
 50
0.0
 71
0
 42
0.2
  3
ARIAL.TTF
  4

  0
STYLE
  5
20E
100
AcDbSymbolTableRecord
100
AcDbTextStyleTableRecord
  2
TEXTSTYLE_1
 70
0
 40
0.0
 41
0.8
 50
0.0
 71
0
 42
0.2
  3
gdt
  4

  0
ENDTAB
  0
TABLE
  2
VIEW
  5
6
100
AcDbSymbolTable
 70
0
  0
ENDTAB
  0
TABLE
  2
UCS
  5
7
100
AcDbSymbolTable
 70
0
  0
ENDTAB
  0
TABLE
  2
APPID
  5
9
100
AcDbSymbolTable
 70
1
  0
APPID
  5
20F
100
AcDbSymbolTableRecord
100
AcDbRegAppTableRecord
  2
ACAD
 70
0
  0
ENDTAB
  0
TABLE
  2
BLOCK_RECORD
  5
1
100
AcDbSymbolTable
 70
0
  0
BLOCK_RECORD
  5
210
100
AcDbSymbolTableRecord
100
AcDbBlockTableRecord
  2
*Model_Space
  0
BLOCK_RECORD
  5
211
100
AcDbSymbolTableRecord
100
AcDbBlockTableRecord
  2
*Paper_Space
  0
BLOCK_RECORD
  5
212
100
AcDbSymbolTableRecord
100
AcDbBlockTableRecord
  2
_FILLED
  0
ENDTAB
  0
TABLE
  2
DIMSTYLE
  5
A
100
AcDbSymbolTable
 70
1
100
AcDbDimStyleTable
 71
0
  0
DIMSTYLE
105
213
100
AcDbSymbolTableRecord
100
AcDbDimStyleTableRecord
  2
STANDARD
 70
0
  3

  4

 40
1.0
 41
0.3942672531
 42
1.0
 43
0.38
 44
1.0
 45
0.0
 46
0.0
 47
0.01
 48
0.01
140
0.5519741544
141
0.09
142
0.0
143
25.4
144
1.0
145
0.0
146
1.0
147
0.625
 71
1
 72
0
 73
0
 74
0
 75
0
 76
0
 77
1
 78
8
 79
2
170
0
171
1
172
0
173
0
174
0
175
0
176
0
177
0
178
0
270
2
179
2
271
2
272
2
273
2
274
2
275
0
280
0
281
0
282
0
283
1
284
8
285
0
286
0
287
3
288
0
340
11
278
46
341
212
342
212
343
212
344
212
  0
ENDTAB
  0
ENDSEC
  0
SECTION
  2
BLOCKS
  0
BLOCK
  5
20
100
AcDbEntity
  8
0
100
AcDbBlockBegin
  2
*Model_Space
 70
0
 10
0.0
 20
0.0
 30
0.0
  3
*Model_Space
  1

  0
ENDBLK
  5
21
100
AcDbEntity
  8
0
100
AcDbBlockEnd
  0
BLOCK
  5
1C
100
AcDbEntity
  8
0
100
AcDbBlockBegin
  2
*Paper_Space
 70
0
 10
0.0
 20
0.0
 30
0.0
  3
*Paper_Space
  1

  0
ENDBLK
  5
1D
100
AcDbEntity
  8
0
100
AcDbBlockEnd
  0
BLOCK
  5
214
100
AcDbEntity
  8
0
100
AcDbBlockBegin
  2
_FILLED
 70
64
 10
0.0
 20
0.0
  3
_FILLED
  1

  0
SOLID
  5
215
100
AcDbEntity
  8
0
  6
BYBLOCK
 62
0
100
AcDbTrace
 10
0.0
 20
0.0
 11
-1.0
 21
0.25
 12
-1.0
 22
-0.25
 13
-1.0
 23
-0.25
  0
ENDBLK
  5
216
100
AcDbEntity
  8
0
  6
BYBLOCK
 62
0
100
AcDbBlockEnd
  0
ENDSEC
  0
SECTION
  2
ENTITIES
  0
LINE
  5
217
100
AcDbEntity
  8
0
100
AcDbLine
 62
7
  6
BYLAYER
 10
4.1678679575
 20
33.4841356674
 11
3.9678679575
 21
33.2841356674
  0
LINE
  5
218
100
AcDbEntity
  8
0
100
AcDbLine
 62
7
  6
BYLAYER
 10
4.1678679575
 20
13.5841356674
 11
3.9678679575
 21
13.7841356674
  0
LINE
  5
219
100
AcDbEntity
  8
0
100
AcDbLine
 62
7
  6
BYLAYER
 10
6.4196317665
 20
34.5773208327
 11
6.6264466012
 21
34.7841356674
  0
LINE
  5
21A
100
AcDbEntity
  8
0
100
AcDbLine
 62
7
  6
BYLAYER
 10
6.7678679575
 20
34.6427143112
 11
6.5610531227
 21
34.4358994764
  0
LINE
  5
21B
100
AcDbEntity
  8
0
100
AcDbLine
 62
7
  6
BYLAYER
 10
6.6264466012
 20
12.2841356674
 11
6.4196317665
 21
12.4909505021
  0
LINE
  5
21C
100
AcDbEntity
  8
0
100
AcDbLine
 62
7
  6
BYLAYER
 10
6.5610531227
 20
12.6323718584
 11
6.7678679575
 21
12.4255570236
  0
LINE
  5
21D
100
AcDbEntity
  8
0
100
AcDbLine
 62
7
  6
BYLAYER
 10
3.9178679575
 20
10.8841356674
 11
3.9178679575
 21
17.0341356674
  0
LINE
  5
21E
100
AcDbEntity
  8
0
100
AcDbLine
 62
7
  6
BYLAYER
 10
3.9178679575
 20
30.0341356674
 11
3.9178679575
 21
36.1841356674
  0
LINE
  5
21F
100
AcDbEntity
  8
0
100
AcDbLine
 62
7
  6
BYLAYER
 10
4.1678679575
 20
11.0841356674
 11
4.1678679575
 21
13.5841356674
  0
LINE
  5
220
100
AcDbEntity
  8
0
100
AcDbLine
 62
7
  6
BYLAYER
 10
4.1678679575
 20
33.4870300636
 11
4.1678679575
 21
35.9841356674
  0
LINE
  5
221
100
AcDbEntity
  8
0
100
AcDbLine
 62
7
  6
BYLAYER
 10
4.3678679575
 20
11.2354779493
 11
4.3678679575
 21
13.349571909
  0
LINE
  5
222
100
AcDbEntity
  8
0
100
AcDbLine
 62
7
  6
BYLAYER
 10
4.3678679575
 20
33.7186994258
 11
4.3678679575
 21
35.8327933855
  0
LINE
  5
223
100
AcDbEntity
  8
0
100
AcDbLine
 62
7
  6
BYLAYER
 10
4.8678679575
 20
35.0274200222
 11
4.8678679575
 21
33.7186994258
  0
LINE
  5
224
100
AcDbEntity
  8
0
100
AcDbLine
 62
7
  6
BYLAYER
 10
4.8678679575
 20
13.349571909
 11
4.8678679575
 21
12.0408470768
  0
LINE
  5
225
100
AcDbEntity
  8
0
100
AcDbLine
 62
7
  6
BYLAYER
 10
30.1178679575
 20
10.6341356674
 11
28.1178679575
 21
10.6341356674
  0
LINE
  5
226
100
AcDbEntity
  8
0
100
AcDbLine
 62
7
  6
BYLAYER
 10
7.7678679575
 20
10.8841356674
 11
3.9178679575
 21
10.8841356674
  0
LINE
  5
227
100
AcDbEntity
  8
0
100
AcDbLine
 62
7
  6
BYLAYER
 10
4.1678679575
 20
11.0841356674
 11
7.7678679575
 21
11.0841356674
  0
LINE
  5
228
100
AcDbEntity
  8
0
100
AcDbLine
 62
7
  6
BYLAYER
 10
4.3678679575
 20
11.2354779493
 11
7.7678679575
 21
11.2354779493
  0
LINE
  5
229
100
AcDbEntity
  8
0
100
AcDbLine
 62
7
  6
BYLAYER
 10
5.0678679575
 20
34.7887324497
 11
5.0678679575
 21
33.4841356674
  0
LINE
  5
22A
100
AcDbEntity
  8
0
100
AcDbLine
 62
7
  6
BYLAYER
 10
5.0678679575
 20
13.5812412712
 11
5.0678679575
 21
12.2795388851
  0
LINE
  5
22B
100
AcDbEntity
  8
0
100
AcDbLine
 62
7
  6
BYLAYER
 10
5.2678679575
 20
34.5841356674
 11
5.2678679575
 21
33.2841356674
  0
LINE
  5
22C
100
AcDbEntity
  8
0
100
AcDbLine
 62
7
  6
BYLAYER
 10
5.2678679575
 20
13.7841356674
 11
5.2678679575
 21
12.4841356674
  0
LINE
  5
22D
100
AcDbEntity
  8
0
100
AcDbLine
 62
7
  6
BYLAYER
 10
5.7678679575
 20
17.0341356674
 11
5.7678679575
 21
19.4841356674
  0
LINE
  5
22E
100
AcDbEntity
  8
0
100
AcDbLine
 62
7
  6
BYLAYER
 10
5.7678679575
 20
27.5841356674
 11
5.7678679575
 21
30.0341356674
  0
LINE
  5
22F
100
AcDbEntity
  8
0
100
AcDbLine
 62
7
  6
BYLAYER
 10
20.9678446005
 20
11.6341356674
 11
28.1178679575
 21
11.6341356674
  0
LINE
  5
230
100
AcDbEntity
  8
0
100
AcDbLine
 62
7
  6
BYLAYER
 10
12.3847270301
 20
11.9841356674
 11
11.0678679575
 21
11.9841356674
  0
LINE
  5
231
100
AcDbEntity
  8
0
100
AcDbLine
 62
7
  6
BYLAYER
 10
19.4678679575
 20
11.9841356674
 11
20.6178679575
 21
11.9841356674
  0
LINE
  5
232
100
AcDbEntity
  8
0
100
AcDbLine
 62
7
  6
BYLAYER
 10
6.9678679575
 20
12.0408470768
 11
4.8678679575
 21
12.0408470768
  0
LINE
  5
233
100
AcDbEntity
  8
0
100
AcDbLine
 62
7
  6
BYLAYER
 10
6.5774703853
 20
12.2841356674
 11
5.0678679575
 21
12.2841356674
  0
LINE
  5
234
100
AcDbEntity
  8
0
100
AcDbLine
 62
7
  6
BYLAYER
 10
5.2678679575
 20
12.4841356674
 11
6.3678679575
 21
12.4841356674
  0
LINE
  5
235
100
AcDbEntity
  8
0
100
AcDbLine
 62
7
  6
BYLAYER
 10
6.5678679575
 20
12.6841356674
 11
6.5678679575
 21
15.4841356674
  0
LINE
  5
236
100
AcDbEntity
  8
0
100
AcDbLine
 62
7
  6
BYLAYER
 10
6.5678679575
 20
31.5841356674
 11
6.5678679575
 21
34.3841356674
  0
LINE
  5
237
100
AcDbEntity
  8
0
100
AcDbLine
 62
7
  6
BYLAYER
 10
6.6678679575
 20
34.788661192
 11
6.6678679575
 21
34.7841356674
  0
LINE
  5
238
100
AcDbEntity
  8
0
100
AcDbLine
 62
7
  6
BYLAYER
 10
6.7678679575
 20
12.4667618755
 11
6.7678679575
 21
15.6841356674
  0
LINE
  5
239
100
AcDbEntity
  8
0
100
AcDbLine
 62
7
  6
BYLAYER
 10
6.7678679575
 20
19.4841356674
 11
6.7678679575
 21
27.5841356674
  0
LINE
  5
23A
100
AcDbEntity
  8
0
100
AcDbLine
 62
7
  6
BYLAYER
 10
6.7678679575
 20
31.3841356674
 11
6.7678679575
 21
34.6909245406
  0
LINE
  5
23B
100
AcDbEntity
  8
0
100
AcDbLine
 62
7
  6
BYLAYER
 10
6.9678679575
 20
12.0408470768
 11
6.9678679575
 21
15.8663504325
  0
LINE
  5
23C
100
AcDbEntity
  8
0
100
AcDbLine
 62
7
  6
BYLAYER
 10
6.9678679575
 20
31.2019209023
 11
6.9678679575
 21
35.0274200222
  0
LINE
  5
23D
100
AcDbEntity
  8
0
100
AcDbLine
 62
7
  6
BYLAYER
 10
6.9923977301
 20
24.437601065
 11
6.9923977301
 21
22.6306702698
  0
LINE
  5
23E
100
AcDbEntity
  8
0
100
AcDbLine
 62
7
  6
BYLAYER
 10
7.1803362543
 20
22.7771537088
 11
7.1803362543
 21
24.291117626
  0
LINE
  5
23F
100
AcDbEntity
  8
0
100
AcDbLine
 62
7
  6
BYLAYER
 10
7.2960224327
 20
27.5841356674
 11
7.2960224327
 21
24.6611248211
  0
LINE
  5
240
100
AcDbEntity
  8
0
100
AcDbLine
 62
7
  6
BYLAYER
 10
7.2960224327
 20
22.4071465137
 11
7.2960224327
 21
19.4841356674
  0
LINE
  5
241
100
AcDbEntity
  8
0
100
AcDbLine
 62
7
  6
BYLAYER
 10
14.8914654986
 20
12.761319522
 11
15.266072092
 21
12.8341356674
  0
LINE
  5
242
100
AcDbEntity
  8
0
100
AcDbLine
 62
7
  6
BYLAYER
 10
15.266072092
 20
12.8341356674
 11
15.43332957
 21
12.8341356674
  0
LINE
  5
243
100
AcDbEntity
  8
0
100
AcDbLine
 62
7
  6
BYLAYER
 10
4.8678679575
 20
13.349571909
 11
4.3678679575
 21
13.349571909
  0
LINE
  5
244
100
AcDbEntity
  8
0
100
AcDbLine
 62
7
  6
BYLAYER
 10
5.0678679575
 20
13.5841356674
 11
4.1678679575
 21
13.5841356674
  0
LINE
  5
245
100
AcDbEntity
  8
0
100
AcDbLine
 62
7
  6
BYLAYER
 10
8.3678679575
 20
13.7341356674
 11
10.6678679575
 21
13.7341356674
  0
LINE
  5
246
100
AcDbEntity
  8
0
100
AcDbLine
 62
7
  6
BYLAYER
 10
3.9178679575
 20
13.7841356674
 11
5.2678679575
 21
13.7841356674
  0
LINE
  5
247
100
AcDbEntity
  8
0
100
AcDbLine
 62
7
  6
BYLAYER
 10
7.5678679575
 20
24.4854340673
 11
7.5678679575
 21
22.5828372601
  0
LINE
  5
248
100
AcDbEntity
  8
0
100
AcDbLine
 62
7
  6
BYLAYER
 10
7.577930219
 20
24.4884191311
 11
7.5779302189
 21
27.5841356674
  0
LINE
  5
249
100
AcDbEntity
  8
0
100
AcDbLine
 62
7
  6
BYLAYER
 10
7.5779302189
 20
19.4841356674
 11
7.5779302388
 21
22.5798521998
  0
LINE
  5
24A
100
AcDbEntity
  8
0
100
AcDbLine
 62
7
  6
BYLAYER
 10
7.7678679575
 20
10.8841356674
 11
7.7678679575
 21
36.1841356674
  0
LINE
  5
24B
100
AcDbEntity
  8
0
100
AcDbLine
 62
7
  6
BYLAYER
 10
7.9678679575
 20
26.0341356674
 11
7.9678679575
 21
21.0341356674
  0
LINE
  5
24C
100
AcDbEntity
  8
0
100
AcDbLine
 62
7
  6
BYLAYER
 10
8.2678679575
 20
25.7341356674
 11
8.2678679575
 21
21.3341356674
  0
LINE
  5
24D
100
AcDbEntity
  8
0
100
AcDbLine
 62
7
  6
BYLAYER
 10
8.3678679575
 20
13.7341356674
 11
8.3678679575
 21
33.3341356674
  0
LINE
  5
24E
100
AcDbEntity
  8
0
100
AcDbLine
 62
7
  6
BYLAYER
 10
3.9178679575
 20
14.4582588195
 11
6.5678679575
 21
14.4582588195
  0
LINE
  5
24F
100
AcDbEntity
  8
0
100
AcDbLine
 62
7
  6
BYLAYER
 10
6.5678679575
 20
15.4841356674
 11
3.9178679575
 21
15.4841356674
  0
LINE
  5
250
100
AcDbEntity
  8
0
100
AcDbLine
 62
7
  6
BYLAYER
 10
3.9178679575
 20
15.6841356674
 11
6.7687208435
 21
15.6841356674
  0
LINE
  5
251
100
AcDbEntity
  8
0
100
AcDbLine
 62
7
  6
BYLAYER
 10
3.9178679575
 20
15.8663504325
 11
6.9678679575
 21
15.8663504325
  0
LINE
  5
252
100
AcDbEntity
  8
0
100
AcDbLine
 62
7
  6
BYLAYER
 10
10.6678679575
 20
33.3341356674
 11
10.6678679575
 21
13.7341356674
  0
LINE
  5
253
100
AcDbEntity
  8
0
100
AcDbLine
 62
7
  6
BYLAYER
 10
6.9923977301
 20
24.437601065
 11
7.2960224327
 21
24.6611248211
  0
LINE
  5
254
100
AcDbEntity
  8
0
100
AcDbLine
 62
7
  6
BYLAYER
 10
7.4839609569
 20
24.4679396558
 11
7.2342898154
 21
24.2841356674
  0
LINE
  5
255
100
AcDbEntity
  8
0
100
AcDbLine
 62
7
  6
BYLAYER
 10
5.7678679575
 20
17.0341356674
 11
3.9178679575
 21
17.0341356674
  0
LINE
  5
256
100
AcDbEntity
  8
0
100
AcDbLine
 62
7
  6
BYLAYER
 10
7.2960224327
 20
22.4071465137
 11
6.9923977301
 21
22.6306702698
  0
LINE
  5
257
100
AcDbEntity
  8
0
100
AcDbLine
 62
7
  6
BYLAYER
 10
7.2342898154
 20
22.7841356674
 11
7.4839609569
 21
22.600331679
  0
LINE
  5
258
100
AcDbEntity
  8
0
100
AcDbLine
 62
7
  6
BYLAYER
 10
11.0678679575
 20
11.9841356674
 11
11.0678679575
 21
35.0841356674
  0
LINE
  5
259
100
AcDbEntity
  8
0
100
AcDbLine
 62
7
  6
BYLAYER
 10
20.6178679575
 20
35.0841356674
 11
20.9678679575
 21
35.4341356674
  0
LINE
  5
25A
100
AcDbEntity
  8
0
100
AcDbLine
 62
7
  6
BYLAYER
 10
26.7678679575
 20
18.3216506554
 11
24.7678679575
 21
18.3216506554
  0
LINE
  5
25B
100
AcDbEntity
  8
0
100
AcDbLine
 62
7
  6
BYLAYER
 10
7.7678679575
 20
18.5341356674
 11
5.7678679575
 21
18.5341354848
  0
LINE
  5
25C
100
AcDbEntity
  8
0
100
AcDbLine
 62
7
  6
BYLAYER
 10
28.1178679575
 20
18.5541758282
 11
26.7678679575
 21
18.5541758282
  0
LINE
  5
25D
100
AcDbEntity
  8
0
100
AcDbLine
 62
7
  6
BYLAYER
 10
24.7678679575
 20
18.5541758282
 11
21.9678679575
 21
18.5541758282
  0
LINE
  5
25E
100
AcDbEntity
  8
0
100
AcDbLine
 62
7
  6
BYLAYER
 10
20.6178679575
 20
11.9841356674
 11
20.9678679575
 21
11.6341356674
  0
LINE
  5
25F
100
AcDbEntity
  8
0
100
AcDbLine
 62
7
  6
BYLAYER
 10
12.3847270301
 20
35.0841356674
 11
12.3847270167
 21
11.9841356674
  0
LINE
  5
260
100
AcDbEntity
  8
0
100
AcDbLine
 62
7
  6
BYLAYER
 10
5.7678679575
 20
19.4841356674
 11
7.5779302189
 21
19.4841356674
  0
LINE
  5
261
100
AcDbEntity
  8
0
100
AcDbLine
 62
7
  6
BYLAYER
 10
13.508546776
 20
12.2025840899
 11
13.5085468103
 21
34.8656872311
  0
LINE
  5
262
100
AcDbEntity
  8
0
100
AcDbLine
 62
7
  6
BYLAYER
 10
7.7678679575
 20
21.0341356674
 11
7.9678679575
 21
21.0341356674
  0
LINE
  5
263
100
AcDbEntity
  8
0
100
AcDbLine
 62
7
  6
BYLAYER
 10
14.891465494
 20
34.3069518147
 11
14.891465494
 21
12.7613195201
  0
LINE
  5
264
100
AcDbEntity
  8
0
100
AcDbLine
 62
7
  6
BYLAYER
 10
15.266072092
 20
12.8341356674
 11
15.266072092
 21
34.2341356674
  0
LINE
  5
265
100
AcDbEntity
  8
0
100
AcDbLine
 62
7
  6
BYLAYER
 10
15.43332957
 20
34.2341356674
 11
15.43332957
 21
12.8341356674
  0
LINE
  5
266
100
AcDbEntity
  8
0
100
AcDbLine
 62
7
  6
BYLAYER
 10
6.7678679575
 20
15.6841356674
 11
6.5678679575
 21
15.4841356674
  0
LINE
  5
267
100
AcDbEntity
  8
0
100
AcDbLine
 62
7
  6
BYLAYER
 10
5.0678679575
 20
13.5841356674
 11
5.2678679575
 21
13.7841356674
  0
LINE
  5
268
100
AcDbEntity
  8
0
100
AcDbLine
 62
7
  6
BYLAYER
 10
7.7678679575
 20
21.2754690007
 11
7.9678679575
 21
21.2754690007
  0
LINE
  5
269
100
AcDbEntity
  8
0
100
AcDbLine
 62
7
  6
BYLAYER
 10
7.577930219
 20
22.3895159966
 11
7.7610531227
 21
22.3895159966
  0
LINE
  5
26A
100
AcDbEntity
  8
0
100
AcDbLine
 62
7
  6
BYLAYER
 10
6.7678679575
 20
31.3841356674
 11
6.5678679575
 21
31.5841356674
  0
LINE
  5
26B
100
AcDbEntity
  8
0
100
AcDbLine
 62
7
  6
BYLAYER
 10
5.0678679575
 20
33.4841356674
 11
5.2678679575
 21
33.2841356674
  0
LINE
  5
26C
100
AcDbEntity
  8
0
100
AcDbLine
 62
7
  6
BYLAYER
 10
5.0678679575
 20
12.2841356674
 11
5.2678679575
 21
12.4841356674
  0
LINE
  5
26D
100
AcDbEntity
  8
0
100
AcDbLine
 62
7
  6
BYLAYER
 10
4.1678679575
 20
11.0841356674
 11
3.9678679575
 21
10.8841356674
  0
LINE
  5
26E
100
AcDbEntity
  8
0
100
AcDbLine
 62
7
  6
BYLAYER
 10
7.2342898154
 20
22.7841356674
 11
7.5678679575
 21
22.7841356674
  0
LINE
  5
26F
100
AcDbEntity
  8
0
100
AcDbLine
 62
7
  6
BYLAYER
 10
5.0678679575
 20
34.7841356674
 11
5.2678679575
 21
34.5841356674
  0
LINE
  5
270
100
AcDbEntity
  8
0
100
AcDbLine
 62
7
  6
BYLAYER
 10
4.1678679575
 20
35.9841356674
 11
3.9678679575
 21
36.1841356674
  0
LINE
  5
271
100
AcDbEntity
  8
0
100
AcDbLine
 62
7
  6
BYLAYER
 10
7.2342898154
 20
24.2841356674
 11
7.5678679575
 21
24.2841356674
  0
LINE
  5
272
100
AcDbEntity
  8
0
100
AcDbLine
 62
7
  6
BYLAYER
 10
7.7610531227
 20
24.6787553382
 11
7.577930219
 21
24.6787553382
  0
LINE
  5
273
100
AcDbEntity
  8
0
100
AcDbLine
 62
7
  6
BYLAYER
 10
19.4678679575
 20
11.9841356674
 11
19.4678679575
 21
35.0841356674
  0
LINE
  5
274
100
AcDbEntity
  8
0
100
AcDbLine
 62
7
  6
BYLAYER
 10
7.7678679575
 20
25.7928023341
 11
7.9678679575
 21
25.7928023341
  0
LINE
  5
275
100
AcDbEntity
  8
0
100
AcDbLine
 62
7
  6
BYLAYER
 10
7.9678679575
 20
26.0341356674
 11
7.7678679575
 21
26.0341356674
  0
LINE
  5
276
100
AcDbEntity
  8
0
100
AcDbLine
 62
7
  6
BYLAYER
 10
20.6178679575
 20
35.0841356674
 11
20.6178679575
 21
11.9841356674
  0
LINE
  5
277
100
AcDbEntity
  8
0
100
AcDbLine
 62
7
  6
BYLAYER
 10
21.9678679575
 20
11.6341356674
 11
21.9678679575
 21
18.5541758282
  0
LINE
  5
278
100
AcDbEntity
  8
0
100
AcDbLine
 62
7
  6
BYLAYER
 10
21.9678679575
 20
28.5140955066
 11
21.9678679575
 21
35.4341356674
  0
LINE
  5
279
100
AcDbEntity
  8
0
100
AcDbLine
 62
7
  6
BYLAYER
 10
7.5779302189
 20
27.5841356674
 11
5.7678679575
 21
27.5841356674
  0
LINE
  5
27A
100
AcDbEntity
  8
0
100
AcDbLine
 62
7
  6
BYLAYER
 10
21.9678679575
 20
28.5140955066
 11
24.7678679575
 21
28.5140955066
  0
LINE
  5
27B
100
AcDbEntity
  8
0
100
AcDbLine
 62
7
  6
BYLAYER
 10
26.7678679575
 20
28.5140955066
 11
28.1178679575
 21
28.5140955066
  0
LINE
  5
27C
100
AcDbEntity
  8
0
100
AcDbLine
 62
7
  6
BYLAYER
 10
7.7678679575
 20
28.5341356674
 11
5.7678679575
 21
28.5341354721
  0
LINE
  5
27D
100
AcDbEntity
  8
0
100
AcDbLine
 62
7
  6
BYLAYER
 10
24.7678679575
 20
28.7466206794
 11
26.7678679575
 21
28.7466206794
  0
LINE
  5
27E
100
AcDbEntity
  8
0
100
AcDbLine
 62
7
  6
BYLAYER
 10
3.9178679575
 20
30.0341356674
 11
5.7678679575
 21
30.0341356674
  0
LINE
  5
27F
100
AcDbEntity
  8
0
100
AcDbLine
 62
7
  6
BYLAYER
 10
24.7678679575
 20
28.7466206794
 11
24.7678679575
 21
18.3216506554
  0
LINE
  5
280
100
AcDbEntity
  8
0
100
AcDbLine
 62
7
  6
BYLAYER
 10
6.9678679575
 20
31.2019209023
 11
3.9178679575
 21
31.2019209023
  0
LINE
  5
281
100
AcDbEntity
  8
0
100
AcDbLine
 62
7
  6
BYLAYER
 10
6.7687208435
 20
31.3841356674
 11
3.9178679575
 21
31.3841356674
  0
LINE
  5
282
100
AcDbEntity
  8
0
100
AcDbLine
 62
7
  6
BYLAYER
 10
3.9178679575
 20
31.5841356674
 11
6.5678679575
 21
31.5841356674
  0
LINE
  5
283
100
AcDbEntity
  8
0
100
AcDbLine
 62
7
  6
BYLAYER
 10
26.7678679575
 20
18.3216506554
 11
26.7678679575
 21
28.7466206794
  0
LINE
  5
284
100
AcDbEntity
  8
0
100
AcDbLine
 62
7
  6
BYLAYER
 10
14.891465494
 20
12.7613195201
 11
13.5085468103
 21
12.2025841037
  0
LINE
  5
285
100
AcDbEntity
  8
0
100
AcDbLine
 62
7
  6
BYLAYER
 10
3.9178679575
 20
32.6100125153
 11
6.5678679575
 21
32.6100125153
  0
LINE
  5
286
100
AcDbEntity
  8
0
100
AcDbLine
 62
7
  6
BYLAYER
 10
5.2678679575
 20
33.2841356674
 11
3.9178679575
 21
33.2841356674
  0
LINE
  5
287
100
AcDbEntity
  8
0
100
AcDbLine
 62
7
  6
BYLAYER
 10
8.3678679575
 20
33.3341356674
 11
10.6678679575
 21
33.3341356674
  0
LINE
  5
288
100
AcDbEntity
  8
0
100
AcDbLine
 62
7
  6
BYLAYER
 10
4.1678679575
 20
33.4841356674
 11
5.0678679575
 21
33.4841356674
  0
LINE
  5
289
100
AcDbEntity
  8
0
100
AcDbLine
 62
7
  6
BYLAYER
 10
14.891465494
 20
34.3069518147
 11
13.5085468103
 21
34.8656872311
  0
LINE
  5
28A
100
AcDbEntity
  8
0
100
AcDbLine
 62
7
  6
BYLAYER
 10
28.1178679575
 20
10.6341356674
 11
28.1178679575
 21
11.6341356674
  0
LINE
  5
28B
100
AcDbEntity
  8
0
100
AcDbLine
 62
7
  6
BYLAYER
 10
28.1178679575
 20
18.5541758282
 11
28.1178679575
 21
28.5140955066
  0
LINE
  5
28C
100
AcDbEntity
  8
0
100
AcDbLine
 62
7
  6
BYLAYER
 10
28.1178679575
 20
35.4341356674
 11
28.1178679575
 21
36.4341356674
  0
LINE
  5
28D
100
AcDbEntity
  8
0
100
AcDbLine
 62
7
  6
BYLAYER
 10
4.3678679575
 20
33.7186994258
 11
4.8678679575
 21
33.7186994258
  0
LINE
  5
28E
100
AcDbEntity
  8
0
100
AcDbLine
 62
7
  6
BYLAYER
 10
15.266072092
 20
34.2341356674
 11
15.43332957
 21
34.2341356674
  0
LINE
  5
28F
100
AcDbEntity
  8
0
100
AcDbLine
 62
7
  6
BYLAYER
 10
6.3678679575
 20
34.5841356674
 11
5.2678679575
 21
34.5841356674
  0
LINE
  5
290
100
AcDbEntity
  8
0
100
AcDbLine
 62
7
  6
BYLAYER
 10
14.8914654986
 20
34.3069518128
 11
15.266072092
 21
34.2341356674
  0
LINE
  5
291
100
AcDbEntity
  8
0
100
AcDbLine
 62
7
  6
BYLAYER
 10
13.5085468103
 20
34.8656872311
 11
12.3847270301
 21
35.0841356674
  0
LINE
  5
292
100
AcDbEntity
  8
0
100
AcDbLine
 62
7
  6
BYLAYER
 10
5.0678679575
 20
34.7841356674
 11
6.6678679575
 21
34.7841356674
  0
LINE
  5
293
100
AcDbEntity
  8
0
100
AcDbLine
 62
7
  6
BYLAYER
 10
4.8678679575
 20
35.0274200222
 11
6.9678679575
 21
35.0274200222
  0
LINE
  5
294
100
AcDbEntity
  8
0
100
AcDbLine
 62
7
  6
BYLAYER
 10
11.0678679575
 20
35.0841356674
 11
12.3847270301
 21
35.0841356674
  0
LINE
  5
295
100
AcDbEntity
  8
0
100
AcDbLine
 62
7
  6
BYLAYER
 10
19.4678679575
 20
35.0841356674
 11
20.6178679575
 21
35.0841356674
  0
LINE
  5
296
100
AcDbEntity
  8
0
100
AcDbLine
 62
7
  6
BYLAYER
 10
28.1178679575
 20
35.4341356674
 11
20.9678446005
 21
35.4341356674
  0
LINE
  5
297
100
AcDbEntity
  8
0
100
AcDbLine
 62
7
  6
BYLAYER
 10
7.7678679575
 20
35.8327933855
 11
4.3678679575
 21
35.8327933855
  0
LINE
  5
298
100
AcDbEntity
  8
0
100
AcDbLine
 62
7
  6
BYLAYER
 10
30.1178679575
 20
36.4341356674
 11
30.1178679575
 21
10.6341356674
  0
LINE
  5
299
100
AcDbEntity
  8
0
100
AcDbLine
 62
7
  6
BYLAYER
 10
4.1678679575
 20
35.9841356674
 11
7.7678679575
 21
35.9841356674
  0
LINE
  5
29A
100
AcDbEntity
  8
0
100
AcDbLine
 62
7
  6
BYLAYER
 10
3.9178679575
 20
36.1841356674
 11
7.7678679575
 21
36.1841356674
  0
LINE
  5
29B
100
AcDbEntity
  8
0
100
AcDbLine
 62
7
  6
BYLAYER
 10
28.1178679575
 20
36.4341356674
 11
30.1178679575
 21
36.4341356674
  0
ARC
  5
29C
100
AcDbEntity
  8
0
100
AcDbCircle
 62
7
  6
BYLAYER
 10
15.43332957
 20
44.2341356674
 40
10.0
100
AcDbArc
 50
270.0
 51
293.7942729505
  0
ARC
  5
29D
100
AcDbEntity
  8
0
100
AcDbCircle
 62
7
  6
BYLAYER
 10
15.43332957
 20
2.8341356674
 40
10.0
100
AcDbArc
 50
66.2057270495
 51
90.0
  0
ARC
  5
29E
100
AcDbEntity
  8
0
100
AcDbCircle
 62
7
  6
BYLAYER
 10
12.3847270301
 20
14.9841356674
 40
3.0
100
AcDbArc
 50
270.0
 51
291.9999992862
  0
ARC
  5
29F
100
AcDbEntity
  8
0
100
AcDbCircle
 62
7
  6
BYLAYER
 10
8.3678679575
 20
33.9341356674
 40
0.6
100
AcDbArc
 50
180.0
 51
270.0
  0
ARC
  5
2A0
100
AcDbEntity
  8
0
100
AcDbCircle
 62
7
  6
BYLAYER
 10
8.3678679575
 20
13.1341356674
 40
0.6
100
AcDbArc
 50
90.0
 51
180.0
  0
ARC
  5
2A1
100
AcDbEntity
  8
0
100
AcDbCircle
 62
7
  6
BYLAYER
 10
7.4082613186
 20
22.0263471146
 40
0.5789261301
100
AcDbArc
 50
72.9578373044
 51
73.996605342
  0
ARC
  5
2A2
100
AcDbEntity
  8
0
100
AcDbCircle
 62
7
  6
BYLAYER
 10
7.4083266045
 20
25.0417023571
 40
0.5786948733
100
AcDbArc
 50
286.003237089
 51
287.0424201852
  0
ARC
  5
2A3
100
AcDbEntity
  8
0
100
AcDbCircle
 62
7
  6
BYLAYER
 10
10.6678679575
 20
33.7341356674
 40
0.4
100
AcDbArc
 50
270.0
 51
360.0
  0
ARC
  5
2A4
100
AcDbEntity
  8
0
100
AcDbCircle
 62
7
  6
BYLAYER
 10
10.6678679575
 20
13.3341356674
 40
0.4
100
AcDbArc
 50
0.0
 51
90.0
  0
ARC
  5
2A5
100
AcDbEntity
  8
0
100
AcDbCircle
 62
7
  6
BYLAYER
 10
7.9678679575
 20
21.3341356674
 40
0.3
100
AcDbArc
 50
270.0
 51
360.0
  0
ARC
  5
2A6
100
AcDbEntity
  8
0
100
AcDbCircle
 62
7
  6
BYLAYER
 10
7.9678679575
 20
25.7341356674
 40
0.3
100
AcDbArc
 50
0.0
 51
90.0
  0
ARC
  5
2A7
100
AcDbEntity
  8
0
100
AcDbCircle
 62
7
  6
BYLAYER
 10
6.3678679575
 20
12.6841356674
 40
0.2
100
AcDbArc
 50
270.0
 51
360.0
  0
ARC
  5
2A8
100
AcDbEntity
  8
0
100
AcDbCircle
 62
7
  6
BYLAYER
 10
6.3678679575
 20
34.3841356674
 40
0.2
100
AcDbArc
 50
0.0
 51
90.0
  0
ARC
  5
2A9
100
AcDbEntity
  8
0
100
AcDbCircle
 62
7
  6
BYLAYER
 10
6.5780243561
 20
12.4744677526
 40
0.1898392454
100
AcDbArc
 50
333.7396213594
 51
357.9619439836
  0
ARC
  5
2AA
100
AcDbEntity
  8
0
100
AcDbCircle
 62
7
  6
BYLAYER
 10
6.6678679575
 20
34.6841356674
 40
0.1
100
AcDbArc
 50
3.6877026873
 51
90.0
  0
SPLINE
  5
2AB
100
AcDbEntity
  8
0
100
AcDbSpline
 62
7
  6
BYLAYER
 70
0
 71
3
 72
12
 73
8
 74
0
 42
0.0000001
 43
0.0000001
 44
0.0000000001
 40
0.0
 40
0.0
 40
0.0
 40
0.0
 40
0.2329883471
 40
0.3564934187
 40
0.4836475075
 40
0.7424731288
 40
1.0
 40
1.0
 40
1.0
 40
1.0
 10
6.5774704064
 20
12.2841356674
 30
0.0
 10
6.5938897068
 20
12.284135645
 30
0.0
 10
6.619163226
 20
12.2874414563
 30
0.0
 10
6.6515111614
 20
12.2984466014
 30
0.0
 10
6.6836118291
 20
12.3147622287
 30
0.0
 10
6.7194398506
 20
12.3436271811
 30
0.0
 10
6.7402209985
 20
12.3742074806
 30
0.0
 10
6.7482707884
 20
12.3904731613
 30
0.0
  0
SPLINE
  5
2AC
100
AcDbEntity
  8
0
100
AcDbSpline
 62
7
  6
BYLAYER
 70
0
 71
3
 72
12
 73
8
 74
0
 42
0.0000001
 43
0.0000001
 44
0.0000000001
 40
0.0
 40
0.0
 40
0.0
 40
0.0
 40
0.3173438073
 40
0.6013557381
 40
0.8324670703
 40
0.9245744223
 40
1.0
 40
1.0
 40
1.0
 40
1.0
 10
7.5678679575
 20
24.4854340673
 30
0.0
 10
7.5587126644
 20
24.4851860986
 30
0.0
 10
7.5413687125
 20
24.4840742351
 30
0.0
 10
7.5175833049
 20
24.4805456937
 30
0.0
 10
7.5005483236
 20
24.4761166719
 30
0.0
 10
7.4899233671
 20
24.4716634906
 30
0.0
 10
7.4857138646
 20
24.4692303173
 30
0.0
 10
7.4839609569
 20
24.4679396558
 30
0.0
  0
SPLINE
  5
2AD
100
AcDbEntity
  8
0
100
AcDbSpline
 62
7
  6
BYLAYER
 70
0
 71
3
 72
21
 73
17
 74
0
 42
0.0000001
 43
0.0000001
 44
0.0000000001
 40
0.0
 40
0.0
 40
0.0
 40
0.0
 40
0.1666417038
 40
0.3300292175
 40
0.4872743717
 40
0.6349666683
 40
0.7038865445
 40
0.7684459098
 40
0.8277812939
 40
0.8807428223
 40
0.9258458166
 40
0.9616106166
 40
0.9755555636
 40
0.9866640633
 40
0.9948140578
 40
1.0
 40
1.0
 40
1.0
 40
1.0
 10
6.9678679575
 20
15.8663504325
 30
0.0
 10
6.9572424023
 20
15.8557315178
 30
0.0
 10
6.9361245902
 20
15.8347751279
 30
0.0
 10
6.9047103952
 20
15.804072105
 30
0.0
 10
6.8742646414
 20
15.7748242576
 30
0.0
 10
6.8497175377
 20
15.7517306219
 30
0.0
 10
6.831071645
 20
15.7345612142
 30
0.0
 10
6.8181815937
 20
15.7229003765
 30
0.0
 10
6.806239473
 20
15.7123377508
 30
0.0
 10
6.7954734035
 20
15.7030934387
 30
0.0
 10
6.7861550959
 20
15.6954317444
 30
0.0
 10
6.7793759281
 20
15.6902157982
 30
0.0
 10
6.7748667315
 20
15.6871012144
 30
0.0
 10
6.7723162031
 20
15.6855175498
 30
0.0
 10
6.7703616107
 20
15.6845271782
 30
0.0
 10
6.7691883363
 20
15.6841356674
 30
0.0
 10
6.7687208435
 20
15.6841356674
 30
0.0
  0
SPLINE
  5
2AE
100
AcDbEntity
  8
0
100
AcDbSpline
 62
7
  6
BYLAYER
 70
0
 71
3
 72
12
 73
8
 74
0
 42
0.0000001
 43
0.0000001
 44
0.0000000001
 40
0.0
 40
0.0
 40
0.0
 40
0.0
 40
0.2530436239
 40
0.5084852377
 40
0.7618450129
 40
0.8845525595
 40
1.0
 40
1.0
 40
1.0
 40
1.0
 10
6.9678679575
 20
12.0408470768
 30
0.0
 10
6.9522003645
 20
12.0714467874
 30
0.0
 10
6.9209034265
 20
12.1330324741
 30
0.0
 10
6.874857821
 20
12.22572848
 30
0.0
 10
6.8374599103
 20
12.3029466874
 30
0.0
 10
6.8091595775
 20
12.3634290676
 30
0.0
 10
6.7958587254
 20
12.3929266816
 30
0.0
 10
6.7896153959
 20
12.4073147524
 30
0.0
  0
SPLINE
  5
2AF
100
AcDbEntity
  8
0
100
AcDbSpline
 62
7
  6
BYLAYER
 70
0
 71
3
 72
9
 73
5
 74
0
 42
0.0000001
 43
0.0000001
 44
0.0000000001
 40
0.0
 40
0.0
 40
0.0
 40
0.0
 40
0.5401277532
 40
1.0
 40
1.0
 40
1.0
 40
1.0
 10
6.7896153959
 20
12.4073147524
 30
0.0
 10
6.7864590677
 20
12.4145886716
 30
0.0
 10
6.7807188788
 20
12.4281001388
 30
0.0
 10
6.7753094376
 20
12.4417528349
 30
0.0
 10
6.7730124897
 20
12.4481011035
 30
0.0
  0
SPLINE
  5
2B0
100
AcDbEntity
  8
0
100
AcDbSpline
 62
7
  6
BYLAYER
 70
0
 71
3
 72
10
 73
6
 74
0
 42
0.0000001
 43
0.0000001
 44
0.0000000001
 40
0.0
 40
0.0
 40
0.0
 40
0.0
 40
0.6267710853
 40
0.8479552489
 40
1.0
 40
1.0
 40
1.0
 40
1.0
 10
6.7730124897
 20
12.4481011035
 30
0.0
 10
6.7716329471
 20
12.4519138615
 30
0.0
 10
6.7698251029
 20
12.4571070114
 30
0.0
 10
6.7682458532
 20
12.4633751829
 30
0.0
 10
6.7678683232
 20
12.465777978
 30
0.0
 10
6.7678679575
 20
12.4667615741
 30
0.0
  0
SPLINE
  5
2B1
100
AcDbEntity
  8
0
100
AcDbSpline
 62
7
  6
BYLAYER
 70
0
 71
3
 72
9
 73
5
 74
0
 42
0.0000001
 43
0.0000001
 44
0.0000000001
 40
0.0
 40
0.0
 40
0.0
 40
0.0
 40
0.48429331
 40
1.0
 40
1.0
 40
1.0
 40
1.0
 10
6.5765118371
 20
12.2796758915
 30
0.0
 10
6.5910544831
 20
12.2796416083
 30
0.0
 10
6.6211782099
 20
12.2829507097
 30
0.0
 10
6.6497881567
 20
12.2931349677
 30
0.0
 10
6.6636312512
 20
12.3000764787
 30
0.0
  0
SPLINE
  5
2B2
100
AcDbEntity
  8
0
100
AcDbSpline
 62
7
  6
BYLAYER
 70
0
 71
3
 72
9
 73
5
 74
0
 42
0.0000001
 43
0.0000001
 44
0.0000000001
 40
0.0
 40
0.0
 40
0.0
 40
0.0
 40
0.5026523313
 40
1.0
 40
1.0
 40
1.0
 40
1.0
 10
6.6636312512
 20
12.3000764787
 30
0.0
 10
6.6826916718
 20
12.309634177
 30
0.0
 10
6.7178263939
 20
12.3350069031
 30
0.0
 10
6.7422308942
 20
12.3708463974
 30
0.0
 10
6.7510679598
 20
12.3900039024
 30
0.0
  0
SPLINE
  5
2B3
100
AcDbEntity
  8
0
100
AcDbSpline
 62
7
  6
BYLAYER
 70
0
 71
3
 72
9
 73
5
 74
0
 42
0.0000001
 43
0.0000001
 44
0.0000000001
 40
0.0
 40
0.0
 40
0.0
 40
0.0
 40
0.5154988453
 40
1.0
 40
1.0
 40
1.0
 40
1.0
 10
6.7510679598
 20
12.3900039024
 30
0.0
 10
6.7567563733
 20
12.4023355765
 30
0.0
 10
6.7650850836
 20
12.4275936294
 30
0.0
 10
6.7678678926
 20
12.4540000501
 30
0.0
 10
6.7678679567
 20
12.4667638746
 30
0.0
  0
SPLINE
  5
2B4
100
AcDbEntity
  8
0
100
AcDbSpline
 62
7
  6
BYLAYER
 70
0
 71
3
 72
16
 73
12
 74
0
 42
0.0000001
 43
0.0000001
 44
0.0000000001
 40
0.0
 40
0.0
 40
0.0
 40
0.0
 40
0.2800063271
 40
0.4187754299
 40
0.5549630318
 40
0.6868517617
 40
0.8101549994
 40
0.8665315924
 40
0.9182399375
 40
0.9635221007
 40
1.0
 40
1.0
 40
1.0
 40
1.0
 10
6.9678679392
 20
12.0408470413
 30
0.0
 10
6.9306600541
 20
12.0591314638
 30
0.0
 10
6.875401904
 20
12.0872815499
 30
0.0
 10
6.8030076414
 20
12.126152855
 30
0.0
 10
6.7504195693
 20
12.1555387606
 30
0.0
 10
6.7004106367
 20
12.184820957
 30
0.0
 10
6.6612172149
 20
12.2091715771
 30
0.0
 10
6.632720019
 20
12.2281920367
 30
0.0
 10
6.614181857
 20
12.2413159018
 30
0.0
 10
6.5985136351
 20
12.2533604315
 30
0.0
 10
6.5893846785
 20
12.2613496505
 30
0.0
 10
6.5855975884
 20
12.265200353
 30
0.0
  0
SPLINE
  5
2B5
100
AcDbEntity
  8
0
100
AcDbSpline
 62
7
  6
BYLAYER
 70
0
 71
3
 72
10
 73
6
 74
0
 42
0.0000001
 43
0.0000001
 44
0.0000000001
 40
0.0
 40
0.0
 40
0.0
 40
0.0
 40
0.6241236337
 40
0.8406073156
 40
1.0
 40
1.0
 40
1.0
 40
1.0
 10
6.5855975884
 20
12.265200353
 30
0.0
 10
6.5830544217
 20
12.2677862377
 30
0.0
 10
6.5797213571
 20
12.2714434395
 30
0.0
 10
6.5768976213
 20
12.2765362393
 30
0.0
 10
6.576414523
 20
12.2787535215
 30
0.0
 10
6.5765108048
 20
12.279674768
 30
0.0
  0
SPLINE
  5
2B6
100
AcDbEntity
  8
0
100
AcDbSpline
 62
7
  6
BYLAYER
 70
0
 71
3
 72
11
 73
7
 74
0
 42
0.0000001
 43
0.0000001
 44
0.0000000001
 40
0.0
 40
0.0
 40
0.0
 40
0.0
 40
0.4246697186
 40
0.7310291626
 40
0.9198437789
 40
1.0
 40
1.0
 40
1.0
 40
1.0
 10
6.5765126451
 20
12.2796747596
 30
0.0
 10
6.5765816858
 20
12.2803250489
 30
0.0
 10
6.5767068821
 20
12.2814266952
 30
0.0
 10
6.5769473474
 20
12.2828772701
 30
0.0
 10
6.5771267765
 20
12.2836470503
 30
0.0
 10
6.5773469537
 20
12.2841356674
 30
0.0
 10
6.5774703853
 20
12.2841356674
 30
0.0
  0
SPLINE
  5
2B7
100
AcDbEntity
  8
0
100
AcDbSpline
 62
7
  6
BYLAYER
 70
0
 71
3
 72
21
 73
17
 74
0
 42
0.0000001
 43
0.0000001
 44
0.0000000001
 40
0.0
 40
0.0
 40
0.0
 40
0.0
 40
0.1666441256
 40
0.3300307626
 40
0.487270243
 40
0.6349785064
 40
0.7039158407
 40
0.7684856636
 40
0.8278123525
 40
0.8807475175
 40
0.9258250721
 40
0.961585043
 40
0.9755358774
 40
0.9866525738
 40
0.9948102998
 40
1.0
 40
1.0
 40
1.0
 40
1.0
 10
6.9678679575
 20
31.2019209023
 30
0.0
 10
6.9572422405
 20
31.2125399786
 30
0.0
 10
6.93612338
 20
31.2334955467
 30
0.0
 10
6.9047091641
 20
31.264198028
 30
0.0
 10
6.8742677317
 20
31.2934516407
 30
0.0
 10
6.8497149331
 20
31.316543021
 30
0.0
 10
6.8310568381
 20
31.3337050478
 30
0.0
 10
6.8181607035
 20
31.3453617318
 30
0.0
 10
6.8062215515
 20
31.3559243146
 30
0.0
 10
6.7954667668
 20
31.3651733442
 30
0.0
 10
6.7861597152
 20
31.3728406971
 30
0.0
 10
6.7793841075
 20
31.3780578929
 30
0.0
 10
6.7748731158
 20
31.3811714056
 30
0.0
 10
6.7723199547
 20
31.3827545846
 30
0.0
 10
6.7703630159
 20
31.3837442866
 30
0.0
 10
6.7691886754
 20
31.3841356674
 30
0.0
 10
6.7687208435
 20
31.3841356674
 30
0.0
  0
SPLINE
  5
2B8
100
AcDbEntity
  8
0
100
AcDbSpline
 62
7
  6
BYLAYER
 70
0
 71
3
 72
19
 73
15
 74
0
 42
0.0000001
 43
0.0000001
 44
0.0000000001
 40
0.0
 40
0.0
 40
0.0
 40
0.0
 40
0.1548106417
 40
0.3098867968
 40
0.4624128442
 40
0.6090589095
 40
0.7451128155
 40
0.8069620802
 40
0.863145269
 40
0.91200817
 40
0.9519261859
 40
0.9815197389
 40
0.9921526638
 40
1.0
 40
1.0
 40
1.0
 40
1.0
 10
4.8678679575
 20
33.7186994258
 30
0.0
 10
4.8791489388
 20
33.7075509585
 30
0.0
 10
4.9015661316
 20
33.6850681361
 30
0.0
 10
4.9345202389
 20
33.6510317039
 30
0.0
 10
4.966369483
 20
33.6170966743
 30
0.0
 10
4.9962829118
 20
33.5840275082
 30
0.0
 10
5.0193641222
 20
33.5573133507
 30
0.0
 10
5.03585221
 20
33.5371670205
 30
0.0
 10
5.0463748657
 20
33.5236894426
 30
0.0
 10
5.0551480635
 20
33.5116964414
 30
0.0
 10
5.0617970669
 20
33.50155809
 30
0.0
 10
5.0657740255
 20
33.4943335349
 30
0.0
 10
5.0674945478
 20
33.4897168162
 30
0.0
 10
5.0678679575
 20
33.4878340202
 30
0.0
 10
5.0678679575
 20
33.4870300636
 30
0.0
  0
SPLINE
  5
2B9
100
AcDbEntity
  8
0
100
AcDbSpline
 62
7
  6
BYLAYER
 70
0
 71
3
 72
11
 73
7
 74
0
 42
0.0000001
 43
0.0000001
 44
0.0000000001
 40
0.0
 40
0.0
 40
0.0
 40
0.0
 40
0.2586088523
 40
0.5173418452
 40
0.769687909
 40
1.0
 40
1.0
 40
1.0
 40
1.0
 10
6.9678621541
 20
35.0274195565
 30
0.0
 10
6.9523122725
 20
35.0046069402
 30
0.0
 10
6.9215652565
 20
34.9587244216
 30
0.0
 10
6.8769284497
 20
34.889730143
 30
0.0
 10
6.8351990238
 20
34.822474458
 30
0.0
 10
6.8090871818
 20
34.778033483
 30
0.0
 10
6.797264891
 20
34.7564749188
 30
0.0
  0
SPLINE
  5
2BA
100
AcDbEntity
  8
0
100
AcDbSpline
 62
7
  6
BYLAYER
 70
0
 71
3
 72
13
 73
9
 74
0
 42
0.0000001
 43
0.0000001
 44
0.0000000001
 40
0.0
 40
0.0
 40
0.0
 40
0.0
 40
0.3464115967
 40
0.6413332577
 40
0.7633282112
 40
0.8651302262
 40
0.9445501144
 40
1.0
 40
1.0
 40
1.0
 40
1.0
 10
6.797264891
 20
34.7564749188
 30
0.0
 10
6.7932618257
 20
34.7491751203
 30
0.0
 10
6.786000834
 20
34.7355785385
 30
0.0
 10
6.7778680494
 20
34.7191247764
 30
0.0
 10
6.7728479914
 20
34.7077141064
 30
0.0
 10
6.7701915563
 20
34.7009187335
 30
0.0
 10
6.7684938565
 20
34.6954978406
 30
0.0
 10
6.7678769179
 20
34.6922779561
 30
0.0
 10
6.7678810894
 20
34.6909453278
 30
0.0
  0
SPLINE
  5
2BB
100
AcDbEntity
  8
0
100
AcDbSpline
 62
7
  6
BYLAYER
 70
0
 71
3
 72
14
 73
10
 74
0
 42
0.0000001
 43
0.0000001
 44
0.0000000001
 40
0.0
 40
0.0
 40
0.0
 40
0.0
 40
0.3095099087
 40
0.4498342243
 40
0.5776147551
 40
0.6939965651
 40
0.8012884777
 40
0.9023478645
 40
1.0
 40
1.0
 40
1.0
 40
1.0
 10
7.5678679575
 20
24.2841356674
 30
0.0
 10
7.5965555658
 20
24.2841356674
 30
0.0
 10
7.6387917786
 20
24.2910577323
 30
0.0
 10
7.6876689242
 20
24.3134126353
 30
0.0
 10
7.7170508235
 20
24.3339598958
 30
0.0
 10
7.7398584898
 20
24.3575126906
 30
0.0
 10
7.7560426873
 20
24.3831618798
 30
0.0
 10
7.7657104683
 20
24.4100651444
 30
0.0
 10
7.7678679575
 20
24.4285499615
 30
0.0
 10
7.7678679575
 20
24.437601065
 30
0.0
  0
SPLINE
  5
2BC
100
AcDbEntity
  8
0
100
AcDbSpline
 62
7
  6
BYLAYER
 70
0
 71
3
 72
12
 73
8
 74
0
 42
0.0000001
 43
0.0000001
 44
0.0000000001
 40
0.0
 40
0.0
 40
0.0
 40
0.0
 40
0.1424894752
 40
0.2819156234
 40
0.5425924763
 40
0.7808531377
 40
1.0
 40
1.0
 40
1.0
 40
1.0
 10
7.7610531227
 20
24.6787553382
 30
0.0
 10
7.7577849228
 20
24.6661279834
 30
0.0
 10
7.7491226875
 20
24.6416737852
 30
0.0
 10
7.7257954287
 20
24.5976758629
 30
0.0
 10
7.688303939
 20
24.5519680326
 30
0.0
 10
7.6356780078
 20
24.5117552957
 30
0.0
 10
7.5971049626
 20
24.4943149407
 30
0.0
 10
7.577930293
 20
24.4884191156
 30
0.0
  0
SPLINE
  5
2BD
100
AcDbEntity
  8
0
100
AcDbSpline
 62
7
  6
BYLAYER
 70
0
 71
3
 72
14
 73
10
 74
0
 42
0.0000001
 43
0.0000001
 44
0.0000000001
 40
0.0
 40
0.0
 40
0.0
 40
0.0
 40
0.3095081044
 40
0.4498170977
 40
0.5776178605
 40
0.6940218408
 40
0.8013140716
 40
0.9023584875
 40
1.0
 40
1.0
 40
1.0
 40
1.0
 10
7.5678679575
 20
22.7841356674
 30
0.0
 10
7.5965554753
 20
22.7841356674
 30
0.0
 10
7.6387862739
 20
22.777207099
 30
0.0
 10
7.687674307
 20
22.7548732234
 30
0.0
 10
7.717050964
 20
22.7343119762
 30
0.0
 10
7.739856477
 20
22.7107526143
 30
0.0
 10
7.7560417424
 20
22.6851034492
 30
0.0
 10
7.7657107427
 20
22.6582029928
 30
0.0
 10
7.7678679575
 20
22.6397204129
 30
0.0
 10
7.7678679575
 20
22.6306702698
 30
0.0
  0
SPLINE
  5
2BE
100
AcDbEntity
  8
0
100
AcDbSpline
 62
7
  6
BYLAYER
 70
0
 71
3
 72
12
 73
8
 74
0
 42
0.0000001
 43
0.0000001
 44
0.0000000001
 40
0.0
 40
0.0
 40
0.0
 40
0.0
 40
0.0754013605
 40
0.1674600361
 40
0.3985212604
 40
0.6826034931
 40
1.0
 40
1.0
 40
1.0
 40
1.0
 10
7.4839609569
 20
22.600331679
 30
0.0
 10
7.4857133019
 20
22.5990414315
 30
0.0
 10
7.4899205828
 20
22.5966086838
 30
0.0
 10
7.5005422713
 20
22.5921567201
 30
0.0
 10
7.5175763789
 20
22.5877279519
 30
0.0
 10
7.5413635743
 20
22.5841969593
 30
0.0
 10
7.5587111425
 20
22.583085264
 30
0.0
 10
7.5678679575
 20
22.5828372601
 30
0.0
  0
SPLINE
  5
2BF
100
AcDbEntity
  8
0
100
AcDbSpline
 62
7
  6
BYLAYER
 70
0
 71
3
 72
19
 73
15
 74
0
 42
0.0000001
 43
0.0000001
 44
0.0000000001
 40
0.0
 40
0.0
 40
0.0
 40
0.0
 40
0.1515436874
 40
0.3039340261
 40
0.4544632354
 40
0.5999476076
 40
0.7358762284
 40
0.798142946
 40
0.8551195244
 40
0.9052033222
 40
0.9468353496
 40
0.9786852827
 40
0.9906645525
 40
1.0
 40
1.0
 40
1.0
 40
1.0
 10
4.8678722024
 20
35.0274200221
 30
0.0
 10
4.8791739633
 20
35.0163491754
 30
0.0
 10
4.9016338793
 20
34.9939334752
 30
0.0
 10
4.9345926013
 20
34.9598022159
 30
0.0
 10
4.9664533168
 20
34.9255008017
 30
0.0
 10
4.9963836125
 20
34.8917673886
 30
0.0
 10
5.0194399559
 20
34.8642666117
 30
0.0
 10
5.035892986
 20
34.8433120517
 30
0.0
 10
5.046428003
 20
34.8291150973
 30
0.0
 10
5.055216751
 20
34.8163091097
 30
0.0
 10
5.0618860584
 20
34.8052658192
 30
0.0
 10
5.0658315141
 20
34.7972211567
 30
0.0
 10
5.0675186431
 20
34.791926875
 30
0.0
 10
5.0678679575
 20
34.7897070399
 30
0.0
 10
5.0678679575
 20
34.7887324497
 30
0.0
  0
SPLINE
  5
2C0
100
AcDbEntity
  8
0
100
AcDbSpline
 62
7
  6
BYLAYER
 70
0
 71
3
 72
12
 73
8
 74
0
 42
0.0000001
 43
0.0000001
 44
0.0000000001
 40
0.0
 40
0.0
 40
0.0
 40
0.0
 40
0.1424910009
 40
0.2819199365
 40
0.5425922785
 40
0.7808504888
 40
1.0
 40
1.0
 40
1.0
 40
1.0
 10
7.7610531227
 20
22.3895159966
 30
0.0
 10
7.7577849051
 20
22.40214342
 30
0.0
 10
7.7491199218
 20
22.4265971114
 30
0.0
 10
7.7257894961
 20
22.4705926154
 30
0.0
 10
7.6883035604
 20
22.5163036212
 30
0.0
 10
7.6356780628
 20
22.5565166444
 30
0.0
 10
7.5971050402
 20
22.5739563385
 30
0.0
 10
7.5779302388
 20
22.5798521998
 30
0.0
  0
SPLINE
  5
2C1
100
AcDbEntity
  8
0
100
AcDbSpline
 62
7
  6
BYLAYER
 70
0
 71
3
 72
13
 73
9
 74
0
 42
0.0000001
 43
0.0000001
 44
0.0000000001
 40
0.0
 40
0.0
 40
0.0
 40
0.0
 40
0.2353139635
 40
0.3638056656
 40
0.4959393244
 40
0.6287233229
 40
0.7590108018
 40
1.0
 40
1.0
 40
1.0
 40
1.0
 10
7.4839609511
 20
22.6003316832
 30
0.0
 10
7.4612318
 20
22.5982635032
 30
0.0
 10
7.4263376093
 20
22.5884676651
 30
0.0
 10
7.3848511314
 20
22.5638038281
 30
0.0
 10
7.3556950555
 20
22.5388542891
 30
0.0
 10
7.3314622527
 20
22.5088816319
 30
0.0
 10
7.3074462965
 20
22.4661137393
 30
0.0
 10
7.2980278004
 20
22.4304338097
 30
0.0
 10
7.2960223621
 20
22.4071465104
 30
0.0
  0
SPLINE
  5
2C2
100
AcDbEntity
  8
0
100
AcDbSpline
 62
7
  6
BYLAYER
 70
0
 71
3
 72
13
 73
9
 74
0
 42
0.0000001
 43
0.0000001
 44
0.0000000001
 40
0.0
 40
0.0
 40
0.0
 40
0.0
 40
0.0678578687
 40
0.1569754453
 40
0.2654112492
 40
0.3906863808
 40
0.6805179488
 40
1.0
 40
1.0
 40
1.0
 40
1.0
 10
7.2960224327
 20
22.4071465137
 30
0.0
 10
7.3022370611
 20
22.4056274213
 30
0.0
 10
7.3168089656
 20
22.4029389844
 30
0.0
 10
7.3416157044
 20
22.3996405235
 30
0.0
 10
7.3719149499
 20
22.3966940871
 30
0.0
 10
7.4211495852
 20
22.3931469281
 30
0.0
 10
7.4903620157
 20
22.3902782832
 30
0.0
 10
7.547809653
 20
22.3895174337
 30
0.0
 10
7.577930219
 20
22.3895159966
 30
0.0
  0
SPLINE
  5
2C3
100
AcDbEntity
  8
0
100
AcDbSpline
 62
7
  6
BYLAYER
 70
0
 71
3
 72
21
 73
17
 74
0
 42
0.0000001
 43
0.0000001
 44
0.0000000001
 40
0.0
 40
0.0
 40
0.0
 40
0.0
 40
0.1449740926
 40
0.2904741523
 40
0.4351041462
 40
0.5771782804
 40
0.6464268865
 40
0.7138138456
 40
0.7785316226
 40
0.8394318689
 40
0.8948089494
 40
0.9420138682
 40
0.9617023354
 40
0.9781502116
 40
0.9909056923
 40
1.0
 40
1.0
 40
1.0
 40
1.0
 10
6.9678657995
 20
35.0274200221
 30
0.0
 10
6.9521801827
 20
35.0173334825
 30
0.0
 10
6.9210593509
 20
34.9966447
 30
0.0
 10
6.8750829352
 20
34.9647238741
 30
0.0
 10
6.8297948754
 20
34.932471832
 30
0.0
 10
6.7930338285
 20
34.9051659002
 30
0.0
 10
6.7646782883
 20
34.8832253202
 30
0.0
 10
6.7444136777
 20
34.8670925165
 30
0.0
 10
6.7252640624
 20
34.8512885604
 30
0.0
 10
6.707709487
 20
34.8359871732
 30
0.0
 10
6.6923782795
 20
34.8215881349
 30
0.0
 10
6.6814493204
 20
34.8102539504
 30
0.0
 10
6.6745275121
 20
34.8020682515
 30
0.0
 10
6.670811334
 20
34.7969685312
 30
0.0
 10
6.6684197654
 20
34.79267587
 30
0.0
 10
6.6677199399
 20
34.7898216385
 30
0.0
 10
6.6678679575
 20
34.788661192
 30
0.0
  0
SPLINE
  5
2C4
100
AcDbEntity
  8
0
100
AcDbSpline
 62
7
  6
BYLAYER
 70
0
 71
3
 72
11
 73
7
 74
0
 42
0.0000001
 43
0.0000001
 44
0.0000000001
 40
0.0
 40
0.0
 40
0.0
 40
0.0
 40
0.2526485618
 40
0.5037440347
 40
0.752649562
 40
1.0
 40
1.0
 40
1.0
 40
1.0
 10
6.6678679575
 20
34.7886600008
 30
0.0
 10
6.6808633674
 20
34.7886596595
 30
0.0
 10
6.7070488452
 20
34.7836122626
 30
0.0
 10
6.7402800001
 20
34.7619472214
 30
0.0
 10
6.7626207577
 20
34.7294597624
 30
0.0
 10
6.7678678789
 20
34.7036463016
 30
0.0
 10
6.7678679575
 20
34.6909234097
 30
0.0
  0
SPLINE
  5
2C5
100
AcDbEntity
  8
0
100
AcDbSpline
 62
7
  6
BYLAYER
 70
0
 71
3
 72
11
 73
7
 74
0
 42
0.0000001
 43
0.0000001
 44
0.0000000001
 40
0.0
 40
0.0
 40
0.0
 40
0.0
 40
0.2088011631
 40
0.4463125874
 40
0.7124452763
 40
1.0
 40
1.0
 40
1.0
 40
1.0
 10
6.9923977301
 20
22.6306702698
 30
0.0
 10
6.9992551328
 20
22.6462974523
 30
0.0
 10
7.0189683871
 20
22.6775469631
 30
0.0
 10
7.0606190885
 20
22.7188046363
 30
0.0
 10
7.1151244715
 20
22.754360979
 30
0.0
 10
7.1576271473
 20
22.7710999591
 30
0.0
 10
7.1803362543
 20
22.7771537088
 30
0.0
  0
SPLINE
  5
2C6
100
AcDbEntity
  8
0
100
AcDbSpline
 62
7
  6
BYLAYER
 70
0
 71
3
 72
11
 73
7
 74
0
 42
0.0000001
 43
0.0000001
 44
0.0000000001
 40
0.0
 40
0.0
 40
0.0
 40
0.0
 40
0.2087957697
 40
0.4462924543
 40
0.712449975
 40
1.0
 40
1.0
 40
1.0
 40
1.0
 10
6.9923977301
 20
24.437601065
 30
0.0
 10
6.9992549565
 20
24.4219742843
 30
0.0
 10
7.018966711
 20
24.3907243275
 30
0.0
 10
7.0606292905
 20
24.3494811446
 30
0.0
 10
7.1151131714
 20
24.3138902177
 30
0.0
 10
7.1576275158
 20
24.2971712774
 30
0.0
 10
7.1803362543
 20
24.291117626
 30
0.0
  0
SPLINE
  5
2C7
100
AcDbEntity
  8
0
100
AcDbSpline
 62
7
  6
BYLAYER
 70
0
 71
3
 72
17
 73
13
 74
0
 42
0.0000001
 43
0.0000001
 44
0.0000000001
 40
0.0
 40
0.0
 40
0.0
 40
0.0
 40
0.1629995114
 40
0.3214919118
 40
0.4731907183
 40
0.6152789164
 40
0.7445426673
 40
0.8560565923
 40
0.9032314259
 40
0.9435506564
 40
0.9760067238
 40
1.0
 40
1.0
 40
1.0
 40
1.0
 10
4.3678679575
 20
11.2354779493
 30
0.0
 10
4.3582230849
 20
11.2260915266
 30
0.0
 10
4.3390337433
 20
11.2077480233
 30
0.0
 10
4.3102642266
 20
11.1813094736
 30
0.0
 10
4.2822133068
 20
11.156653528
 30
0.0
 10
4.2553665852
 20
11.1342969665
 30
0.0
 10
4.2303937077
 20
11.1149081611
 30
0.0
 10
4.2109203091
 20
11.1012258584
 30
0.0
 10
4.1968528485
 20
11.0927271375
 30
0.0
 10
4.1880502337
 20
11.0881495304
 30
0.0
 10
4.1806423743
 20
11.0851653378
 30
0.0
 10
4.176017428
 20
11.0841356674
 30
0.0
 10
4.1740363725
 20
11.0841356674
 30
0.0
  0
SPLINE
  5
2C8
100
AcDbEntity
  8
0
100
AcDbSpline
 62
7
  6
BYLAYER
 70
0
 71
3
 72
19
 73
15
 74
0
 42
0.0000001
 43
0.0000001
 44
0.0000000001
 40
0.0
 40
0.0
 40
0.0
 40
0.0
 40
0.0188187727
 40
0.0415572267
 40
0.0704156853
 40
0.1063726524
 40
0.1496958143
 40
0.2003098512
 40
0.2579947854
 40
0.3223352603
 40
0.468713918
 40
0.6345202633
 40
0.8140017115
 40
1.0
 40
1.0
 40
1.0
 40
1.0
 10
8.2678679575
 20
21.3341356674
 30
0.0
 10
8.2678679575
 20
21.3321631009
 30
0.0
 10
8.2666227051
 20
21.327787848
 30
0.0
 10
8.2618473837
 20
21.3220098019
 30
0.0
 10
8.2544596548
 20
21.3164822282
 30
0.0
 10
8.2444161453
 20
21.3111626939
 30
0.0
 10
8.2317812741
 20
21.30604791
 30
0.0
 10
8.2166400537
 20
21.3011822407
 30
0.0
 10
8.1991209842
 20
21.296620443
 30
0.0
 10
8.1715999649
 20
21.2907461107
 30
0.0
 10
8.1325744635
 20
21.2846653753
 30
0.0
 10
8.0812884447
 20
21.279423052
 30
0.0
 10
8.0256772969
 20
21.2761988658
 30
0.0
 10
7.9873641279
 20
21.2754690007
 30
0.0
 10
7.9678679575
 20
21.2754690007
 30
0.0
  0
SPLINE
  5
2C9
100
AcDbEntity
  8
0
100
AcDbSpline
 62
7
  6
BYLAYER
 70
0
 71
3
 72
19
 73
15
 74
0
 42
0.0000001
 43
0.0000001
 44
0.0000000001
 40
0.0
 40
0.0
 40
0.0
 40
0.0
 40
0.1859978158
 40
0.3654790575
 40
0.531284642
 40
0.6776620784
 40
0.7420017566
 40
0.7996857866
 40
0.8502988292
 40
0.8936212699
 40
0.9295784604
 40
0.9584386723
 40
0.981179741
 40
1.0
 40
1.0
 40
1.0
 40
1.0
 10
7.9678679575
 20
25.7928023341
 30
0.0
 10
7.9873641563
 20
25.7928023341
 30
0.0
 10
8.0256774064
 20
25.7920721054
 30
0.0
 10
8.0812885916
 20
25.7888474458
 30
0.0
 10
8.1325745942
 20
25.7836052917
 30
0.0
 10
8.1716000556
 20
25.7775252574
 30
0.0
 10
8.1991210571
 20
25.7716517858
 30
0.0
 10
8.2166401054
 20
25.7670907543
 30
0.0
 10
8.231781351
 20
25.7622258516
 30
0.0
 10
8.2444162969
 20
25.757111497
 30
0.0
 10
8.2544599124
 20
25.7517917206
 30
0.0
 10
8.2618475764
 20
25.7462631033
 30
0.0
 10
8.2666226239
 20
25.7404840517
 30
0.0
 10
8.2678679575
 20
25.7361083976
 30
0.0
 10
8.2678679575
 20
25.7341356674
 30
0.0
  0
SPLINE
  5
2CA
100
AcDbEntity
  8
0
100
AcDbSpline
 62
7
  6
BYLAYER
 70
0
 71
3
 72
13
 73
9
 74
0
 42
0.0000001
 43
0.0000001
 44
0.0000000001
 40
0.0
 40
0.0
 40
0.0
 40
0.0
 40
0.3193829615
 40
0.60916057
 40
0.7344622931
 40
0.8429419634
 40
0.9321105106
 40
1.0
 40
1.0
 40
1.0
 40
1.0
 10
7.577930219
 20
24.6787553382
 30
0.0
 10
7.5478190117
 20
24.6787538747
 30
0.0
 10
7.4903858649
 20
24.6779921359
 30
0.0
 10
7.4211853107
 20
24.6751262379
 30
0.0
 10
7.3719490747
 20
24.6715800285
 30
0.0
 10
7.3416384396
 20
24.6686322407
 30
0.0
 10
7.3168199915
 20
24.665332129
 30
0.0
 10
7.302239938
 20
24.6626446843
 30
0.0
 10
7.2960224327
 20
24.6611248211
 30
0.0
  0
SPLINE
  5
2CB
100
AcDbEntity
  8
0
100
AcDbSpline
 62
7
  6
BYLAYER
 70
0
 71
3
 72
13
 73
9
 74
0
 42
0.0000001
 43
0.0000001
 44
0.0000000001
 40
0.0
 40
0.0
 40
0.0
 40
0.0
 40
0.2409891966
 40
0.3712766754
 40
0.5040606743
 40
0.6361943336
 40
0.7646860363
 40
1.0
 40
1.0
 40
1.0
 40
1.0
 10
7.2960223595
 20
24.6611248292
 30
0.0
 10
7.298027798
 20
24.6378375297
 30
0.0
 10
7.3074462945
 20
24.6021575996
 30
0.0
 10
7.3314622513
 20
24.5593897065
 30
0.0
 10
7.3556950547
 20
24.5294170487
 30
0.0
 10
7.3848511314
 20
24.5044675092
 30
0.0
 10
7.4263376101
 20
24.4798036717
 30
0.0
 10
7.4612318015
 20
24.4700078332
 30
0.0
 10
7.483960953
 20
24.467939653
 30
0.0
  0
SPLINE
  5
2CC
100
AcDbEntity
  8
0
100
AcDbSpline
 62
7
  6
BYLAYER
 70
0
 71
3
 72
19
 73
15
 74
0
 42
0.0000001
 43
0.0000001
 44
0.0000000001
 40
0.0
 40
0.0
 40
0.0
 40
0.0
 40
0.1548106417
 40
0.3098867968
 40
0.4624128442
 40
0.6090589095
 40
0.7451128155
 40
0.8069620802
 40
0.863145269
 40
0.91200817
 40
0.9519261859
 40
0.9815197389
 40
0.9921526638
 40
1.0
 40
1.0
 40
1.0
 40
1.0
 10
4.3678679575
 20
13.349571909
 30
0.0
 10
4.3565869761
 20
13.3607203763
 30
0.0
 10
4.3341697834
 20
13.3832031987
 30
0.0
 10
4.3012156761
 20
13.4172396309
 30
0.0
 10
4.2693664319
 20
13.4511746604
 30
0.0
 10
4.2394530031
 20
13.4842438266
 30
0.0
 10
4.2163717927
 20
13.5109579841
 30
0.0
 10
4.1998837049
 20
13.5311043143
 30
0.0
 10
4.1893610492
 20
13.5445818922
 30
0.0
 10
4.1805878514
 20
13.5565748934
 30
0.0
 10
4.173938848
 20
13.5667132448
 30
0.0
 10
4.1699618894
 20
13.5739377998
 30
0.0
 10
4.1682413672
 20
13.5785545186
 30
0.0
 10
4.1678679575
 20
13.5804373146
 30
0.0
 10
4.1678679575
 20
13.5812412712
 30
0.0
  0
SPLINE
  5
2CD
100
AcDbEntity
  8
0
100
AcDbSpline
 62
7
  6
BYLAYER
 70
0
 71
3
 72
19
 73
15
 74
0
 42
0.0000001
 43
0.0000001
 44
0.0000000001
 40
0.0
 40
0.0
 40
0.0
 40
0.0
 40
0.1548105084
 40
0.3098868337
 40
0.4624134141
 40
0.609058247
 40
0.7451107635
 40
0.8069614886
 40
0.8631474339
 40
0.9120120798
 40
0.9519290488
 40
0.9815203525
 40
0.9921527068
 40
1.0
 40
1.0
 40
1.0
 40
1.0
 10
4.8678679575
 20
13.349571909
 30
0.0
 10
4.8791489485
 20
13.3607203859
 30
0.0
 10
4.9015660315
 20
13.3832034023
 30
0.0
 10
4.9345200711
 20
13.4172400899
 30
0.0
 10
4.9663698053
 20
13.4511746904
 30
0.0
 10
4.9962827383
 20
13.4842441518
 30
0.0
 10
5.0193623839
 20
13.5109595599
 30
0.0
 10
5.035851539
 20
13.5311054278
 30
0.0
 10
5.0463762432
 20
13.5445822071
 30
0.0
 10
5.0551512252
 20
13.5565743833
 30
0.0
 10
5.0618002061
 20
13.5667126463
 30
0.0
 10
5.0657755985
 20
13.573937667
 30
0.0
 10
5.0674949067
 20
13.5785545539
 30
0.0
 10
5.0678679575
 20
13.5804373176
 30
0.0
 10
5.0678679575
 20
13.5812412712
 30
0.0
  0
SPLINE
  5
2CE
100
AcDbEntity
  8
0
100
AcDbSpline
 62
7
  6
BYLAYER
 70
0
 71
3
 72
19
 73
15
 74
0
 42
0.0000001
 43
0.0000001
 44
0.0000000001
 40
0.0
 40
0.0
 40
0.0
 40
0.0
 40
0.1548105084
 40
0.3098868337
 40
0.4624134141
 40
0.609058247
 40
0.7451107635
 40
0.8069614886
 40
0.8631474339
 40
0.9120120798
 40
0.9519290488
 40
0.9815203525
 40
0.9921527068
 40
1.0
 40
1.0
 40
1.0
 40
1.0
 10
4.3678679575
 20
33.7186994258
 30
0.0
 10
4.3565869664
 20
33.7075509489
 30
0.0
 10
4.3341698834
 20
33.6850679325
 30
0.0
 10
4.3012158439
 20
33.6510312449
 30
0.0
 10
4.2693661096
 20
33.6170966444
 30
0.0
 10
4.2394531767
 20
33.5840271829
 30
0.0
 10
4.2163735311
 20
33.5573117749
 30
0.0
 10
4.1998843759
 20
33.537165907
 30
0.0
 10
4.1893596717
 20
33.5236891277
 30
0.0
 10
4.1805846897
 20
33.5116969515
 30
0.0
 10
4.1739357088
 20
33.5015586885
 30
0.0
 10
4.1699603164
 20
33.4943336678
 30
0.0
 10
4.1682410082
 20
33.4897167809
 30
0.0
 10
4.1678679575
 20
33.4878340172
 30
0.0
 10
4.1678679575
 20
33.4870300636
 30
0.0
  0
SPLINE
  5
2CF
100
AcDbEntity
  8
0
100
AcDbSpline
 62
7
  6
BYLAYER
 70
0
 71
3
 72
19
 73
15
 74
0
 42
0.0000001
 43
0.0000001
 44
0.0000000001
 40
0.0
 40
0.0
 40
0.0
 40
0.0
 40
0.1515431982
 40
0.303932913
 40
0.4544614088
 40
0.5999469351
 40
0.7358770608
 40
0.7981426224
 40
0.8551169638
 40
0.9051995341
 40
0.9468328107
 40
0.9786848246
 40
0.9906645552
 40
1.0
 40
1.0
 40
1.0
 40
1.0
 10
4.8678679575
 20
12.0408470768
 30
0.0
 10
4.8791698914
 20
12.0519180664
 30
0.0
 10
4.901630298
 20
12.0743338875
 30
0.0
 10
4.9345896809
 20
12.1084653947
 30
0.0
 10
4.9664505179
 20
12.1427677844
 30
0.0
 10
4.9963819511
 20
12.1765014674
 30
0.0
 10
5.0194404192
 20
12.2040015103
 30
0.0
 10
5.0358927701
 20
12.2249569659
 30
0.0
 10
5.0464259926
 20
12.2391550464
 30
0.0
 10
5.0552131686
 20
12.2519621464
 30
0.0
 10
5.0618827063
 20
12.2630057451
 30
0.0
 10
5.0658299037
 20
12.2710501245
 30
0.0
 10
5.0675182973
 20
12.2763443736
 30
0.0
 10
5.0678679575
 20
12.2785642783
 30
0.0
 10
5.0678679575
 20
12.2795388851
 30
0.0
  0
SPLINE
  5
2D0
100
AcDbEntity
  8
0
100
AcDbSpline
 62
7
  6
BYLAYER
 70
0
 71
3
 72
17
 73
13
 74
0
 42
0.0000001
 43
0.0000001
 44
0.0000000001
 40
0.0
 40
0.0
 40
0.0
 40
0.0
 40
0.1630026958
 40
0.3214958408
 40
0.4731835306
 40
0.6152618746
 40
0.7445457228
 40
0.8560941562
 40
0.9032716316
 40
0.9435783407
 40
0.9760165359
 40
1.0
 40
1.0
 40
1.0
 40
1.0
 10
4.3678679575
 20
35.8327933855
 30
0.0
 10
4.3582229273
 20
35.8421799615
 30
0.0
 10
4.3390324863
 20
35.8605226801
 30
0.0
 10
4.3102627924
 20
35.8869599197
 30
0.0
 10
4.2822179188
 20
35.91161993
 30
0.0
 10
4.2553770443
 20
35.9339833002
 30
0.0
 10
4.2303974453
 20
35.9533697747
 30
0.0
 10
4.2109126246
 20
35.967043782
 30
0.0
 10
4.1968421934
 20
35.9755411792
 30
0.0
 10
4.1880427896
 20
35.9801197435
 30
0.0
 10
4.1806392365
 20
35.9831056131
 30
0.0
 10
4.1760166115
 20
35.9841356674
 30
0.0
 10
4.1740363725
 20
35.9841356674
 30
0.0
  0
SPLINE
  5
2D1
100
AcDbEntity
  8
0
100
AcDbSpline
 62
7
  6
BYLAYER
 70
0
 71
3
 72
11
 73
7
 74
0
 42
0.0000001
 43
0.0000001
 44
0.0000000001
 40
0.0
 40
0.0
 40
0.0
 40
0.0
 40
0.2499907507
 40
0.4999888988
 40
0.7499901605
 40
1.0
 40
1.0
 40
1.0
 40
1.0
 10
20.9678679575
 20
23.5341356674
 30
0.0
 10
20.9678679575
 20
23.9597044403
 30
0.0
 10
21.0138918362
 20
24.8115298834
 30
0.0
 10
21.2153955954
 20
26.074322033
 30
0.0
 10
21.5350190018
 20
27.3121266075
 30
0.0
 10
21.8145922063
 20
28.1170527082
 30
0.0
 10
21.9678679575
 20
28.5140955066
 30
0.0
  0
SPLINE
  5
2D2
100
AcDbEntity
  8
0
100
AcDbSpline
 62
7
  6
BYLAYER
 70
0
 71
3
 72
11
 73
7
 74
0
 42
0.0000001
 43
0.0000001
 44
0.0000000001
 40
0.0
 40
0.0
 40
0.0
 40
0.0
 40
0.2500100788
 40
0.5000115216
 40
0.7500095668
 40
1.0
 40
1.0
 40
1.0
 40
1.0
 10
21.9678679575
 20
18.5541758282
 30
0.0
 10
21.8145920601
 20
18.9512190051
 30
0.0
 10
21.5350183938
 20
19.7561457143
 30
0.0
 10
21.2153955831
 20
20.9939510016
 30
0.0
 10
21.0138917889
 20
22.2567427061
 30
0.0
 10
20.9678679575
 20
23.1085674367
 30
0.0
 10
20.9678679575
 20
23.5341356674
 30
0.0
  0
ELLIPSE
  5
2D3
100
AcDbEntity
  8
0
100
AcDbEllipse
 62
7
  6
BYLAYER
 10
7.5678679575
 20
24.7323451767
 30
0.0
 11
0.0
 21
0.2070552361
 31
0.0
 40
0.9659258263
 41
-1.8325957146
 42
-1.5707963268
  0
ELLIPSE
  5
2D4
100
AcDbEntity
  8
0
100
AcDbEllipse
 62
7
  6
BYLAYER
 10
7.2531303011
 20
24.4911909035
 30
0.0
 11
0.1767480094
 21
0.1301191194
 31
0.0
 40
0.9112506847
 41
-2.5107543098
 42
-2.2503258051
  0
ELLIPSE
  5
2D5
100
AcDbEntity
  8
0
100
AcDbEllipse
 62
7
  6
BYLAYER
 10
7.5678679575
 20
22.3359261581
 30
0.0
 11
0.0
 21
0.2070552361
 31
0.0
 40
0.9659258263
 41
-1.5707963268
 42
-1.308996939
  0
ELLIPSE
  5
2D6
100
AcDbEntity
  8
0
100
AcDbEllipse
 62
7
  6
BYLAYER
 10
7.2531303011
 20
22.5770804313
 30
0.0
 11
-0.1767480094
 21
0.1301191194
 31
0.0
 40
0.9112506847
 41
-0.8912668484
 42
-0.6308383438
  0
ENDSEC
  0
SECTION
  2
OBJECTS
  0
DICTIONARY
  5
C
100
AcDbDictionary
280
0
281
1
  3
ACAD_GROUP
350
D
  3
ACAD_MLINESTYLE
350
17
  3
ACAD_LAYOUT
350
1A
  3
ACAD_PLOTSETTINGS
350
19
  3
ACAD_PLOTSTYLENAME
350
E
  0
DICTIONARY
  5
D
102
{ACAD_REACTORS
330
C
102
}
100
AcDbDictionary
280
0
281
1
  0
ACDBDICTIONARYWDFLT
  5
E
102
{ACAD_REACTORS
330
C
102
}
100
AcDbDictionary
281
1
  3
Normal
350
F
100
AcDbDictionaryWithDefault
340
F
  0
DICTIONARY
  5
17
102
{ACAD_REACTORS
330
C
102
}
100
AcDbDictionary
280
0
281
1
  3
Standard
350
18
  0
DICTIONARY
  5
19
102
{ACAD_REACTORS
330
C
102
}
100
AcDbDictionary
281
1
  0
DICTIONARY
  5
1A
102
{ACAD_REACTORS
330
C
102
}
100
AcDbDictionary
281
1
  3
Model
350
2D7
  3
Layout1
350
2D8
  0
ACDBPLACEHOLDER
  5
F
102
{ACAD_REACTORS
330
E
102
}
  0
MLINESTYLE
  5
18
102
{ACAD_REACTORS
330
17
102
}
100
AcDbMlineStyle
  2
STANDARD
 70
0
  3

 62
256
 51
90.0
 52
90.0
 71
2
 49
0.5
 62
256
  6
BYLAYER
 49
-0.5
 62
256
  6
BYLAYER
  0
LAYOUT
  5
2D7
102
{ACAD_REACTORS
330
1A
102
}
100
AcDbPlotSettings
  1

  2
none_device
  4

  6

 40
0.0
 41
0.0
 42
0.0
 43
0.0
 44
210.0
 45
297.0
 46
0.0
 47
0.0
 48
0.0
 49
0.0
140
0.0
141
0.0
142
1.0
143
1.0
 70
1024
 72
1
 73
0
 74
0
  7

 75
0
147
1.0
148
0.0
149
0.0
100
AcDbLayout
  1
Model
 70
0
 71
0
 10
0.0
 20
0.0
 11
210.0
 21
297.0
 12
0.0
 22
0.0
 32
0.0
 14
0.0
 24
0.0
 34
0.0
 15
0.0
 25
0.0
 35
0.0
146
0.0
 13
0.0
 23
0.0
 33
0.0
 16
1.0
 26
0.0
 36
0.0
 17
0.0
 27
1.0
 37
0.0
 76
0
330
210
345
0
346
0
  0
LAYOUT
  5
2D8
102
{ACAD_REACTORS
330
1A
102
}
100
AcDbPlotSettings
  1

  2
none_device
  4

  6

 40
0.0
 41
0.0
 42
0.0
 43
0.0
 44
210.0
 45
297.0
 46
0.0
 47
0.0
 48
0.0
 49
0.0
140
0.0
141
0.0
142
1.0
143
1.0
 70
0
 72
1
 73
0
 74
0
  7

 75
0
147
1.0
148
0.0
149
0.0
100
AcDbLayout
  1
Layout1
 70
0
 71
1
 10
0.0
 20
0.0
 11
210.0
 21
297.0
 12
0.0
 22
0.0
 32
0.0
 14
0.0
 24
0.0
 34
0.0
 15
0.0
 25
0.0
 35
0.0
146
0.0
 13
0.0
 23
0.0
 33
0.0
 16
1.0
 26
0.0
 36
0.0
 17
0.0
 27
1.0
 37
0.0
 76
0
330
211
345
0
346
0
  0
ENDSEC
  0
EOF
