999
DXF file: C:\Users\sesa63760\Dev\_Creo\CAD\MCADID0004735_3D-CAD\drw0001_7.dxf
999
Pro/ENGINEER 2019471 by Parametric Technology Corporation
  0
SECTION
  2
HEADER
  9
$ACADVER
  1
AC1024
  9
$DWGCODEPAGE
  3
ANSI_1252
  9
$EXTMAX
 10
33.1184492629
 20
46.8389496718
 30
0.0
  9
$EXTMIN
 10
0.0
 20
0.0
 30
0.0
  9
$LIMMIN
 10
0.0
 20
0.0
  9
$LIMMAX
 10
33.1184492629
 20
46.8389496718
  9
$VIEWCTR
 10
16.5592246314
 20
23.4194748359
  9
$VIEWSIZE
 40
46.8389496718
  9
$CLAYER
  8
0
  9
$LTSCALE
 40
3.0532056082
  9
$CELTYPE
  6
BYLAYER
  9
$DIMSCALE
 40
1.0
  9
$DIMASZ
 40
0.3942672531
  9
$DIMEXO
 40
1.0
  9
$DIMDLI
 40
2.1094875111
  9
$DIMEXE
 40
1.0
  9
$DIMCEN
 40
0.4996154632
  9
$DIMLFAC
 40
1.0
  9
$DIMBLK
  1
_FILLED
  9
$DIMALT
 70
0
  9
$DIMALTF
 40
0.0393700787
  9
$DIMTXT
 40
0.5519741544
  9
$DIMTOL
 70
1
  9
$DIMLIM
 70
0
  9
$DIMTFAC
 40
1.0
  9
$DIMTP
 40
0.01
  9
$DIMTM
 40
0.01
  9
$DIMGAP
 40
0.625
  9
$DIMDSEP
 70
46
  9
$AUNITS
 70
0
  9
$PDMODE
 70
3
  9
$PDSIZE
 40
0.3125
  9
$HANDSEED
  5
2DE
  9
$TILEMODE
 70
1
  9
$MEASUREMENT
 70
1
  9
$INSUNITS
 70
4
  0
ENDSEC
  0
SECTION
  2
CLASSES
  0
CLASS
  1
ACDBDICTIONARYWDFLT
  2
AcDbDictionaryWithDefault
  3
AutoCAD 2000
 90
0
 91
1
280
0
281
0
  0
CLASS
  1
ACDBPLACEHOLDER
  2
AcDbPlaceHolder
  3
AutoCAD 2000
 90
0
 91
1
280
0
281
0
  0
CLASS
  1
LAYOUT
  2
AcDbLayout
  3
AutoCAD 2000
 90
0
 91
0
280
0
281
0
  0
ENDSEC
  0
SECTION
  2
TABLES
  0
TABLE
  2
VPORT
  5
8
100
AcDbSymbolTable
 70
2
  0
VPORT
  5
1F4
100
AcDbSymbolTableRecord
100
AcDbViewportTableRecord
  2
*ACTIVE
 70
0
 10
0.0
 20
0.0
 11
1.0
 21
1.0
 12
16.5592246314
 22
23.4194748359
 13
0.0
 23
0.0
 14
1.0
 24
1.0
 15
0.0
 25
0.0
 16
0.0
 26
0.0
 36
1.0
 17
0.0
 27
0.0
 37
0.0
 40
46.8389496718
 41
0.7070707071
 42
50.0
 43
0.0
 44
0.0
 50
0.0
 51
0.0
 71
0
 72
100
 73
1
 74
1
 75
0
 76
0
 77
0
 78
0
  0
ENDTAB
  0
TABLE
  2
LTYPE
  5
5
100
AcDbSymbolTable
 70
6
  0
LTYPE
  5
14
100
AcDbSymbolTableRecord
100
AcDbLinetypeTableRecord
  2
BYBLOCK
 70
0
  3

 72
65
 73
0
 40
0.0
  0
LTYPE
  5
15
100
AcDbSymbolTableRecord
100
AcDbLinetypeTableRecord
  2
BYLAYER
 70
0
  3

 72
65
 73
0
 40
0.0
  0
LTYPE
  5
16
100
AcDbSymbolTableRecord
100
AcDbLinetypeTableRecord
  2
CONTINUOUS
 70
64
  3
Solid line
 72
65
 73
0
 40
0.0
  0
LTYPE
  5
1F5
100
AcDbSymbolTableRecord
100
AcDbLinetypeTableRecord
  2
CENTER
 70
64
  3
____ _ ____ _ ____ _ ____ _ ____ _ ____ _ ____
 72
65
 73
4
 40
0.6
 49
0.375
 74
0
 49
-0.075
 74
0
 49
0.075
 74
0
 49
-0.075
 74
0
  0
LTYPE
  5
1F6
100
AcDbSymbolTableRecord
100
AcDbLinetypeTableRecord
  2
HIDDEN
 70
64
  3
- - - - - - - - - - - - - - - - - - - -
 72
65
 73
2
 40
0.2
 49
0.1
 74
0
 49
-0.1
 74
0
  0
LTYPE
  5
1F7
100
AcDbSymbolTableRecord
100
AcDbLinetypeTableRecord
  2
PHANTOM
 70
64
  3
_____ _ _ _____ _ _ _____ _ _ _____
 72
65
 73
6
 40
0.8
 49
0.45
 74
0
 49
-0.05
 74
0
 49
0.1
 74
0
 49
-0.05
 74
0
 49
0.1
 74
0
 49
-0.05
 74
0
  0
LTYPE
  5
1F8
100
AcDbSymbolTableRecord
100
AcDbLinetypeTableRecord
  2
DOT
 70
64
  3
. . . . . . . . . . . . . . . . . . . .
 72
65
 73
2
 40
0.2
 49
0.1
 74
0
 49
-0.1
 74
0
  0
LTYPE
  5
1F9
100
AcDbSymbolTableRecord
100
AcDbLinetypeTableRecord
  2
DASHED
 70
64
  3
- - - - - - - - - - - - - - - - - - - -
 72
65
 73
2
 40
0.2
 49
0.1
 74
0
 49
-0.1
 74
0
  0
ENDTAB
  0
TABLE
  2
LAYER
  5
2
100
AcDbSymbolTable
 70
36
  0
LAYER
  5
10
100
AcDbSymbolTableRecord
100
AcDbLayerTableRecord
  2
0
 70
0
 62
7
  6
CONTINUOUS
370
-3
390
F
  0
LAYER
  5
1FA
100
AcDbSymbolTableRecord
100
AcDbLayerTableRecord
  2
DEFAULT_1
 70
0
 62
7
  6
CENTER
370
-3
390
F
  0
LAYER
  5
1FB
100
AcDbSymbolTableRecord
100
AcDbLayerTableRecord
  2
DEFAULT_2
 70
0
 62
7
  6
HIDDEN
370
-3
390
F
  0
LAYER
  5
1FC
100
AcDbSymbolTableRecord
100
AcDbLayerTableRecord
  2
DEFAULT_3
 70
0
 62
7
  6
PHANTOM
370
-3
390
F
  0
LAYER
  5
1FD
100
AcDbSymbolTableRecord
100
AcDbLayerTableRecord
  2
00_COMPONENTS
 70
0
 62
7
  6
CONTINUOUS
370
-3
390
F
  0
LAYER
  5
1FE
100
AcDbSymbolTableRecord
100
AcDbLayerTableRecord
  2
01_1_DEFAULT_DATUMS
 70
0
 62
7
  6
CONTINUOUS
370
-3
390
F
  0
LAYER
  5
1FF
100
AcDbSymbolTableRecord
100
AcDbLayerTableRecord
  2
01_PLANES
 70
0
 62
7
  6
CONTINUOUS
370
-3
390
F
  0
LAYER
  5
200
100
AcDbSymbolTableRecord
100
AcDbLayerTableRecord
  2
02_COORD_SYS
 70
0
 62
7
  6
CONTINUOUS
370
-3
390
F
  0
LAYER
  5
201
100
AcDbSymbolTableRecord
100
AcDbLayerTableRecord
  2
03_AXES
 70
0
 62
7
  6
CONTINUOUS
370
-3
390
F
  0
LAYER
  5
202
100
AcDbSymbolTableRecord
100
AcDbLayerTableRecord
  2
04_POINTS
 70
0
 62
7
  6
CONTINUOUS
370
-3
390
F
  0
LAYER
  5
203
100
AcDbSymbolTableRecord
100
AcDbLayerTableRecord
  2
05_CURVES
 70
0
 62
7
  6
CONTINUOUS
370
-3
390
F
  0
LAYER
  5
204
100
AcDbSymbolTableRecord
100
AcDbLayerTableRecord
  2
06_SURFS
 70
0
 62
7
  6
CONTINUOUS
370
-3
390
F
  0
LAYER
  5
205
100
AcDbSymbolTableRecord
100
AcDbLayerTableRecord
  2
07_COSMETICS
 70
0
 62
7
  6
CONTINUOUS
370
-3
390
F
  0
LAYER
  5
206
100
AcDbSymbolTableRecord
100
AcDbLayerTableRecord
  2
10_NOTES
 70
0
 62
7
  6
CONTINUOUS
370
-3
390
F
  0
LAYER
  5
207
100
AcDbSymbolTableRecord
100
AcDbLayerTableRecord
  2
11_NOTES_PUB
 70
0
 62
7
  6
CONTINUOUS
370
-3
390
F
  0
LAYER
  5
208
100
AcDbSymbolTableRecord
100
AcDbLayerTableRecord
  2
13_REF_GTOL
 70
0
 62
7
  6
CONTINUOUS
370
-3
390
F
  0
LAYER
  5
209
100
AcDbSymbolTableRecord
100
AcDbLayerTableRecord
  2
16_MISC
 70
0
 62
7
  6
CONTINUOUS
370
-3
390
F
  0
LAYER
  5
20A
100
AcDbSymbolTableRecord
100
AcDbLayerTableRecord
  2
17_NO_PRINT
 70
0
 62
7
  6
CONTINUOUS
370
-3
390
F
  0
LAYER
  5
20B
100
AcDbSymbolTableRecord
100
AcDbLayerTableRecord
  2
18_DATUM_CAMS_JOINTS
 70
0
 62
7
  6
CONTINUOUS
370
-3
390
F
  0
LAYER
  5
20C
100
AcDbSymbolTableRecord
100
AcDbLayerTableRecord
  2
19_DATUM_FUNCTIONAL
 70
0
 62
7
  6
CONTINUOUS
370
-3
390
F
  0
LAYER
  5
20D
100
AcDbSymbolTableRecord
100
AcDbLayerTableRecord
  2
20_DATUM_KINEMATIC_SCHEME
 70
0
 62
7
  6
CONTINUOUS
370
-3
390
F
  0
ENDTAB
  0
TABLE
  2
STYLE
  5
3
100
AcDbSymbolTable
 70
1
  0
STYLE
  5
11
100
AcDbSymbolTableRecord
100
AcDbTextStyleTableRecord
  2
STANDARD
 70
0
 40
0.0
 41
1.0
 50
0.0
 71
0
 42
0.2
  3
ARIAL.TTF
  4

  0
STYLE
  5
20E
100
AcDbSymbolTableRecord
100
AcDbTextStyleTableRecord
  2
TEXTSTYLE_1
 70
0
 40
0.0
 41
0.8
 50
0.0
 71
0
 42
0.2
  3
gdt
  4

  0
ENDTAB
  0
TABLE
  2
VIEW
  5
6
100
AcDbSymbolTable
 70
0
  0
ENDTAB
  0
TABLE
  2
UCS
  5
7
100
AcDbSymbolTable
 70
0
  0
ENDTAB
  0
TABLE
  2
APPID
  5
9
100
AcDbSymbolTable
 70
1
  0
APPID
  5
20F
100
AcDbSymbolTableRecord
100
AcDbRegAppTableRecord
  2
ACAD
 70
0
  0
ENDTAB
  0
TABLE
  2
BLOCK_RECORD
  5
1
100
AcDbSymbolTable
 70
0
  0
BLOCK_RECORD
  5
210
100
AcDbSymbolTableRecord
100
AcDbBlockTableRecord
  2
*Model_Space
  0
BLOCK_RECORD
  5
211
100
AcDbSymbolTableRecord
100
AcDbBlockTableRecord
  2
*Paper_Space
  0
BLOCK_RECORD
  5
212
100
AcDbSymbolTableRecord
100
AcDbBlockTableRecord
  2
_FILLED
  0
ENDTAB
  0
TABLE
  2
DIMSTYLE
  5
A
100
AcDbSymbolTable
 70
1
100
AcDbDimStyleTable
 71
0
  0
DIMSTYLE
105
213
100
AcDbSymbolTableRecord
100
AcDbDimStyleTableRecord
  2
STANDARD
 70
0
  3

  4

 40
1.0
 41
0.3942672531
 42
1.0
 43
0.38
 44
1.0
 45
0.0
 46
0.0
 47
0.01
 48
0.01
140
0.5519741544
141
0.09
142
0.0
143
25.4
144
1.0
145
0.0
146
1.0
147
0.625
 71
1
 72
0
 73
0
 74
0
 75
0
 76
0
 77
1
 78
8
 79
2
170
0
171
1
172
0
173
0
174
0
175
0
176
0
177
0
178
0
270
2
179
2
271
2
272
2
273
2
274
2
275
0
280
0
281
0
282
0
283
1
284
8
285
0
286
0
287
3
288
0
340
11
278
46
341
212
342
212
343
212
344
212
  0
ENDTAB
  0
ENDSEC
  0
SECTION
  2
BLOCKS
  0
BLOCK
  5
20
100
AcDbEntity
  8
0
100
AcDbBlockBegin
  2
*Model_Space
 70
0
 10
0.0
 20
0.0
 30
0.0
  3
*Model_Space
  1

  0
ENDBLK
  5
21
100
AcDbEntity
  8
0
100
AcDbBlockEnd
  0
BLOCK
  5
1C
100
AcDbEntity
  8
0
100
AcDbBlockBegin
  2
*Paper_Space
 70
0
 10
0.0
 20
0.0
 30
0.0
  3
*Paper_Space
  1

  0
ENDBLK
  5
1D
100
AcDbEntity
  8
0
100
AcDbBlockEnd
  0
BLOCK
  5
214
100
AcDbEntity
  8
0
100
AcDbBlockBegin
  2
_FILLED
 70
64
 10
0.0
 20
0.0
  3
_FILLED
  1

  0
SOLID
  5
215
100
AcDbEntity
  8
0
  6
BYBLOCK
 62
0
100
AcDbTrace
 10
0.0
 20
0.0
 11
-1.0
 21
0.25
 12
-1.0
 22
-0.25
 13
-1.0
 23
-0.25
  0
ENDBLK
  5
216
100
AcDbEntity
  8
0
  6
BYBLOCK
 62
0
100
AcDbBlockEnd
  0
ENDSEC
  0
SECTION
  2
ENTITIES
  0
LINE
  5
217
100
AcDbEntity
  8
0
100
AcDbLine
 62
7
  6
BYLAYER
 10
3.7665550472
 20
33.4841356674
 11
3.5665550472
 21
33.2841356674
  0
LINE
  5
218
100
AcDbEntity
  8
0
100
AcDbLine
 62
7
  6
BYLAYER
 10
3.7665550472
 20
13.5841356674
 11
3.5665550472
 21
13.7841356674
  0
LINE
  5
219
100
AcDbEntity
  8
0
100
AcDbLine
 62
7
  6
BYLAYER
 10
6.0183188562
 20
34.5773208327
 11
6.225133691
 21
34.7841356674
  0
LINE
  5
21A
100
AcDbEntity
  8
0
100
AcDbLine
 62
7
  6
BYLAYER
 10
6.3665550472
 20
34.6427143112
 11
6.1597402124
 21
34.4358994764
  0
LINE
  5
21B
100
AcDbEntity
  8
0
100
AcDbLine
 62
7
  6
BYLAYER
 10
6.225133691
 20
12.2841356674
 11
6.0183188562
 21
12.4909505021
  0
LINE
  5
21C
100
AcDbEntity
  8
0
100
AcDbLine
 62
7
  6
BYLAYER
 10
6.1597402124
 20
12.6323718584
 11
6.3665550472
 21
12.4255570236
  0
LINE
  5
21D
100
AcDbEntity
  8
0
100
AcDbLine
 62
7
  6
BYLAYER
 10
3.5165550472
 20
10.8841356674
 11
3.5165550472
 21
17.0341356674
  0
LINE
  5
21E
100
AcDbEntity
  8
0
100
AcDbLine
 62
7
  6
BYLAYER
 10
3.5165550472
 20
30.0341356674
 11
3.5165550472
 21
36.1841356674
  0
LINE
  5
21F
100
AcDbEntity
  8
0
100
AcDbLine
 62
7
  6
BYLAYER
 10
3.7665550472
 20
11.0841356674
 11
3.7665550472
 21
13.5841356674
  0
LINE
  5
220
100
AcDbEntity
  8
0
100
AcDbLine
 62
7
  6
BYLAYER
 10
3.7665550472
 20
33.4870300636
 11
3.7665550472
 21
35.9841356674
  0
LINE
  5
221
100
AcDbEntity
  8
0
100
AcDbLine
 62
7
  6
BYLAYER
 10
3.9665550472
 20
11.2354779493
 11
3.9665550472
 21
13.349571909
  0
LINE
  5
222
100
AcDbEntity
  8
0
100
AcDbLine
 62
7
  6
BYLAYER
 10
3.9665550472
 20
33.7186994258
 11
3.9665550472
 21
35.8327933855
  0
LINE
  5
223
100
AcDbEntity
  8
0
100
AcDbLine
 62
7
  6
BYLAYER
 10
4.4665550472
 20
35.0274200222
 11
4.4665550472
 21
33.7186994258
  0
LINE
  5
224
100
AcDbEntity
  8
0
100
AcDbLine
 62
7
  6
BYLAYER
 10
4.4665550472
 20
13.349571909
 11
4.4665550472
 21
12.0408483728
  0
LINE
  5
225
100
AcDbEntity
  8
0
100
AcDbLine
 62
7
  6
BYLAYER
 10
27.7165550472
 20
10.6341356674
 11
29.7165550472
 21
10.6341356674
  0
LINE
  5
226
100
AcDbEntity
  8
0
100
AcDbLine
 62
7
  6
BYLAYER
 10
7.3665550472
 20
10.8841356674
 11
3.5165550472
 21
10.8841356674
  0
LINE
  5
227
100
AcDbEntity
  8
0
100
AcDbLine
 62
7
  6
BYLAYER
 10
3.7665550472
 20
11.0841356674
 11
7.3665550472
 21
11.0841356674
  0
LINE
  5
228
100
AcDbEntity
  8
0
100
AcDbLine
 62
7
  6
BYLAYER
 10
3.9665550472
 20
11.2354779493
 11
7.3665550472
 21
11.2354779493
  0
LINE
  5
229
100
AcDbEntity
  8
0
100
AcDbLine
 62
7
  6
BYLAYER
 10
4.6665550472
 20
34.7887324497
 11
4.6665550472
 21
33.4841356674
  0
LINE
  5
22A
100
AcDbEntity
  8
0
100
AcDbLine
 62
7
  6
BYLAYER
 10
4.6665550472
 20
13.5812412712
 11
4.6665550472
 21
12.2795388851
  0
LINE
  5
22B
100
AcDbEntity
  8
0
100
AcDbLine
 62
7
  6
BYLAYER
 10
4.8665550472
 20
34.5841356674
 11
4.8665550472
 21
33.2841356674
  0
LINE
  5
22C
100
AcDbEntity
  8
0
100
AcDbLine
 62
7
  6
BYLAYER
 10
4.8665550472
 20
13.7841356674
 11
4.8665550472
 21
12.4841356674
  0
LINE
  5
22D
100
AcDbEntity
  8
0
100
AcDbLine
 62
7
  6
BYLAYER
 10
5.3665550472
 20
17.0341356674
 11
5.3665550472
 21
19.4841356674
  0
LINE
  5
22E
100
AcDbEntity
  8
0
100
AcDbLine
 62
7
  6
BYLAYER
 10
5.3665550472
 20
27.5841356674
 11
5.3665550472
 21
30.0341356674
  0
LINE
  5
22F
100
AcDbEntity
  8
0
100
AcDbLine
 62
7
  6
BYLAYER
 10
20.5665316902
 20
11.6341356674
 11
27.7165550472
 21
11.6341356674
  0
LINE
  5
230
100
AcDbEntity
  8
0
100
AcDbLine
 62
7
  6
BYLAYER
 10
10.6665550472
 20
11.9841356674
 11
11.9834141198
 21
11.9841356674
  0
LINE
  5
231
100
AcDbEntity
  8
0
100
AcDbLine
 62
7
  6
BYLAYER
 10
19.0665550472
 20
11.9841356674
 11
20.2165550472
 21
11.9841356674
  0
LINE
  5
232
100
AcDbEntity
  8
0
100
AcDbLine
 62
7
  6
BYLAYER
 10
6.5665550472
 20
12.0408483728
 11
4.4665550472
 21
12.0408483728
  0
LINE
  5
233
100
AcDbEntity
  8
0
100
AcDbLine
 62
7
  6
BYLAYER
 10
6.2665550472
 20
12.2841356674
 11
4.6665550472
 21
12.2841356674
  0
LINE
  5
234
100
AcDbEntity
  8
0
100
AcDbLine
 62
7
  6
BYLAYER
 10
4.8665550472
 20
12.4841356674
 11
5.9665550472
 21
12.4841356674
  0
LINE
  5
235
100
AcDbEntity
  8
0
100
AcDbLine
 62
7
  6
BYLAYER
 10
6.1665550472
 20
12.6841356674
 11
6.1665550472
 21
15.4841356674
  0
LINE
  5
236
100
AcDbEntity
  8
0
100
AcDbLine
 62
7
  6
BYLAYER
 10
6.1665550472
 20
31.5841356674
 11
6.1665550472
 21
34.3841356674
  0
LINE
  5
237
100
AcDbEntity
  8
0
100
AcDbLine
 62
7
  6
BYLAYER
 10
6.2665550472
 20
34.788661192
 11
6.2665550472
 21
34.7841356674
  0
LINE
  5
238
100
AcDbEntity
  8
0
100
AcDbLine
 62
7
  6
BYLAYER
 10
6.2665550472
 20
12.2841356674
 11
6.2665550472
 21
12.2796101427
  0
LINE
  5
239
100
AcDbEntity
  8
0
100
AcDbLine
 62
7
  6
BYLAYER
 10
6.3665550472
 20
12.377347367
 11
6.3665550472
 21
15.6841356674
  0
LINE
  5
23A
100
AcDbEntity
  8
0
100
AcDbLine
 62
7
  6
BYLAYER
 10
6.3665550472
 20
19.4841356674
 11
6.3665550472
 21
27.5841356674
  0
LINE
  5
23B
100
AcDbEntity
  8
0
100
AcDbLine
 62
7
  6
BYLAYER
 10
6.3665550472
 20
31.3841356674
 11
6.3665550472
 21
34.6909245406
  0
LINE
  5
23C
100
AcDbEntity
  8
0
100
AcDbLine
 62
7
  6
BYLAYER
 10
6.5665550472
 20
12.0408483728
 11
6.5665550472
 21
15.8663504325
  0
LINE
  5
23D
100
AcDbEntity
  8
0
100
AcDbLine
 62
7
  6
BYLAYER
 10
6.5665550472
 20
31.2019209023
 11
6.5665550472
 21
35.0274200222
  0
LINE
  5
23E
100
AcDbEntity
  8
0
100
AcDbLine
 62
7
  6
BYLAYER
 10
6.5910848198
 20
24.437601065
 11
6.5910848198
 21
22.6306702698
  0
LINE
  5
23F
100
AcDbEntity
  8
0
100
AcDbLine
 62
7
  6
BYLAYER
 10
6.779023344
 20
22.7771537088
 11
6.779023344
 21
24.291117626
  0
LINE
  5
240
100
AcDbEntity
  8
0
100
AcDbLine
 62
7
  6
BYLAYER
 10
6.8947095224
 20
27.5841356674
 11
6.8947095224
 21
24.6611248211
  0
LINE
  5
241
100
AcDbEntity
  8
0
100
AcDbLine
 62
7
  6
BYLAYER
 10
6.8947095224
 20
22.4071465137
 11
6.8947095224
 21
19.4841356674
  0
LINE
  5
242
100
AcDbEntity
  8
0
100
AcDbLine
 62
7
  6
BYLAYER
 10
13.1072339
 20
12.2025841037
 11
11.9834141198
 21
11.9841356674
  0
LINE
  5
243
100
AcDbEntity
  8
0
100
AcDbLine
 62
7
  6
BYLAYER
 10
14.4901525883
 20
12.761319522
 11
14.8647591817
 21
12.8341356674
  0
LINE
  5
244
100
AcDbEntity
  8
0
100
AcDbLine
 62
7
  6
BYLAYER
 10
14.8647591817
 20
12.8341356674
 11
15.0320166597
 21
12.8341356674
  0
LINE
  5
245
100
AcDbEntity
  8
0
100
AcDbLine
 62
7
  6
BYLAYER
 10
4.4665550472
 20
13.349571909
 11
3.9665550472
 21
13.349571909
  0
LINE
  5
246
100
AcDbEntity
  8
0
100
AcDbLine
 62
7
  6
BYLAYER
 10
4.6665550472
 20
13.5841356674
 11
3.7665550472
 21
13.5841356674
  0
LINE
  5
247
100
AcDbEntity
  8
0
100
AcDbLine
 62
7
  6
BYLAYER
 10
7.9665550472
 20
13.7341356674
 11
10.2665550472
 21
13.7341356674
  0
LINE
  5
248
100
AcDbEntity
  8
0
100
AcDbLine
 62
7
  6
BYLAYER
 10
3.5165550472
 20
13.7841356674
 11
4.8665550472
 21
13.7841356674
  0
LINE
  5
249
100
AcDbEntity
  8
0
100
AcDbLine
 62
7
  6
BYLAYER
 10
7.1665550472
 20
24.4854340673
 11
7.1665550472
 21
22.5828372601
  0
LINE
  5
24A
100
AcDbEntity
  8
0
100
AcDbLine
 62
7
  6
BYLAYER
 10
7.1766173087
 20
24.4884191311
 11
7.1766173087
 21
27.5841356674
  0
LINE
  5
24B
100
AcDbEntity
  8
0
100
AcDbLine
 62
7
  6
BYLAYER
 10
7.1766173087
 20
19.4841356674
 11
7.1766173285
 21
22.5798521998
  0
LINE
  5
24C
100
AcDbEntity
  8
0
100
AcDbLine
 62
7
  6
BYLAYER
 10
7.3665550472
 20
10.8841356674
 11
7.3665550472
 21
36.1841356674
  0
LINE
  5
24D
100
AcDbEntity
  8
0
100
AcDbLine
 62
7
  6
BYLAYER
 10
7.5665550472
 20
26.0341356674
 11
7.5665550472
 21
21.0341356674
  0
LINE
  5
24E
100
AcDbEntity
  8
0
100
AcDbLine
 62
7
  6
BYLAYER
 10
7.8665550472
 20
25.7341356674
 11
7.8665550472
 21
21.3341356674
  0
LINE
  5
24F
100
AcDbEntity
  8
0
100
AcDbLine
 62
7
  6
BYLAYER
 10
7.9665550472
 20
13.7341356674
 11
7.9665550472
 21
33.3341356674
  0
LINE
  5
250
100
AcDbEntity
  8
0
100
AcDbLine
 62
7
  6
BYLAYER
 10
3.5165550472
 20
14.4582588195
 11
6.1665550472
 21
14.4582588195
  0
LINE
  5
251
100
AcDbEntity
  8
0
100
AcDbLine
 62
7
  6
BYLAYER
 10
6.1665550472
 20
15.4841356674
 11
3.5165550472
 21
15.4841356674
  0
LINE
  5
252
100
AcDbEntity
  8
0
100
AcDbLine
 62
7
  6
BYLAYER
 10
3.5165550472
 20
15.6841356674
 11
6.3674079332
 21
15.6841356674
  0
LINE
  5
253
100
AcDbEntity
  8
0
100
AcDbLine
 62
7
  6
BYLAYER
 10
3.5165550472
 20
15.8663504325
 11
6.5665550472
 21
15.8663504325
  0
LINE
  5
254
100
AcDbEntity
  8
0
100
AcDbLine
 62
7
  6
BYLAYER
 10
10.2665550472
 20
33.3341356674
 11
10.2665550472
 21
13.7341356674
  0
LINE
  5
255
100
AcDbEntity
  8
0
100
AcDbLine
 62
7
  6
BYLAYER
 10
6.5910848198
 20
24.437601065
 11
6.8947095224
 21
24.6611248211
  0
LINE
  5
256
100
AcDbEntity
  8
0
100
AcDbLine
 62
7
  6
BYLAYER
 10
7.0826480466
 20
24.4679396558
 11
6.8329769051
 21
24.2841356674
  0
LINE
  5
257
100
AcDbEntity
  8
0
100
AcDbLine
 62
7
  6
BYLAYER
 10
5.3665550472
 20
17.0341356674
 11
3.5165550472
 21
17.0341356674
  0
LINE
  5
258
100
AcDbEntity
  8
0
100
AcDbLine
 62
7
  6
BYLAYER
 10
6.8947095224
 20
22.4071465137
 11
6.5910848198
 21
22.6306702698
  0
LINE
  5
259
100
AcDbEntity
  8
0
100
AcDbLine
 62
7
  6
BYLAYER
 10
6.8329769052
 20
22.7841356674
 11
7.0826480466
 21
22.600331679
  0
LINE
  5
25A
100
AcDbEntity
  8
0
100
AcDbLine
 62
7
  6
BYLAYER
 10
10.6665550472
 20
11.9841356674
 11
10.6665550472
 21
35.0841356674
  0
LINE
  5
25B
100
AcDbEntity
  8
0
100
AcDbLine
 62
7
  6
BYLAYER
 10
20.2165550472
 20
35.0841356674
 11
20.5665550472
 21
35.4341356674
  0
LINE
  5
25C
100
AcDbEntity
  8
0
100
AcDbLine
 62
7
  6
BYLAYER
 10
26.3665550472
 20
18.3216506554
 11
24.3665550472
 21
18.3216506554
  0
LINE
  5
25D
100
AcDbEntity
  8
0
100
AcDbLine
 62
7
  6
BYLAYER
 10
7.3665550472
 20
18.5341356674
 11
5.3665550472
 21
18.5341356674
  0
LINE
  5
25E
100
AcDbEntity
  8
0
100
AcDbLine
 62
7
  6
BYLAYER
 10
27.7165550472
 20
18.5541758282
 11
26.3665550472
 21
18.5541758282
  0
LINE
  5
25F
100
AcDbEntity
  8
0
100
AcDbLine
 62
7
  6
BYLAYER
 10
24.3665550472
 20
18.5541758282
 11
21.5665550472
 21
18.5541758282
  0
LINE
  5
260
100
AcDbEntity
  8
0
100
AcDbLine
 62
7
  6
BYLAYER
 10
20.2165550472
 20
11.9841356674
 11
20.5665550472
 21
11.6341356674
  0
LINE
  5
261
100
AcDbEntity
  8
0
100
AcDbLine
 62
7
  6
BYLAYER
 10
11.9834141198
 20
35.0841356674
 11
11.9834141198
 21
26.5234956383
  0
LINE
  5
262
100
AcDbEntity
  8
0
100
AcDbLine
 62
7
  6
BYLAYER
 10
11.9834141198
 20
20.5447756965
 11
11.9834141198
 21
11.9841356674
  0
LINE
  5
263
100
AcDbEntity
  8
0
100
AcDbLine
 62
7
  6
BYLAYER
 10
13.0604470812
 20
26.4717318293
 11
13.0604470812
 21
20.5965395055
  0
LINE
  5
264
100
AcDbEntity
  8
0
100
AcDbLine
 62
7
  6
BYLAYER
 10
5.3665550472
 20
19.4841356674
 11
7.1766173087
 21
19.4841356674
  0
LINE
  5
265
100
AcDbEntity
  8
0
100
AcDbLine
 62
7
  6
BYLAYER
 10
13.1072339
 20
12.2025841037
 11
13.1072338658
 21
34.8656872449
  0
LINE
  5
266
100
AcDbEntity
  8
0
100
AcDbLine
 62
7
  6
BYLAYER
 10
11.9834141197
 20
20.5447756965
 11
10.6665550472
 21
20.5447756965
  0
LINE
  5
267
100
AcDbEntity
  8
0
100
AcDbLine
 62
7
  6
BYLAYER
 10
10.6665550472
 20
20.5965395055
 11
13.0604470812
 21
20.5965395055
  0
LINE
  5
268
100
AcDbEntity
  8
0
100
AcDbLine
 62
7
  6
BYLAYER
 10
7.3665550472
 20
21.0341356674
 11
7.5665550472
 21
21.0341356674
  0
LINE
  5
269
100
AcDbEntity
  8
0
100
AcDbLine
 62
7
  6
BYLAYER
 10
14.4901525837
 20
34.3069518147
 11
14.4901525837
 21
12.7613195201
  0
LINE
  5
26A
100
AcDbEntity
  8
0
100
AcDbLine
 62
7
  6
BYLAYER
 10
14.8647591817
 20
12.8341356674
 11
14.8647591817
 21
34.2341356674
  0
LINE
  5
26B
100
AcDbEntity
  8
0
100
AcDbLine
 62
7
  6
BYLAYER
 10
15.0320166597
 20
34.2341356674
 11
15.0320166597
 21
12.8341356674
  0
LINE
  5
26C
100
AcDbEntity
  8
0
100
AcDbLine
 62
7
  6
BYLAYER
 10
6.3665550472
 20
15.6841356674
 11
6.1665550472
 21
15.4841356674
  0
LINE
  5
26D
100
AcDbEntity
  8
0
100
AcDbLine
 62
7
  6
BYLAYER
 10
4.6665550472
 20
13.5841356674
 11
4.8665550472
 21
13.7841356674
  0
LINE
  5
26E
100
AcDbEntity
  8
0
100
AcDbLine
 62
7
  6
BYLAYER
 10
7.3665550472
 20
21.2754690007
 11
7.5665550472
 21
21.2754690007
  0
LINE
  5
26F
100
AcDbEntity
  8
0
100
AcDbLine
 62
7
  6
BYLAYER
 10
7.1766173087
 20
22.3895159966
 11
7.3597402124
 21
22.3895159966
  0
LINE
  5
270
100
AcDbEntity
  8
0
100
AcDbLine
 62
7
  6
BYLAYER
 10
6.3665550472
 20
31.3841356674
 11
6.1665550472
 21
31.5841356674
  0
LINE
  5
271
100
AcDbEntity
  8
0
100
AcDbLine
 62
7
  6
BYLAYER
 10
4.6665550472
 20
33.4841356674
 11
4.8665550472
 21
33.2841356674
  0
LINE
  5
272
100
AcDbEntity
  8
0
100
AcDbLine
 62
7
  6
BYLAYER
 10
4.6665550472
 20
12.2841356674
 11
4.8665550472
 21
12.4841356674
  0
LINE
  5
273
100
AcDbEntity
  8
0
100
AcDbLine
 62
7
  6
BYLAYER
 10
3.7665550472
 20
11.0841356674
 11
3.5665550472
 21
10.8841356674
  0
LINE
  5
274
100
AcDbEntity
  8
0
100
AcDbLine
 62
7
  6
BYLAYER
 10
6.8329769051
 20
22.7841356674
 11
7.1665550472
 21
22.7841356674
  0
LINE
  5
275
100
AcDbEntity
  8
0
100
AcDbLine
 62
7
  6
BYLAYER
 10
4.6665550472
 20
34.7841356674
 11
4.8665550472
 21
34.5841356674
  0
LINE
  5
276
100
AcDbEntity
  8
0
100
AcDbLine
 62
7
  6
BYLAYER
 10
3.7665550472
 20
35.9841356674
 11
3.5665550472
 21
36.1841356674
  0
LINE
  5
277
100
AcDbEntity
  8
0
100
AcDbLine
 62
7
  6
BYLAYER
 10
6.8329769051
 20
24.2841356674
 11
7.1665550472
 21
24.2841356674
  0
LINE
  5
278
100
AcDbEntity
  8
0
100
AcDbLine
 62
7
  6
BYLAYER
 10
7.3597402124
 20
24.6787553382
 11
7.1766173087
 21
24.6787553382
  0
LINE
  5
279
100
AcDbEntity
  8
0
100
AcDbLine
 62
7
  6
BYLAYER
 10
19.0665550472
 20
11.9841356674
 11
19.0665550472
 21
35.0841356674
  0
LINE
  5
27A
100
AcDbEntity
  8
0
100
AcDbLine
 62
7
  6
BYLAYER
 10
7.3665550472
 20
25.7928023341
 11
7.5665550472
 21
25.7928023341
  0
LINE
  5
27B
100
AcDbEntity
  8
0
100
AcDbLine
 62
7
  6
BYLAYER
 10
7.5665550472
 20
26.0341356674
 11
7.3665550472
 21
26.0341356674
  0
LINE
  5
27C
100
AcDbEntity
  8
0
100
AcDbLine
 62
7
  6
BYLAYER
 10
20.2165550472
 20
35.0841356674
 11
20.2165550472
 21
11.9841356674
  0
LINE
  5
27D
100
AcDbEntity
  8
0
100
AcDbLine
 62
7
  6
BYLAYER
 10
13.0604470812
 20
26.4717318293
 11
10.6665550472
 21
26.4717318293
  0
LINE
  5
27E
100
AcDbEntity
  8
0
100
AcDbLine
 62
7
  6
BYLAYER
 10
10.6665550472
 20
26.5234956383
 11
11.9834141197
 21
26.5234956383
  0
LINE
  5
27F
100
AcDbEntity
  8
0
100
AcDbLine
 62
7
  6
BYLAYER
 10
21.5665550472
 20
11.6341356674
 11
21.5665550472
 21
18.5541758282
  0
LINE
  5
280
100
AcDbEntity
  8
0
100
AcDbLine
 62
7
  6
BYLAYER
 10
21.5665550472
 20
28.5140955066
 11
21.5665550472
 21
35.4341356674
  0
LINE
  5
281
100
AcDbEntity
  8
0
100
AcDbLine
 62
7
  6
BYLAYER
 10
7.1766173087
 20
27.5841356674
 11
5.3665550472
 21
27.5841356674
  0
LINE
  5
282
100
AcDbEntity
  8
0
100
AcDbLine
 62
7
  6
BYLAYER
 10
21.5665550472
 20
28.5140955066
 11
24.3665550472
 21
28.5140955066
  0
LINE
  5
283
100
AcDbEntity
  8
0
100
AcDbLine
 62
7
  6
BYLAYER
 10
26.3665550472
 20
28.5140955066
 11
27.7165550472
 21
28.5140955066
  0
LINE
  5
284
100
AcDbEntity
  8
0
100
AcDbLine
 62
7
  6
BYLAYER
 10
5.3665550472
 20
28.5341356674
 11
7.3665550472
 21
28.5341356674
  0
LINE
  5
285
100
AcDbEntity
  8
0
100
AcDbLine
 62
7
  6
BYLAYER
 10
24.3665550472
 20
28.7466206794
 11
26.3665550472
 21
28.7466206794
  0
LINE
  5
286
100
AcDbEntity
  8
0
100
AcDbLine
 62
7
  6
BYLAYER
 10
3.5165550472
 20
30.0341356674
 11
5.3665550472
 21
30.0341356674
  0
LINE
  5
287
100
AcDbEntity
  8
0
100
AcDbLine
 62
7
  6
BYLAYER
 10
24.3665550472
 20
28.7466206794
 11
24.3665550472
 21
18.3216506554
  0
LINE
  5
288
100
AcDbEntity
  8
0
100
AcDbLine
 62
7
  6
BYLAYER
 10
6.5665550472
 20
31.2019209023
 11
3.5165550472
 21
31.2019209023
  0
LINE
  5
289
100
AcDbEntity
  8
0
100
AcDbLine
 62
7
  6
BYLAYER
 10
6.3674079332
 20
31.3841356674
 11
3.5165550472
 21
31.3841356674
  0
LINE
  5
28A
100
AcDbEntity
  8
0
100
AcDbLine
 62
7
  6
BYLAYER
 10
3.5165550472
 20
31.5841356674
 11
6.1665550472
 21
31.5841356674
  0
LINE
  5
28B
100
AcDbEntity
  8
0
100
AcDbLine
 62
7
  6
BYLAYER
 10
26.3665550472
 20
18.3216506554
 11
26.3665550472
 21
28.7466206794
  0
LINE
  5
28C
100
AcDbEntity
  8
0
100
AcDbLine
 62
7
  6
BYLAYER
 10
14.4901525837
 20
12.7613195201
 11
13.1072339
 21
12.2025841037
  0
LINE
  5
28D
100
AcDbEntity
  8
0
100
AcDbLine
 62
7
  6
BYLAYER
 10
3.5165550472
 20
32.6100125153
 11
6.1665550472
 21
32.6100125153
  0
LINE
  5
28E
100
AcDbEntity
  8
0
100
AcDbLine
 62
7
  6
BYLAYER
 10
4.8665550472
 20
33.2841356674
 11
3.5165550472
 21
33.2841356674
  0
LINE
  5
28F
100
AcDbEntity
  8
0
100
AcDbLine
 62
7
  6
BYLAYER
 10
7.9665550472
 20
33.3341356674
 11
10.2665550472
 21
33.3341356674
  0
LINE
  5
290
100
AcDbEntity
  8
0
100
AcDbLine
 62
7
  6
BYLAYER
 10
3.7665550472
 20
33.4841356674
 11
4.6665550472
 21
33.4841356674
  0
LINE
  5
291
100
AcDbEntity
  8
0
100
AcDbLine
 62
7
  6
BYLAYER
 10
14.4901525837
 20
34.3069518147
 11
13.1072339
 21
34.8656872311
  0
LINE
  5
292
100
AcDbEntity
  8
0
100
AcDbLine
 62
7
  6
BYLAYER
 10
27.7165550472
 20
10.6341356674
 11
27.7165550472
 21
11.6341356674
  0
LINE
  5
293
100
AcDbEntity
  8
0
100
AcDbLine
 62
7
  6
BYLAYER
 10
27.7165550472
 20
18.5541758282
 11
27.7165550472
 21
28.5140955066
  0
LINE
  5
294
100
AcDbEntity
  8
0
100
AcDbLine
 62
7
  6
BYLAYER
 10
27.7165550472
 20
35.4341356674
 11
27.7165550472
 21
36.4341356674
  0
LINE
  5
295
100
AcDbEntity
  8
0
100
AcDbLine
 62
7
  6
BYLAYER
 10
3.9665550472
 20
33.7186994258
 11
4.4665550472
 21
33.7186994258
  0
LINE
  5
296
100
AcDbEntity
  8
0
100
AcDbLine
 62
7
  6
BYLAYER
 10
14.8647591817
 20
34.2341356674
 11
15.0320166597
 21
34.2341356674
  0
LINE
  5
297
100
AcDbEntity
  8
0
100
AcDbLine
 62
7
  6
BYLAYER
 10
5.9665550472
 20
34.5841356674
 11
4.8665550472
 21
34.5841356674
  0
LINE
  5
298
100
AcDbEntity
  8
0
100
AcDbLine
 62
7
  6
BYLAYER
 10
14.4901525883
 20
34.3069518128
 11
14.8647591817
 21
34.2341356674
  0
LINE
  5
299
100
AcDbEntity
  8
0
100
AcDbLine
 62
7
  6
BYLAYER
 10
4.6665550472
 20
34.7841356674
 11
6.2665550472
 21
34.7841356674
  0
LINE
  5
29A
100
AcDbEntity
  8
0
100
AcDbLine
 62
7
  6
BYLAYER
 10
4.4665550472
 20
35.0274200222
 11
6.5665550472
 21
35.0274200222
  0
LINE
  5
29B
100
AcDbEntity
  8
0
100
AcDbLine
 62
7
  6
BYLAYER
 10
11.9834141198
 20
35.0841356674
 11
10.6665550472
 21
35.0841356674
  0
LINE
  5
29C
100
AcDbEntity
  8
0
100
AcDbLine
 62
7
  6
BYLAYER
 10
19.0665550472
 20
35.0841356674
 11
20.2165550472
 21
35.0841356674
  0
LINE
  5
29D
100
AcDbEntity
  8
0
100
AcDbLine
 62
7
  6
BYLAYER
 10
27.7165550472
 20
35.4341356674
 11
20.5665316902
 21
35.4341356674
  0
LINE
  5
29E
100
AcDbEntity
  8
0
100
AcDbLine
 62
7
  6
BYLAYER
 10
7.3665550472
 20
35.8327933855
 11
3.9665550472
 21
35.8327933855
  0
LINE
  5
29F
100
AcDbEntity
  8
0
100
AcDbLine
 62
7
  6
BYLAYER
 10
29.7165550472
 20
36.4341356674
 11
29.7165550472
 21
10.6341356674
  0
LINE
  5
2A0
100
AcDbEntity
  8
0
100
AcDbLine
 62
7
  6
BYLAYER
 10
3.7665550472
 20
35.9841356674
 11
7.3665550472
 21
35.9841356674
  0
LINE
  5
2A1
100
AcDbEntity
  8
0
100
AcDbLine
 62
7
  6
BYLAYER
 10
3.5165550472
 20
36.1841356674
 11
7.3665550472
 21
36.1841356674
  0
LINE
  5
2A2
100
AcDbEntity
  8
0
100
AcDbLine
 62
7
  6
BYLAYER
 10
29.7165550472
 20
36.4341356674
 11
27.7165550472
 21
36.4341356674
  0
ARC
  5
2A3
100
AcDbEntity
  8
0
100
AcDbCircle
 62
7
  6
BYLAYER
 10
15.0320166597
 20
2.8341356674
 40
10.0
100
AcDbArc
 50
66.2057270495
 51
90.0
  0
ARC
  5
2A4
100
AcDbEntity
  8
0
100
AcDbCircle
 62
7
  6
BYLAYER
 10
15.0320166597
 20
44.2341356674
 40
10.0
100
AcDbArc
 50
270.0
 51
293.7942729505
  0
ARC
  5
2A5
100
AcDbEntity
  8
0
100
AcDbCircle
 62
7
  6
BYLAYER
 10
11.9834141198
 20
32.0841356674
 40
3.0
100
AcDbArc
 50
68.0000007138
 51
90.0
  0
ARC
  5
2A6
100
AcDbEntity
  8
0
100
AcDbCircle
 62
7
  6
BYLAYER
 10
7.9665550472
 20
13.1341356674
 40
0.6
100
AcDbArc
 50
90.0
 51
180.0
  0
ARC
  5
2A7
100
AcDbEntity
  8
0
100
AcDbCircle
 62
7
  6
BYLAYER
 10
7.9665550472
 20
33.9341356674
 40
0.6
100
AcDbArc
 50
180.0
 51
270.0
  0
ARC
  5
2A8
100
AcDbEntity
  8
0
100
AcDbCircle
 62
7
  6
BYLAYER
 10
7.0069484008
 20
22.0263470951
 40
0.5789261509
100
AcDbArc
 50
72.9578371662
 51
73.9966051653
  0
ARC
  5
2A9
100
AcDbEntity
  8
0
100
AcDbCircle
 62
7
  6
BYLAYER
 10
7.0070136812
 20
25.0417023957
 40
0.5786949141
100
AcDbArc
 50
286.0032372737
 51
287.0424202956
  0
ARC
  5
2AA
100
AcDbEntity
  8
0
100
AcDbCircle
 62
7
  6
BYLAYER
 10
10.2665550472
 20
13.3341356674
 40
0.4
100
AcDbArc
 50
0.0
 51
90.0
  0
ARC
  5
2AB
100
AcDbEntity
  8
0
100
AcDbCircle
 62
7
  6
BYLAYER
 10
10.2665550472
 20
33.7341356674
 40
0.4
100
AcDbArc
 50
270.0
 51
360.0
  0
ARC
  5
2AC
100
AcDbEntity
  8
0
100
AcDbCircle
 62
7
  6
BYLAYER
 10
7.5665550472
 20
25.7341356674
 40
0.3
100
AcDbArc
 50
0.0
 51
90.0
  0
ARC
  5
2AD
100
AcDbEntity
  8
0
100
AcDbCircle
 62
7
  6
BYLAYER
 10
7.5665550472
 20
21.3341356674
 40
0.3
100
AcDbArc
 50
270.0
 51
360.0
  0
ARC
  5
2AE
100
AcDbEntity
  8
0
100
AcDbCircle
 62
7
  6
BYLAYER
 10
5.9665550472
 20
12.6841356674
 40
0.2
100
AcDbArc
 50
270.0
 51
360.0
  0
ARC
  5
2AF
100
AcDbEntity
  8
0
100
AcDbCircle
 62
7
  6
BYLAYER
 10
5.9665550472
 20
34.3841356674
 40
0.2
100
AcDbArc
 50
0.0
 51
90.0
  0
ARC
  5
2B0
100
AcDbEntity
  8
0
100
AcDbCircle
 62
7
  6
BYLAYER
 10
6.2665550472
 20
12.3841356674
 40
0.1
100
AcDbArc
 50
270.0
 51
356.3126084301
  0
ARC
  5
2B1
100
AcDbEntity
  8
0
100
AcDbCircle
 62
7
  6
BYLAYER
 10
6.2665550472
 20
34.6841356674
 40
0.1
100
AcDbArc
 50
3.6877026869
 51
90.0
  0
SPLINE
  5
2B2
100
AcDbEntity
  8
0
100
AcDbSpline
 62
7
  6
BYLAYER
 70
0
 71
3
 72
11
 73
7
 74
0
 42
0.0000001
 43
0.0000001
 44
0.0000000001
 40
0.0
 40
0.0
 40
0.0
 40
0.0
 40
0.2088011631
 40
0.4463125874
 40
0.7124452763
 40
1.0
 40
1.0
 40
1.0
 40
1.0
 10
6.5910848198
 20
22.6306702698
 30
0.0
 10
6.5979422225
 20
22.6462974523
 30
0.0
 10
6.6176554768
 20
22.6775469631
 30
0.0
 10
6.6593061782
 20
22.7188046363
 30
0.0
 10
6.7138115612
 20
22.754360979
 30
0.0
 10
6.756314237
 20
22.7710999591
 30
0.0
 10
6.779023344
 20
22.7771537088
 30
0.0
  0
SPLINE
  5
2B3
100
AcDbEntity
  8
0
100
AcDbSpline
 62
7
  6
BYLAYER
 70
0
 71
3
 72
13
 73
9
 74
0
 42
0.0000001
 43
0.0000001
 44
0.0000000001
 40
0.0
 40
0.0
 40
0.0
 40
0.0
 40
0.0678578687
 40
0.1569754453
 40
0.2654112492
 40
0.3906863808
 40
0.6805179488
 40
1.0
 40
1.0
 40
1.0
 40
1.0
 10
6.8947095224
 20
22.4071465137
 30
0.0
 10
6.9009241508
 20
22.4056274213
 30
0.0
 10
6.9154960553
 20
22.4029389844
 30
0.0
 10
6.9403027941
 20
22.3996405235
 30
0.0
 10
6.9706020396
 20
22.3966940871
 30
0.0
 10
7.0198366749
 20
22.3931469281
 30
0.0
 10
7.0890491054
 20
22.3902782832
 30
0.0
 10
7.1464967427
 20
22.3895174337
 30
0.0
 10
7.1766173087
 20
22.3895159966
 30
0.0
  0
SPLINE
  5
2B4
100
AcDbEntity
  8
0
100
AcDbSpline
 62
7
  6
BYLAYER
 70
0
 71
3
 72
13
 73
9
 74
0
 42
0.0000001
 43
0.0000001
 44
0.0000000001
 40
0.0
 40
0.0
 40
0.0
 40
0.0
 40
0.2353139635
 40
0.3638056656
 40
0.4959393244
 40
0.6287233229
 40
0.7590108018
 40
1.0
 40
1.0
 40
1.0
 40
1.0
 10
7.0826480408
 20
22.6003316832
 30
0.0
 10
7.0599188898
 20
22.5982635032
 30
0.0
 10
7.025024699
 20
22.5884676651
 30
0.0
 10
6.9835382211
 20
22.5638038281
 30
0.0
 10
6.9543821452
 20
22.5388542891
 30
0.0
 10
6.9301493424
 20
22.5088816319
 30
0.0
 10
6.9061333862
 20
22.4661137393
 30
0.0
 10
6.8967148902
 20
22.4304338097
 30
0.0
 10
6.8947094518
 20
22.4071465104
 30
0.0
  0
SPLINE
  5
2B5
100
AcDbEntity
  8
0
100
AcDbSpline
 62
7
  6
BYLAYER
 70
0
 71
3
 72
12
 73
8
 74
0
 42
0.0000001
 43
0.0000001
 44
0.0000000001
 40
0.0
 40
0.0
 40
0.0
 40
0.0
 40
0.1424910009
 40
0.2819199365
 40
0.5425922785
 40
0.7808504888
 40
1.0
 40
1.0
 40
1.0
 40
1.0
 10
7.3597402124
 20
22.3895159966
 30
0.0
 10
7.3564719948
 20
22.40214342
 30
0.0
 10
7.3478070115
 20
22.4265971114
 30
0.0
 10
7.3244765858
 20
22.4705926154
 30
0.0
 10
7.2869906501
 20
22.5163036212
 30
0.0
 10
7.2343651525
 20
22.5565166444
 30
0.0
 10
7.1957921299
 20
22.5739563385
 30
0.0
 10
7.1766173285
 20
22.5798521998
 30
0.0
  0
SPLINE
  5
2B6
100
AcDbEntity
  8
0
100
AcDbSpline
 62
7
  6
BYLAYER
 70
0
 71
3
 72
9
 73
5
 74
0
 42
0.0000001
 43
0.0000001
 44
0.0000000001
 40
0.0
 40
0.0
 40
0.0
 40
0.0
 40
0.4786683626
 40
1.0
 40
1.0
 40
1.0
 40
1.0
 10
6.3665563829
 20
12.3773472899
 30
0.0
 10
6.3665562235
 20
12.3651290147
 30
0.0
 10
6.3615652867
 20
12.3393748264
 30
0.0
 10
6.3467829691
 20
12.3175385907
 30
0.0
 10
6.3372662
 20
12.3082372586
 30
0.0
  0
SPLINE
  5
2B7
100
AcDbEntity
  8
0
100
AcDbSpline
 62
7
  6
BYLAYER
 70
0
 71
3
 72
9
 73
5
 74
0
 42
0.0000001
 43
0.0000001
 44
0.0000000001
 40
0.0
 40
0.0
 40
0.0
 40
0.0
 40
0.5182852656
 40
1.0
 40
1.0
 40
1.0
 40
1.0
 10
6.3372662
 20
12.3082372586
 30
0.0
 10
6.3276624864
 20
12.2988509501
 30
0.0
 10
6.3051606628
 20
12.2844121202
 30
0.0
 10
6.2790363522
 20
12.2796101611
 30
0.0
 10
6.2665550472
 20
12.2796100033
 30
0.0
  0
SPLINE
  5
2B8
100
AcDbEntity
  8
0
100
AcDbSpline
 62
7
  6
BYLAYER
 70
0
 71
3
 72
17
 73
13
 74
0
 42
0.0000001
 43
0.0000001
 44
0.0000000001
 40
0.0
 40
0.0
 40
0.0
 40
0.0
 40
0.1630026958
 40
0.3214958408
 40
0.4731835306
 40
0.6152618746
 40
0.7445457228
 40
0.8560941562
 40
0.9032716316
 40
0.9435783407
 40
0.9760165358
 40
1.0
 40
1.0
 40
1.0
 40
1.0
 10
3.9665550472
 20
35.8327933855
 30
0.0
 10
3.956910017
 20
35.8421799615
 30
0.0
 10
3.9377195761
 20
35.8605226801
 30
0.0
 10
3.9089498821
 20
35.8869599197
 30
0.0
 10
3.8809050085
 20
35.91161993
 30
0.0
 10
3.854064134
 20
35.9339833002
 30
0.0
 10
3.829084535
 20
35.9533697747
 30
0.0
 10
3.8095997143
 20
35.967043782
 30
0.0
 10
3.7955292831
 20
35.9755411792
 30
0.0
 10
3.7867298794
 20
35.9801197435
 30
0.0
 10
3.7793263262
 20
35.9831056131
 30
0.0
 10
3.7747037013
 20
35.9841356674
 30
0.0
 10
3.7727234622
 20
35.9841356674
 30
0.0
  0
SPLINE
  5
2B9
100
AcDbEntity
  8
0
100
AcDbSpline
 62
7
  6
BYLAYER
 70
0
 71
3
 72
10
 73
6
 74
0
 42
0.0000001
 43
0.0000001
 44
0.0000000001
 40
0.0
 40
0.0
 40
0.0
 40
0.0
 40
0.1582971353
 40
0.3803767557
 40
1.0
 40
1.0
 40
1.0
 40
1.0
 10
6.3665563828
 20
12.3773452566
 30
0.0
 10
6.3665559052
 20
12.376143477
 30
0.0
 10
6.3670649138
 20
12.3732715757
 30
0.0
 10
6.3692464102
 20
12.3660052936
 30
0.0
 10
6.3717399034
 20
12.3600981005
 30
0.0
 10
6.3736456526
 20
12.355797289
 30
0.0
  0
SPLINE
  5
2BA
100
AcDbEntity
  8
0
100
AcDbSpline
 62
7
  6
BYLAYER
 70
0
 71
3
 72
9
 73
5
 74
0
 42
0.0000001
 43
0.0000001
 44
0.0000000001
 40
0.0
 40
0.0
 40
0.0
 40
0.0
 40
0.4541046602
 40
1.0
 40
1.0
 40
1.0
 40
1.0
 10
6.3736456526
 20
12.355797289
 30
0.0
 10
6.3766964123
 20
12.3489124678
 30
0.0
 10
6.3839886697
 20
12.3340081321
 30
0.0
 10
6.3917942526
 20
12.3193758529
 30
0.0
 10
6.3961500309
 20
12.3114400184
 30
0.0
  0
SPLINE
  5
2BB
100
AcDbEntity
  8
0
100
AcDbSpline
 62
7
  6
BYLAYER
 70
0
 71
3
 72
11
 73
7
 74
0
 42
0.0000001
 43
0.0000001
 44
0.0000000001
 40
0.0
 40
0.0
 40
0.0
 40
0.0
 40
0.2302997804
 40
0.4825713688
 40
0.7413997903
 40
1.0
 40
1.0
 40
1.0
 40
1.0
 10
6.3961500309
 20
12.3114400184
 30
0.0
 10
6.4079650005
 20
12.2899142116
 30
0.0
 10
6.4340452048
 20
12.2455408731
 30
0.0
 10
6.4757258323
 20
12.1783709175
 30
0.0
 10
6.520310364
 20
12.1094644106
 30
0.0
 10
6.5510233237
 20
12.0636315623
 30
0.0
 10
6.5665536821
 20
12.0408487819
 30
0.0
  0
SPLINE
  5
2BC
100
AcDbEntity
  8
0
100
AcDbSpline
 62
7
  6
BYLAYER
 70
0
 71
3
 72
19
 73
15
 74
0
 42
0.0000001
 43
0.0000001
 44
0.0000000001
 40
0.0
 40
0.0
 40
0.0
 40
0.0
 40
0.1548105084
 40
0.3098868337
 40
0.4624134142
 40
0.609058247
 40
0.7451107635
 40
0.8069614886
 40
0.8631474339
 40
0.9120120798
 40
0.9519290488
 40
0.9815203525
 40
0.9921527068
 40
1.0
 40
1.0
 40
1.0
 40
1.0
 10
3.9665550472
 20
33.7186994258
 30
0.0
 10
3.9552740561
 20
33.7075509489
 30
0.0
 10
3.9328569731
 20
33.6850679325
 30
0.0
 10
3.8999029336
 20
33.6510312449
 30
0.0
 10
3.8680531993
 20
33.6170966444
 30
0.0
 10
3.8381402664
 20
33.5840271829
 30
0.0
 10
3.8150606208
 20
33.5573117749
 30
0.0
 10
3.7985714656
 20
33.537165907
 30
0.0
 10
3.7880467615
 20
33.5236891277
 30
0.0
 10
3.7792717794
 20
33.5116969515
 30
0.0
 10
3.7726227985
 20
33.5015586885
 30
0.0
 10
3.7686474061
 20
33.4943336678
 30
0.0
 10
3.766928098
 20
33.4897167809
 30
0.0
 10
3.7665550472
 20
33.4878340172
 30
0.0
 10
3.7665550472
 20
33.4870300636
 30
0.0
  0
SPLINE
  5
2BD
100
AcDbEntity
  8
0
100
AcDbSpline
 62
7
  6
BYLAYER
 70
0
 71
3
 72
17
 73
13
 74
0
 42
0.0000001
 43
0.0000001
 44
0.0000000001
 40
0.0
 40
0.0
 40
0.0
 40
0.0
 40
0.1629995114
 40
0.3214919118
 40
0.4731907183
 40
0.6152789164
 40
0.7445426673
 40
0.8560565923
 40
0.9032314259
 40
0.9435506564
 40
0.9760067238
 40
1.0
 40
1.0
 40
1.0
 40
1.0
 10
3.9665550472
 20
11.2354779493
 30
0.0
 10
3.9569101746
 20
11.2260915266
 30
0.0
 10
3.937720833
 20
11.2077480233
 30
0.0
 10
3.9089513163
 20
11.1813094736
 30
0.0
 10
3.8809003965
 20
11.156653528
 30
0.0
 10
3.8540536749
 20
11.1342969665
 30
0.0
 10
3.8290807975
 20
11.1149081611
 30
0.0
 10
3.8096073988
 20
11.1012258584
 30
0.0
 10
3.7955399382
 20
11.0927271375
 30
0.0
 10
3.7867373234
 20
11.0881495304
 30
0.0
 10
3.779329464
 20
11.0851653378
 30
0.0
 10
3.7747045177
 20
11.0841356674
 30
0.0
 10
3.7727234622
 20
11.0841356674
 30
0.0
  0
SPLINE
  5
2BE
100
AcDbEntity
  8
0
100
AcDbSpline
 62
7
  6
BYLAYER
 70
0
 71
3
 72
21
 73
17
 74
0
 42
0.0000001
 43
0.0000001
 44
0.0000000001
 40
0.0
 40
0.0
 40
0.0
 40
0.0
 40
0.1666417038
 40
0.3300292175
 40
0.4872743717
 40
0.6349666683
 40
0.7038865445
 40
0.7684459098
 40
0.8277812939
 40
0.8807428223
 40
0.9258458166
 40
0.9616106166
 40
0.9755555636
 40
0.9866640633
 40
0.9948140578
 40
1.0
 40
1.0
 40
1.0
 40
1.0
 10
6.5665550472
 20
15.8663504325
 30
0.0
 10
6.555929492
 20
15.8557315178
 30
0.0
 10
6.5348116799
 20
15.8347751279
 30
0.0
 10
6.5033974849
 20
15.804072105
 30
0.0
 10
6.4729517311
 20
15.7748242576
 30
0.0
 10
6.4484046274
 20
15.7517306219
 30
0.0
 10
6.4297587348
 20
15.7345612142
 30
0.0
 10
6.4168686834
 20
15.7229003765
 30
0.0
 10
6.4049265627
 20
15.7123377508
 30
0.0
 10
6.3941604933
 20
15.7030934387
 30
0.0
 10
6.3848421857
 20
15.6954317444
 30
0.0
 10
6.3780630178
 20
15.6902157982
 30
0.0
 10
6.3735538212
 20
15.6871012144
 30
0.0
 10
6.3710032928
 20
15.6855175498
 30
0.0
 10
6.3690487004
 20
15.6845271782
 30
0.0
 10
6.367875426
 20
15.6841356674
 30
0.0
 10
6.3674079332
 20
15.6841356674
 30
0.0
  0
SPLINE
  5
2BF
100
AcDbEntity
  8
0
100
AcDbSpline
 62
7
  6
BYLAYER
 70
0
 71
3
 72
19
 73
15
 74
0
 42
0.0000001
 43
0.0000001
 44
0.0000000001
 40
0.0
 40
0.0
 40
0.0
 40
0.0
 40
0.1548106417
 40
0.3098867968
 40
0.4624128442
 40
0.6090589095
 40
0.7451128155
 40
0.8069620802
 40
0.863145269
 40
0.91200817
 40
0.9519261859
 40
0.9815197389
 40
0.9921526638
 40
1.0
 40
1.0
 40
1.0
 40
1.0
 10
4.4665550472
 20
33.7186994258
 30
0.0
 10
4.4778360286
 20
33.7075509585
 30
0.0
 10
4.5002532213
 20
33.6850681361
 30
0.0
 10
4.5332073286
 20
33.6510317039
 30
0.0
 10
4.5650565727
 20
33.6170966743
 30
0.0
 10
4.5949700015
 20
33.5840275081
 30
0.0
 10
4.6180512119
 20
33.5573133507
 30
0.0
 10
4.6345392997
 20
33.5371670205
 30
0.0
 10
4.6450619554
 20
33.5236894426
 30
0.0
 10
4.6538351532
 20
33.5116964414
 30
0.0
 10
4.6604841566
 20
33.50155809
 30
0.0
 10
4.6644611153
 20
33.4943335349
 30
0.0
 10
4.6661816375
 20
33.4897168162
 30
0.0
 10
4.6665550472
 20
33.4878340202
 30
0.0
 10
4.6665550472
 20
33.4870300636
 30
0.0
  0
SPLINE
  5
2C0
100
AcDbEntity
  8
0
100
AcDbSpline
 62
7
  6
BYLAYER
 70
0
 71
3
 72
11
 73
7
 74
0
 42
0.0000001
 43
0.0000001
 44
0.0000000001
 40
0.0
 40
0.0
 40
0.0
 40
0.0
 40
0.2586088523
 40
0.5173418452
 40
0.769687909
 40
1.0
 40
1.0
 40
1.0
 40
1.0
 10
6.5665492438
 20
35.0274195565
 30
0.0
 10
6.5509993622
 20
35.0046069402
 30
0.0
 10
6.5202523462
 20
34.9587244216
 30
0.0
 10
6.4756155394
 20
34.889730143
 30
0.0
 10
6.4338861135
 20
34.822474458
 30
0.0
 10
6.4077742715
 20
34.778033483
 30
0.0
 10
6.3959519807
 20
34.7564749188
 30
0.0
  0
SPLINE
  5
2C1
100
AcDbEntity
  8
0
100
AcDbSpline
 62
7
  6
BYLAYER
 70
0
 71
3
 72
13
 73
9
 74
0
 42
0.0000001
 43
0.0000001
 44
0.0000000001
 40
0.0
 40
0.0
 40
0.0
 40
0.0
 40
0.3464115967
 40
0.6413332577
 40
0.7633282112
 40
0.8651302262
 40
0.9445501144
 40
1.0
 40
1.0
 40
1.0
 40
1.0
 10
6.3959519807
 20
34.7564749188
 30
0.0
 10
6.3919489154
 20
34.7491751203
 30
0.0
 10
6.3846879237
 20
34.7355785385
 30
0.0
 10
6.3765551391
 20
34.7191247764
 30
0.0
 10
6.3715350811
 20
34.7077141064
 30
0.0
 10
6.368878646
 20
34.7009187335
 30
0.0
 10
6.3671809462
 20
34.6954978406
 30
0.0
 10
6.3665640077
 20
34.6922779561
 30
0.0
 10
6.3665681791
 20
34.6909453278
 30
0.0
  0
SPLINE
  5
2C2
100
AcDbEntity
  8
0
100
AcDbSpline
 62
7
  6
BYLAYER
 70
0
 71
3
 72
19
 73
15
 74
0
 42
0.0000001
 43
0.0000001
 44
0.0000000001
 40
0.0
 40
0.0
 40
0.0
 40
0.0
 40
0.1548106417
 40
0.3098867968
 40
0.4624128442
 40
0.6090589095
 40
0.7451128155
 40
0.8069620802
 40
0.863145269
 40
0.91200817
 40
0.9519261859
 40
0.9815197389
 40
0.9921526638
 40
1.0
 40
1.0
 40
1.0
 40
1.0
 10
3.9665550472
 20
13.349571909
 30
0.0
 10
3.9552740658
 20
13.3607203763
 30
0.0
 10
3.9328568731
 20
13.3832031987
 30
0.0
 10
3.8999027658
 20
13.4172396309
 30
0.0
 10
3.8680535216
 20
13.4511746605
 30
0.0
 10
3.8381400929
 20
13.4842438266
 30
0.0
 10
3.8150588824
 20
13.5109579841
 30
0.0
 10
3.7985707946
 20
13.5311043143
 30
0.0
 10
3.7880481389
 20
13.5445818922
 30
0.0
 10
3.7792749412
 20
13.5565748934
 30
0.0
 10
3.7726259377
 20
13.5667132448
 30
0.0
 10
3.7686489791
 20
13.5739377998
 30
0.0
 10
3.7669284569
 20
13.5785545186
 30
0.0
 10
3.7665550472
 20
13.5804373146
 30
0.0
 10
3.7665550472
 20
13.5812412712
 30
0.0
  0
SPLINE
  5
2C3
100
AcDbEntity
  8
0
100
AcDbSpline
 62
7
  6
BYLAYER
 70
0
 71
3
 72
11
 73
7
 74
0
 42
0.0000001
 43
0.0000001
 44
0.0000000001
 40
0.0
 40
0.0
 40
0.0
 40
0.0
 40
0.2526485618
 40
0.5037440347
 40
0.752649562
 40
1.0
 40
1.0
 40
1.0
 40
1.0
 10
6.2665550472
 20
34.7886600007
 30
0.0
 10
6.2795504571
 20
34.7886596595
 30
0.0
 10
6.3057359349
 20
34.7836122626
 30
0.0
 10
6.3389670898
 20
34.7619472214
 30
0.0
 10
6.3613078474
 20
34.7294597624
 30
0.0
 10
6.3665549686
 20
34.7036463016
 30
0.0
 10
6.3665550472
 20
34.6909234097
 30
0.0
  0
SPLINE
  5
2C4
100
AcDbEntity
  8
0
100
AcDbSpline
 62
7
  6
BYLAYER
 70
0
 71
3
 72
21
 73
17
 74
0
 42
0.0000001
 43
0.0000001
 44
0.0000000001
 40
0.0
 40
0.0
 40
0.0
 40
0.0
 40
0.1449740926
 40
0.2904741523
 40
0.4351041462
 40
0.5771782804
 40
0.6464268865
 40
0.7138138456
 40
0.7785316226
 40
0.8394318689
 40
0.8948089494
 40
0.9420138682
 40
0.9617023354
 40
0.9781502116
 40
0.9909056923
 40
1.0
 40
1.0
 40
1.0
 40
1.0
 10
6.5665528892
 20
35.0274200221
 30
0.0
 10
6.5508672724
 20
35.0173334825
 30
0.0
 10
6.5197464406
 20
34.9966447
 30
0.0
 10
6.4737700249
 20
34.9647238741
 30
0.0
 10
6.4284819651
 20
34.932471832
 30
0.0
 10
6.3917209182
 20
34.9051659001
 30
0.0
 10
6.363365378
 20
34.8832253202
 30
0.0
 10
6.3431007674
 20
34.8670925165
 30
0.0
 10
6.3239511521
 20
34.8512885604
 30
0.0
 10
6.3063965767
 20
34.8359871732
 30
0.0
 10
6.2910653693
 20
34.8215881349
 30
0.0
 10
6.2801364101
 20
34.8102539504
 30
0.0
 10
6.2732146018
 20
34.8020682515
 30
0.0
 10
6.2694984237
 20
34.7969685312
 30
0.0
 10
6.2671068551
 20
34.79267587
 30
0.0
 10
6.2664070297
 20
34.7898216385
 30
0.0
 10
6.2665550472
 20
34.788661192
 30
0.0
  0
SPLINE
  5
2C5
100
AcDbEntity
  8
0
100
AcDbSpline
 62
7
  6
BYLAYER
 70
0
 71
3
 72
19
 73
15
 74
0
 42
0.0000001
 43
0.0000001
 44
0.0000000001
 40
0.0
 40
0.0
 40
0.0
 40
0.0
 40
0.1515436874
 40
0.3039340261
 40
0.4544632354
 40
0.5999476076
 40
0.7358762284
 40
0.798142946
 40
0.8551195244
 40
0.9052033222
 40
0.9468353496
 40
0.9786852827
 40
0.9906645525
 40
1.0
 40
1.0
 40
1.0
 40
1.0
 10
4.4665592922
 20
35.0274200221
 30
0.0
 10
4.477861053
 20
35.0163491754
 30
0.0
 10
4.500320969
 20
34.9939334752
 30
0.0
 10
4.533279691
 20
34.9598022159
 30
0.0
 10
4.5651404065
 20
34.9255008017
 30
0.0
 10
4.5950707022
 20
34.8917673886
 30
0.0
 10
4.6181270456
 20
34.8642666117
 30
0.0
 10
4.6345800757
 20
34.8433120517
 30
0.0
 10
4.6451150927
 20
34.8291150973
 30
0.0
 10
4.6539038407
 20
34.8163091097
 30
0.0
 10
4.6605731481
 20
34.8052658192
 30
0.0
 10
4.6645186038
 20
34.7972211567
 30
0.0
 10
4.6662057328
 20
34.791926875
 30
0.0
 10
4.6665550472
 20
34.7897070399
 30
0.0
 10
4.6665550472
 20
34.7887324497
 30
0.0
  0
SPLINE
  5
2C6
100
AcDbEntity
  8
0
100
AcDbSpline
 62
7
  6
BYLAYER
 70
0
 71
3
 72
19
 73
15
 74
0
 42
0.0000001
 43
0.0000001
 44
0.0000000001
 40
0.0
 40
0.0
 40
0.0
 40
0.0
 40
0.1548105084
 40
0.3098868337
 40
0.4624134142
 40
0.609058247
 40
0.7451107635
 40
0.8069614886
 40
0.8631474339
 40
0.9120120798
 40
0.9519290488
 40
0.9815203525
 40
0.9921527068
 40
1.0
 40
1.0
 40
1.0
 40
1.0
 10
4.4665550472
 20
13.349571909
 30
0.0
 10
4.4778360383
 20
13.3607203859
 30
0.0
 10
4.5002531213
 20
13.3832034023
 30
0.0
 10
4.5332071608
 20
13.4172400899
 30
0.0
 10
4.5650568951
 20
13.4511746904
 30
0.0
 10
4.594969828
 20
13.4842441518
 30
0.0
 10
4.6180494736
 20
13.5109595599
 30
0.0
 10
4.6345386288
 20
13.5311054278
 30
0.0
 10
4.6450633329
 20
13.5445822071
 30
0.0
 10
4.6538383149
 20
13.5565743833
 30
0.0
 10
4.6604872958
 20
13.5667126463
 30
0.0
 10
4.6644626883
 20
13.573937667
 30
0.0
 10
4.6661819964
 20
13.5785545539
 30
0.0
 10
4.6665550472
 20
13.5804373176
 30
0.0
 10
4.6665550472
 20
13.5812412712
 30
0.0
  0
SPLINE
  5
2C7
100
AcDbEntity
  8
0
100
AcDbSpline
 62
7
  6
BYLAYER
 70
0
 71
3
 72
19
 73
15
 74
0
 42
0.0000001
 43
0.0000001
 44
0.0000000001
 40
0.0
 40
0.0
 40
0.0
 40
0.0
 40
0.1515433901
 40
0.3039332476
 40
0.4544618083
 40
0.5999473354
 40
0.7358773849
 40
0.7981428884
 40
0.8551171561
 40
0.9051996478
 40
0.9468328564
 40
0.9786848285
 40
0.9906645518
 40
1.0
 40
1.0
 40
1.0
 40
1.0
 10
4.466556346
 20
12.0408483728
 30
0.0
 10
4.4778582239
 20
12.0519193157
 30
0.0
 10
4.5003185141
 20
12.0743350398
 30
0.0
 10
4.5332777161
 20
12.1084663933
 30
0.0
 10
4.5651383621
 20
12.1427686158
 30
0.0
 10
4.5950695999
 20
12.1765021175
 30
0.0
 10
4.6181279081
 20
12.2040020019
 30
0.0
 10
4.634580136
 20
12.2249573282
 30
0.0
 10
4.6451132738
 20
12.2391553152
 30
0.0
 10
4.653900375
 20
12.2519623283
 30
0.0
 10
4.6605698532
 20
12.2630058517
 30
0.0
 10
4.6645170138
 20
12.271050177
 30
0.0
 10
4.6662053908
 20
12.2763443922
 30
0.0
 10
4.6665550472
 20
12.2785642837
 30
0.0
 10
4.6665550472
 20
12.2795388851
 30
0.0
  0
SPLINE
  5
2C8
100
AcDbEntity
  8
0
100
AcDbSpline
 62
7
  6
BYLAYER
 70
0
 71
3
 72
21
 73
17
 74
0
 42
0.0000001
 43
0.0000001
 44
0.0000000001
 40
0.0
 40
0.0
 40
0.0
 40
0.0
 40
0.1452344243
 40
0.2909088354
 40
0.435747085
 40
0.5780224719
 40
0.6473629239
 40
0.7148072305
 40
0.7795586152
 40
0.840417155
 40
0.8956258935
 40
0.9426416997
 40
0.96207236
 40
0.978237903
 40
0.9908475488
 40
1.0
 40
1.0
 40
1.0
 40
1.0
 10
6.5665544162
 20
12.0408483728
 30
0.0
 10
6.5509194058
 20
12.0510681929
 30
0.0
 10
6.5197738252
 20
12.0718026732
 30
0.0
 10
6.4736137109
 20
12.1035866164
 30
0.0
 10
6.4283056528
 20
12.1359237832
 30
0.0
 10
6.3915124689
 20
12.163279414
 30
0.0
 10
6.3631190634
 20
12.1852339702
 30
0.0
 10
6.3428538799
 20
12.2013965686
 30
0.0
 10
6.3237327448
 20
12.2172373944
 30
0.0
 10
6.3061871254
 20
12.2325071446
 30
0.0
 10
6.2908506314
 20
12.2468180556
 30
0.0
 10
6.2799604973
 20
12.2580804034
 30
0.0
 10
6.2731953064
 20
12.2662773584
 30
0.0
 10
6.2696179207
 20
12.2713605031
 30
0.0
 10
6.2673211563
 20
12.2756653343
 30
0.0
 10
6.2665554397
 20
12.2784330322
 30
0.0
 10
6.2665550472
 20
12.2796101427
 30
0.0
  0
SPLINE
  5
2C9
100
AcDbEntity
  8
0
100
AcDbSpline
 62
7
  6
BYLAYER
 70
0
 71
3
 72
12
 73
8
 74
0
 42
0.0000001
 43
0.0000001
 44
0.0000000001
 40
0.0
 40
0.0
 40
0.0
 40
0.0
 40
0.3173438073
 40
0.6013557381
 40
0.8324670703
 40
0.9245744223
 40
1.0
 40
1.0
 40
1.0
 40
1.0
 10
7.1665550472
 20
24.4854340673
 30
0.0
 10
7.1573997541
 20
24.4851860986
 30
0.0
 10
7.1400558022
 20
24.4840742351
 30
0.0
 10
7.1162703947
 20
24.4805456937
 30
0.0
 10
7.0992354133
 20
24.4761166719
 30
0.0
 10
7.0886104568
 20
24.4716634906
 30
0.0
 10
7.0844009543
 20
24.4692303173
 30
0.0
 10
7.0826480466
 20
24.4679396558
 30
0.0
  0
SPLINE
  5
2CA
100
AcDbEntity
  8
0
100
AcDbSpline
 62
7
  6
BYLAYER
 70
0
 71
3
 72
19
 73
15
 74
0
 42
0.0000001
 43
0.0000001
 44
0.0000000001
 40
0.0
 40
0.0
 40
0.0
 40
0.0
 40
0.1859978158
 40
0.3654790575
 40
0.531284642
 40
0.6776620784
 40
0.7420017566
 40
0.7996857866
 40
0.8502988292
 40
0.8936212699
 40
0.9295784604
 40
0.9584386723
 40
0.981179741
 40
1.0
 40
1.0
 40
1.0
 40
1.0
 10
7.5665550472
 20
25.7928023341
 30
0.0
 10
7.586051246
 20
25.7928023341
 30
0.0
 10
7.6243644961
 20
25.7920721054
 30
0.0
 10
7.6799756813
 20
25.7888474458
 30
0.0
 10
7.7312616839
 20
25.7836052917
 30
0.0
 10
7.7702871453
 20
25.7775252574
 30
0.0
 10
7.7978081468
 20
25.7716517858
 30
0.0
 10
7.8153271951
 20
25.7670907543
 30
0.0
 10
7.8304684407
 20
25.7622258516
 30
0.0
 10
7.8431033866
 20
25.757111497
 30
0.0
 10
7.8531470021
 20
25.7517917206
 30
0.0
 10
7.8605346661
 20
25.7462631033
 30
0.0
 10
7.8653097136
 20
25.7404840517
 30
0.0
 10
7.8665550472
 20
25.7361083976
 30
0.0
 10
7.8665550472
 20
25.7341356674
 30
0.0
  0
SPLINE
  5
2CB
100
AcDbEntity
  8
0
100
AcDbSpline
 62
7
  6
BYLAYER
 70
0
 71
3
 72
12
 73
8
 74
0
 42
0.0000001
 43
0.0000001
 44
0.0000000001
 40
0.0
 40
0.0
 40
0.0
 40
0.0
 40
0.0754013605
 40
0.1674600361
 40
0.3985212604
 40
0.6826034931
 40
1.0
 40
1.0
 40
1.0
 40
1.0
 10
7.0826480466
 20
22.600331679
 30
0.0
 10
7.0844003916
 20
22.5990414315
 30
0.0
 10
7.0886076725
 20
22.5966086838
 30
0.0
 10
7.0992293611
 20
22.5921567201
 30
0.0
 10
7.1162634686
 20
22.5877279519
 30
0.0
 10
7.140050664
 20
22.5841969593
 30
0.0
 10
7.1573982322
 20
22.583085264
 30
0.0
 10
7.1665550472
 20
22.5828372601
 30
0.0
  0
SPLINE
  5
2CC
100
AcDbEntity
  8
0
100
AcDbSpline
 62
7
  6
BYLAYER
 70
0
 71
3
 72
21
 73
17
 74
0
 42
0.0000001
 43
0.0000001
 44
0.0000000001
 40
0.0
 40
0.0
 40
0.0
 40
0.0
 40
0.1666441256
 40
0.3300307626
 40
0.487270243
 40
0.6349785064
 40
0.7039158407
 40
0.7684856636
 40
0.8278123525
 40
0.8807475175
 40
0.9258250721
 40
0.961585043
 40
0.9755358774
 40
0.9866525738
 40
0.9948102998
 40
1.0
 40
1.0
 40
1.0
 40
1.0
 10
6.5665550472
 20
31.2019209023
 30
0.0
 10
6.5559293302
 20
31.2125399786
 30
0.0
 10
6.5348104697
 20
31.2334955467
 30
0.0
 10
6.5033962539
 20
31.264198028
 30
0.0
 10
6.4729548214
 20
31.2934516407
 30
0.0
 10
6.4484020228
 20
31.316543021
 30
0.0
 10
6.4297439278
 20
31.3337050478
 30
0.0
 10
6.4168477933
 20
31.3453617318
 30
0.0
 10
6.4049086412
 20
31.3559243146
 30
0.0
 10
6.3941538565
 20
31.3651733442
 30
0.0
 10
6.384846805
 20
31.3728406971
 30
0.0
 10
6.3780711972
 20
31.3780578929
 30
0.0
 10
6.3735602055
 20
31.3811714056
 30
0.0
 10
6.3710070444
 20
31.3827545846
 30
0.0
 10
6.3690501056
 20
31.3837442866
 30
0.0
 10
6.3678757651
 20
31.3841356674
 30
0.0
 10
6.3674079332
 20
31.3841356674
 30
0.0
  0
SPLINE
  5
2CD
100
AcDbEntity
  8
0
100
AcDbSpline
 62
7
  6
BYLAYER
 70
0
 71
3
 72
19
 73
15
 74
0
 42
0.0000001
 43
0.0000001
 44
0.0000000001
 40
0.0
 40
0.0
 40
0.0
 40
0.0
 40
0.0188187727
 40
0.0415572267
 40
0.0704156853
 40
0.1063726524
 40
0.1496958143
 40
0.2003098512
 40
0.2579947854
 40
0.3223352603
 40
0.468713918
 40
0.6345202633
 40
0.8140017115
 40
1.0
 40
1.0
 40
1.0
 40
1.0
 10
7.8665550472
 20
21.3341356674
 30
0.0
 10
7.8665550472
 20
21.3321631009
 30
0.0
 10
7.8653097948
 20
21.327787848
 30
0.0
 10
7.8605344734
 20
21.3220098019
 30
0.0
 10
7.8531467445
 20
21.3164822282
 30
0.0
 10
7.843103235
 20
21.3111626939
 30
0.0
 10
7.8304683638
 20
21.30604791
 30
0.0
 10
7.8153271435
 20
21.3011822407
 30
0.0
 10
7.7978080739
 20
21.296620443
 30
0.0
 10
7.7702870546
 20
21.2907461107
 30
0.0
 10
7.7312615532
 20
21.2846653753
 30
0.0
 10
7.6799755344
 20
21.279423052
 30
0.0
 10
7.6243643867
 20
21.2761988658
 30
0.0
 10
7.5860512176
 20
21.2754690007
 30
0.0
 10
7.5665550472
 20
21.2754690007
 30
0.0
  0
SPLINE
  5
2CE
100
AcDbEntity
  8
0
100
AcDbSpline
 62
7
  6
BYLAYER
 70
0
 71
3
 72
14
 73
10
 74
0
 42
0.0000001
 43
0.0000001
 44
0.0000000001
 40
0.0
 40
0.0
 40
0.0
 40
0.0
 40
0.3095081044
 40
0.4498170977
 40
0.5776178605
 40
0.6940218408
 40
0.8013140716
 40
0.9023584875
 40
1.0
 40
1.0
 40
1.0
 40
1.0
 10
7.1665550472
 20
22.7841356674
 30
0.0
 10
7.195242565
 20
22.7841356674
 30
0.0
 10
7.2374733636
 20
22.777207099
 30
0.0
 10
7.2863613967
 20
22.7548732234
 30
0.0
 10
7.3157380537
 20
22.7343119762
 30
0.0
 10
7.3385435667
 20
22.7107526143
 30
0.0
 10
7.3547288321
 20
22.6851034492
 30
0.0
 10
7.3643978324
 20
22.6582029928
 30
0.0
 10
7.3665550472
 20
22.6397204129
 30
0.0
 10
7.3665550472
 20
22.6306702698
 30
0.0
  0
SPLINE
  5
2CF
100
AcDbEntity
  8
0
100
AcDbSpline
 62
7
  6
BYLAYER
 70
0
 71
3
 72
14
 73
10
 74
0
 42
0.0000001
 43
0.0000001
 44
0.0000000001
 40
0.0
 40
0.0
 40
0.0
 40
0.0
 40
0.3095099087
 40
0.4498342243
 40
0.5776147551
 40
0.6939965651
 40
0.8012884777
 40
0.9023478645
 40
1.0
 40
1.0
 40
1.0
 40
1.0
 10
7.1665550472
 20
24.2841356674
 30
0.0
 10
7.1952426555
 20
24.2841356674
 30
0.0
 10
7.2374788683
 20
24.2910577323
 30
0.0
 10
7.2863560139
 20
24.3134126353
 30
0.0
 10
7.3157379133
 20
24.3339598958
 30
0.0
 10
7.3385455795
 20
24.3575126906
 30
0.0
 10
7.354729777
 20
24.3831618798
 30
0.0
 10
7.364397558
 20
24.4100651444
 30
0.0
 10
7.3665550472
 20
24.4285499615
 30
0.0
 10
7.3665550472
 20
24.437601065
 30
0.0
  0
SPLINE
  5
2D0
100
AcDbEntity
  8
0
100
AcDbSpline
 62
7
  6
BYLAYER
 70
0
 71
3
 72
12
 73
8
 74
0
 42
0.0000001
 43
0.0000001
 44
0.0000000001
 40
0.0
 40
0.0
 40
0.0
 40
0.0
 40
0.1424894751
 40
0.2819156234
 40
0.5425924763
 40
0.7808531377
 40
1.0
 40
1.0
 40
1.0
 40
1.0
 10
7.3597402124
 20
24.6787553382
 30
0.0
 10
7.3564720125
 20
24.6661279834
 30
0.0
 10
7.3478097772
 20
24.6416737852
 30
0.0
 10
7.3244825184
 20
24.5976758629
 30
0.0
 10
7.2869910287
 20
24.5519680326
 30
0.0
 10
7.2343650975
 20
24.5117552957
 30
0.0
 10
7.1957920523
 20
24.4943149407
 30
0.0
 10
7.1766173827
 20
24.4884191156
 30
0.0
  0
SPLINE
  5
2D1
100
AcDbEntity
  8
0
100
AcDbSpline
 62
7
  6
BYLAYER
 70
0
 71
3
 72
9
 73
5
 74
0
 42
0.0000001
 43
0.0000001
 44
0.0000000001
 40
0.0
 40
0.0
 40
0.0
 40
0.0
 40
0.507952044
 40
1.0
 40
1.0
 40
1.0
 40
1.0
 10
11.9834141197
 20
20.5447756965
 30
0.0
 10
12.1660401949
 20
20.5447756965
 30
0.0
 10
12.5256241356
 20
20.5532105221
 30
0.0
 10
12.884409306
 20
20.5790138986
 30
0.0
 10
13.0604470812
 20
20.5965395055
 30
0.0
  0
SPLINE
  5
2D2
100
AcDbEntity
  8
0
100
AcDbSpline
 62
7
  6
BYLAYER
 70
0
 71
3
 72
9
 73
5
 74
0
 42
0.0000001
 43
0.0000001
 44
0.0000000001
 40
0.0
 40
0.0
 40
0.0
 40
0.0
 40
0.492047956
 40
1.0
 40
1.0
 40
1.0
 40
1.0
 10
13.0604470812
 20
26.4717318293
 30
0.0
 10
12.884409306
 20
26.4892574362
 30
0.0
 10
12.5256241356
 20
26.5150608127
 30
0.0
 10
12.1660401949
 20
26.5234956383
 30
0.0
 10
11.9834141197
 20
26.5234956383
 30
0.0
  0
SPLINE
  5
2D3
100
AcDbEntity
  8
0
100
AcDbSpline
 62
7
  6
BYLAYER
 70
0
 71
3
 72
13
 73
9
 74
0
 42
0.0000001
 43
0.0000001
 44
0.0000000001
 40
0.0
 40
0.0
 40
0.0
 40
0.0
 40
0.2409891966
 40
0.3712766754
 40
0.5040606743
 40
0.6361943337
 40
0.7646860363
 40
1.0
 40
1.0
 40
1.0
 40
1.0
 10
6.8947094492
 20
24.6611248292
 30
0.0
 10
6.8967148877
 20
24.6378375297
 30
0.0
 10
6.9061333842
 20
24.6021575996
 30
0.0
 10
6.930149341
 20
24.5593897065
 30
0.0
 10
6.9543821445
 20
24.5294170487
 30
0.0
 10
6.9835382211
 20
24.5044675092
 30
0.0
 10
7.0250246999
 20
24.4798036717
 30
0.0
 10
7.0599188912
 20
24.4700078332
 30
0.0
 10
7.0826480427
 20
24.467939653
 30
0.0
  0
SPLINE
  5
2D4
100
AcDbEntity
  8
0
100
AcDbSpline
 62
7
  6
BYLAYER
 70
0
 71
3
 72
13
 73
9
 74
0
 42
0.0000001
 43
0.0000001
 44
0.0000000001
 40
0.0
 40
0.0
 40
0.0
 40
0.0
 40
0.3193829615
 40
0.60916057
 40
0.7344622931
 40
0.8429419634
 40
0.9321105106
 40
1.0
 40
1.0
 40
1.0
 40
1.0
 10
7.1766173087
 20
24.6787553382
 30
0.0
 10
7.1465061014
 20
24.6787538747
 30
0.0
 10
7.0890729546
 20
24.6779921359
 30
0.0
 10
7.0198724004
 20
24.6751262379
 30
0.0
 10
6.9706361644
 20
24.6715800285
 30
0.0
 10
6.9403255293
 20
24.6686322407
 30
0.0
 10
6.9155070812
 20
24.665332129
 30
0.0
 10
6.9009270277
 20
24.6626446843
 30
0.0
 10
6.8947095224
 20
24.6611248211
 30
0.0
  0
SPLINE
  5
2D5
100
AcDbEntity
  8
0
100
AcDbSpline
 62
7
  6
BYLAYER
 70
0
 71
3
 72
11
 73
7
 74
0
 42
0.0000001
 43
0.0000001
 44
0.0000000001
 40
0.0
 40
0.0
 40
0.0
 40
0.0
 40
0.2500100788
 40
0.5000115216
 40
0.7500095668
 40
1.0
 40
1.0
 40
1.0
 40
1.0
 10
21.5665550472
 20
18.5541758282
 30
0.0
 10
21.4132791499
 20
18.9512190051
 30
0.0
 10
21.1337054835
 20
19.7561457143
 30
0.0
 10
20.8140826728
 20
20.9939510016
 30
0.0
 10
20.6125788786
 20
22.2567427061
 30
0.0
 10
20.5665550472
 20
23.1085674367
 30
0.0
 10
20.5665550472
 20
23.5341356674
 30
0.0
  0
SPLINE
  5
2D6
100
AcDbEntity
  8
0
100
AcDbSpline
 62
7
  6
BYLAYER
 70
0
 71
3
 72
11
 73
7
 74
0
 42
0.0000001
 43
0.0000001
 44
0.0000000001
 40
0.0
 40
0.0
 40
0.0
 40
0.0
 40
0.2087957697
 40
0.4462924543
 40
0.712449975
 40
1.0
 40
1.0
 40
1.0
 40
1.0
 10
6.5910848198
 20
24.437601065
 30
0.0
 10
6.5979420462
 20
24.4219742843
 30
0.0
 10
6.6176538007
 20
24.3907243275
 30
0.0
 10
6.6593163802
 20
24.3494811446
 30
0.0
 10
6.7138002611
 20
24.3138902177
 30
0.0
 10
6.7563146055
 20
24.2971712774
 30
0.0
 10
6.779023344
 20
24.291117626
 30
0.0
  0
SPLINE
  5
2D7
100
AcDbEntity
  8
0
100
AcDbSpline
 62
7
  6
BYLAYER
 70
0
 71
3
 72
11
 73
7
 74
0
 42
0.0000001
 43
0.0000001
 44
0.0000000001
 40
0.0
 40
0.0
 40
0.0
 40
0.0
 40
0.2499907507
 40
0.4999888988
 40
0.7499901605
 40
1.0
 40
1.0
 40
1.0
 40
1.0
 10
20.5665550472
 20
23.5341356674
 30
0.0
 10
20.5665550472
 20
23.9597044403
 30
0.0
 10
20.6125789259
 20
24.8115298834
 30
0.0
 10
20.8140826851
 20
26.074322033
 30
0.0
 10
21.1337060915
 20
27.3121266075
 30
0.0
 10
21.413279296
 20
28.1170527082
 30
0.0
 10
21.5665550472
 20
28.5140955066
 30
0.0
  0
ELLIPSE
  5
2D8
100
AcDbEntity
  8
0
100
AcDbEllipse
 62
7
  6
BYLAYER
 10
6.8518173908
 20
22.5770804313
 30
0.0
 11
-0.1767480094
 21
0.1301191194
 31
0.0
 40
0.9112506847
 41
-0.8912668485
 42
-0.6308383438
  0
ELLIPSE
  5
2D9
100
AcDbEntity
  8
0
100
AcDbEllipse
 62
7
  6
BYLAYER
 10
7.1665550472
 20
22.3359261581
 30
0.0
 11
0.0
 21
0.2070552361
 31
0.0
 40
0.9659258263
 41
-1.5707963268
 42
-1.308996939
  0
ELLIPSE
  5
2DA
100
AcDbEntity
  8
0
100
AcDbEllipse
 62
7
  6
BYLAYER
 10
6.8518173908
 20
24.4911909035
 30
0.0
 11
0.1767480094
 21
0.1301191194
 31
0.0
 40
0.9112506847
 41
-2.5107543098
 42
-2.2503258051
  0
ELLIPSE
  5
2DB
100
AcDbEntity
  8
0
100
AcDbEllipse
 62
7
  6
BYLAYER
 10
7.1665550472
 20
24.7323451767
 30
0.0
 11
0.0
 21
0.2070552361
 31
0.0
 40
0.9659258263
 41
-1.8325957146
 42
-1.5707963268
  0
ENDSEC
  0
SECTION
  2
OBJECTS
  0
DICTIONARY
  5
C
100
AcDbDictionary
280
0
281
1
  3
ACAD_GROUP
350
D
  3
ACAD_MLINESTYLE
350
17
  3
ACAD_LAYOUT
350
1A
  3
ACAD_PLOTSETTINGS
350
19
  3
ACAD_PLOTSTYLENAME
350
E
  0
DICTIONARY
  5
D
102
{ACAD_REACTORS
330
C
102
}
100
AcDbDictionary
280
0
281
1
  0
ACDBDICTIONARYWDFLT
  5
E
102
{ACAD_REACTORS
330
C
102
}
100
AcDbDictionary
281
1
  3
Normal
350
F
100
AcDbDictionaryWithDefault
340
F
  0
DICTIONARY
  5
17
102
{ACAD_REACTORS
330
C
102
}
100
AcDbDictionary
280
0
281
1
  3
Standard
350
18
  0
DICTIONARY
  5
19
102
{ACAD_REACTORS
330
C
102
}
100
AcDbDictionary
281
1
  0
DICTIONARY
  5
1A
102
{ACAD_REACTORS
330
C
102
}
100
AcDbDictionary
281
1
  3
Model
350
2DC
  3
Layout1
350
2DD
  0
ACDBPLACEHOLDER
  5
F
102
{ACAD_REACTORS
330
E
102
}
  0
MLINESTYLE
  5
18
102
{ACAD_REACTORS
330
17
102
}
100
AcDbMlineStyle
  2
STANDARD
 70
0
  3

 62
256
 51
90.0
 52
90.0
 71
2
 49
0.5
 62
256
  6
BYLAYER
 49
-0.5
 62
256
  6
BYLAYER
  0
LAYOUT
  5
2DC
102
{ACAD_REACTORS
330
1A
102
}
100
AcDbPlotSettings
  1

  2
none_device
  4

  6

 40
0.0
 41
0.0
 42
0.0
 43
0.0
 44
210.0
 45
297.0
 46
0.0
 47
0.0
 48
0.0
 49
0.0
140
0.0
141
0.0
142
1.0
143
1.0
 70
1024
 72
1
 73
0
 74
0
  7

 75
0
147
1.0
148
0.0
149
0.0
100
AcDbLayout
  1
Model
 70
0
 71
0
 10
0.0
 20
0.0
 11
210.0
 21
297.0
 12
0.0
 22
0.0
 32
0.0
 14
0.0
 24
0.0
 34
0.0
 15
0.0
 25
0.0
 35
0.0
146
0.0
 13
0.0
 23
0.0
 33
0.0
 16
1.0
 26
0.0
 36
0.0
 17
0.0
 27
1.0
 37
0.0
 76
0
330
210
345
0
346
0
  0
LAYOUT
  5
2DD
102
{ACAD_REACTORS
330
1A
102
}
100
AcDbPlotSettings
  1

  2
none_device
  4

  6

 40
0.0
 41
0.0
 42
0.0
 43
0.0
 44
210.0
 45
297.0
 46
0.0
 47
0.0
 48
0.0
 49
0.0
140
0.0
141
0.0
142
1.0
143
1.0
 70
0
 72
1
 73
0
 74
0
  7

 75
0
147
1.0
148
0.0
149
0.0
100
AcDbLayout
  1
Layout1
 70
0
 71
1
 10
0.0
 20
0.0
 11
210.0
 21
297.0
 12
0.0
 22
0.0
 32
0.0
 14
0.0
 24
0.0
 34
0.0
 15
0.0
 25
0.0
 35
0.0
146
0.0
 13
0.0
 23
0.0
 33
0.0
 16
1.0
 26
0.0
 36
0.0
 17
0.0
 27
1.0
 37
0.0
 76
0
330
211
345
0
346
0
  0
ENDSEC
  0
EOF
