999
DXF file: C:\Users\sesa63760\Dev\_Creo\CAD\MCADID0004801_3D-CAD\drw0001_1.dxf
999
Pro/ENGINEER 2019471 by Parametric Technology Corporation
  0
SECTION
  2
HEADER
  9
$ACADVER
  1
AC1024
  9
$DWGCODEPAGE
  3
ANSI_1252
  9
$EXTMAX
 10
51.3162165726
 20
72.5757920099
 30
0.0
  9
$EXTMIN
 10
0.0
 20
0.0
 30
0.0
  9
$LIMMIN
 10
0.0
 20
0.0
  9
$LIMMAX
 10
51.3162165726
 20
72.5757920099
  9
$VIEWCTR
 10
25.6581082863
 20
36.2878960049
  9
$VIEWSIZE
 40
72.5757920099
  9
$CLAYER
  8
0
  9
$LTSCALE
 40
4.7308664421
  9
$CELTYPE
  6
BYLAYER
  9
$DIMSCALE
 40
1.0
  9
$DIMASZ
 40
0.6109073402
  9
$DIMEXO
 40
1.0
  9
$DIMDLI
 40
3.2685986327
  9
$DIMEXE
 40
1.0
  9
$DIMCEN
 40
0.7741417814
  9
$DIMLFAC
 40
1.0
  9
$DIMBLK
  1
_FILLED
  9
$DIMALT
 70
0
  9
$DIMALTF
 40
0.0393700787
  9
$DIMTXT
 40
0.8552702762
  9
$DIMTOL
 70
1
  9
$DIMLIM
 70
0
  9
$DIMTFAC
 40
1.0
  9
$DIMTP
 40
0.01
  9
$DIMTM
 40
0.01
  9
$DIMGAP
 40
0.625
  9
$DIMDSEP
 70
46
  9
$AUNITS
 70
0
  9
$PDMODE
 70
3
  9
$PDSIZE
 40
0.3125
  9
$HANDSEED
  5
275
  9
$TILEMODE
 70
1
  9
$MEASUREMENT
 70
1
  9
$INSUNITS
 70
4
  0
ENDSEC
  0
SECTION
  2
CLASSES
  0
CLASS
  1
ACDBDICTIONARYWDFLT
  2
AcDbDictionaryWithDefault
  3
AutoCAD 2000
 90
0
 91
1
280
0
281
0
  0
CLASS
  1
ACDBPLACEHOLDER
  2
AcDbPlaceHolder
  3
AutoCAD 2000
 90
0
 91
1
280
0
281
0
  0
CLASS
  1
LAYOUT
  2
AcDbLayout
  3
AutoCAD 2000
 90
0
 91
0
280
0
281
0
  0
ENDSEC
  0
SECTION
  2
TABLES
  0
TABLE
  2
VPORT
  5
8
100
AcDbSymbolTable
 70
2
  0
VPORT
  5
1F4
100
AcDbSymbolTableRecord
100
AcDbViewportTableRecord
  2
*ACTIVE
 70
0
 10
0.0
 20
0.0
 11
1.0
 21
1.0
 12
25.6581082863
 22
36.2878960049
 13
0.0
 23
0.0
 14
1.0
 24
1.0
 15
0.0
 25
0.0
 16
0.0
 26
0.0
 36
1.0
 17
0.0
 27
0.0
 37
0.0
 40
72.5757920099
 41
0.7070707071
 42
50.0
 43
0.0
 44
0.0
 50
0.0
 51
0.0
 71
0
 72
100
 73
1
 74
1
 75
0
 76
0
 77
0
 78
0
  0
ENDTAB
  0
TABLE
  2
LTYPE
  5
5
100
AcDbSymbolTable
 70
6
  0
LTYPE
  5
14
100
AcDbSymbolTableRecord
100
AcDbLinetypeTableRecord
  2
BYBLOCK
 70
0
  3

 72
65
 73
0
 40
0.0
  0
LTYPE
  5
15
100
AcDbSymbolTableRecord
100
AcDbLinetypeTableRecord
  2
BYLAYER
 70
0
  3

 72
65
 73
0
 40
0.0
  0
LTYPE
  5
16
100
AcDbSymbolTableRecord
100
AcDbLinetypeTableRecord
  2
CONTINUOUS
 70
64
  3
Solid line
 72
65
 73
0
 40
0.0
  0
LTYPE
  5
1F5
100
AcDbSymbolTableRecord
100
AcDbLinetypeTableRecord
  2
CENTER
 70
64
  3
____ _ ____ _ ____ _ ____ _ ____ _ ____ _ ____
 72
65
 73
4
 40
0.6
 49
0.375
 74
0
 49
-0.075
 74
0
 49
0.075
 74
0
 49
-0.075
 74
0
  0
LTYPE
  5
1F6
100
AcDbSymbolTableRecord
100
AcDbLinetypeTableRecord
  2
HIDDEN
 70
64
  3
- - - - - - - - - - - - - - - - - - - -
 72
65
 73
2
 40
0.2
 49
0.1
 74
0
 49
-0.1
 74
0
  0
LTYPE
  5
1F7
100
AcDbSymbolTableRecord
100
AcDbLinetypeTableRecord
  2
PHANTOM
 70
64
  3
_____ _ _ _____ _ _ _____ _ _ _____
 72
65
 73
6
 40
0.8
 49
0.45
 74
0
 49
-0.05
 74
0
 49
0.1
 74
0
 49
-0.05
 74
0
 49
0.1
 74
0
 49
-0.05
 74
0
  0
LTYPE
  5
1F8
100
AcDbSymbolTableRecord
100
AcDbLinetypeTableRecord
  2
DOT
 70
64
  3
. . . . . . . . . . . . . . . . . . . .
 72
65
 73
2
 40
0.2
 49
0.1
 74
0
 49
-0.1
 74
0
  0
LTYPE
  5
1F9
100
AcDbSymbolTableRecord
100
AcDbLinetypeTableRecord
  2
DASHED
 70
64
  3
- - - - - - - - - - - - - - - - - - - -
 72
65
 73
2
 40
0.2
 49
0.1
 74
0
 49
-0.1
 74
0
  0
ENDTAB
  0
TABLE
  2
LAYER
  5
2
100
AcDbSymbolTable
 70
36
  0
LAYER
  5
10
100
AcDbSymbolTableRecord
100
AcDbLayerTableRecord
  2
0
 70
0
 62
7
  6
CONTINUOUS
370
-3
390
F
  0
LAYER
  5
1FA
100
AcDbSymbolTableRecord
100
AcDbLayerTableRecord
  2
DEFAULT_1
 70
0
 62
7
  6
CENTER
370
-3
390
F
  0
LAYER
  5
1FB
100
AcDbSymbolTableRecord
100
AcDbLayerTableRecord
  2
DEFAULT_2
 70
0
 62
7
  6
HIDDEN
370
-3
390
F
  0
LAYER
  5
1FC
100
AcDbSymbolTableRecord
100
AcDbLayerTableRecord
  2
DEFAULT_3
 70
0
 62
7
  6
PHANTOM
370
-3
390
F
  0
LAYER
  5
1FD
100
AcDbSymbolTableRecord
100
AcDbLayerTableRecord
  2
00_COMPONENTS
 70
0
 62
7
  6
CONTINUOUS
370
-3
390
F
  0
LAYER
  5
1FE
100
AcDbSymbolTableRecord
100
AcDbLayerTableRecord
  2
01_1_DEFAULT_DATUMS
 70
0
 62
7
  6
CONTINUOUS
370
-3
390
F
  0
LAYER
  5
1FF
100
AcDbSymbolTableRecord
100
AcDbLayerTableRecord
  2
01_PLANES
 70
0
 62
7
  6
CONTINUOUS
370
-3
390
F
  0
LAYER
  5
200
100
AcDbSymbolTableRecord
100
AcDbLayerTableRecord
  2
02_COORD_SYS
 70
0
 62
7
  6
CONTINUOUS
370
-3
390
F
  0
LAYER
  5
201
100
AcDbSymbolTableRecord
100
AcDbLayerTableRecord
  2
03_AXES
 70
0
 62
7
  6
CONTINUOUS
370
-3
390
F
  0
LAYER
  5
202
100
AcDbSymbolTableRecord
100
AcDbLayerTableRecord
  2
04_POINTS
 70
0
 62
7
  6
CONTINUOUS
370
-3
390
F
  0
LAYER
  5
203
100
AcDbSymbolTableRecord
100
AcDbLayerTableRecord
  2
05_CURVES
 70
0
 62
7
  6
CONTINUOUS
370
-3
390
F
  0
LAYER
  5
204
100
AcDbSymbolTableRecord
100
AcDbLayerTableRecord
  2
06_SURFS
 70
0
 62
7
  6
CONTINUOUS
370
-3
390
F
  0
LAYER
  5
205
100
AcDbSymbolTableRecord
100
AcDbLayerTableRecord
  2
07_COSMETICS
 70
0
 62
7
  6
CONTINUOUS
370
-3
390
F
  0
LAYER
  5
206
100
AcDbSymbolTableRecord
100
AcDbLayerTableRecord
  2
10_NOTES
 70
0
 62
7
  6
CONTINUOUS
370
-3
390
F
  0
LAYER
  5
207
100
AcDbSymbolTableRecord
100
AcDbLayerTableRecord
  2
11_NOTES_PUB
 70
0
 62
7
  6
CONTINUOUS
370
-3
390
F
  0
LAYER
  5
208
100
AcDbSymbolTableRecord
100
AcDbLayerTableRecord
  2
13_REF_GTOL
 70
0
 62
7
  6
CONTINUOUS
370
-3
390
F
  0
LAYER
  5
209
100
AcDbSymbolTableRecord
100
AcDbLayerTableRecord
  2
16_MISC
 70
0
 62
7
  6
CONTINUOUS
370
-3
390
F
  0
LAYER
  5
20A
100
AcDbSymbolTableRecord
100
AcDbLayerTableRecord
  2
17_NO_PRINT
 70
0
 62
7
  6
CONTINUOUS
370
-3
390
F
  0
LAYER
  5
20B
100
AcDbSymbolTableRecord
100
AcDbLayerTableRecord
  2
18_DATUM_CAMS_JOINTS
 70
0
 62
7
  6
CONTINUOUS
370
-3
390
F
  0
LAYER
  5
20C
100
AcDbSymbolTableRecord
100
AcDbLayerTableRecord
  2
19_DATUM_FUNCTIONAL
 70
0
 62
7
  6
CONTINUOUS
370
-3
390
F
  0
LAYER
  5
20D
100
AcDbSymbolTableRecord
100
AcDbLayerTableRecord
  2
20_DATUM_KINEMATIC_SCHEME
 70
0
 62
7
  6
CONTINUOUS
370
-3
390
F
  0
ENDTAB
  0
TABLE
  2
STYLE
  5
3
100
AcDbSymbolTable
 70
1
  0
STYLE
  5
11
100
AcDbSymbolTableRecord
100
AcDbTextStyleTableRecord
  2
STANDARD
 70
0
 40
0.0
 41
1.0
 50
0.0
 71
0
 42
0.2
  3
ARIAL.TTF
  4

  0
STYLE
  5
20E
100
AcDbSymbolTableRecord
100
AcDbTextStyleTableRecord
  2
TEXTSTYLE_1
 70
0
 40
0.0
 41
0.8
 50
0.0
 71
0
 42
0.2
  3
gdt
  4

  0
ENDTAB
  0
TABLE
  2
VIEW
  5
6
100
AcDbSymbolTable
 70
0
  0
ENDTAB
  0
TABLE
  2
UCS
  5
7
100
AcDbSymbolTable
 70
0
  0
ENDTAB
  0
TABLE
  2
APPID
  5
9
100
AcDbSymbolTable
 70
1
  0
APPID
  5
20F
100
AcDbSymbolTableRecord
100
AcDbRegAppTableRecord
  2
ACAD
 70
0
  0
ENDTAB
  0
TABLE
  2
BLOCK_RECORD
  5
1
100
AcDbSymbolTable
 70
0
  0
BLOCK_RECORD
  5
210
100
AcDbSymbolTableRecord
100
AcDbBlockTableRecord
  2
*Model_Space
  0
BLOCK_RECORD
  5
211
100
AcDbSymbolTableRecord
100
AcDbBlockTableRecord
  2
*Paper_Space
  0
BLOCK_RECORD
  5
212
100
AcDbSymbolTableRecord
100
AcDbBlockTableRecord
  2
_FILLED
  0
ENDTAB
  0
TABLE
  2
DIMSTYLE
  5
A
100
AcDbSymbolTable
 70
1
100
AcDbDimStyleTable
 71
0
  0
DIMSTYLE
105
213
100
AcDbSymbolTableRecord
100
AcDbDimStyleTableRecord
  2
STANDARD
 70
0
  3

  4

 40
1.0
 41
0.6109073402
 42
1.0
 43
0.38
 44
1.0
 45
0.0
 46
0.0
 47
0.01
 48
0.01
140
0.8552702762
141
0.09
142
0.0
143
25.4
144
1.0
145
0.0
146
1.0
147
0.625
 71
1
 72
0
 73
0
 74
0
 75
0
 76
0
 77
1
 78
8
 79
2
170
0
171
1
172
0
173
0
174
0
175
0
176
0
177
0
178
0
270
2
179
2
271
2
272
2
273
2
274
2
275
0
280
0
281
0
282
0
283
1
284
8
285
0
286
0
287
3
288
0
340
11
278
46
341
212
342
212
343
212
344
212
  0
ENDTAB
  0
ENDSEC
  0
SECTION
  2
BLOCKS
  0
BLOCK
  5
20
100
AcDbEntity
  8
0
100
AcDbBlockBegin
  2
*Model_Space
 70
0
 10
0.0
 20
0.0
 30
0.0
  3
*Model_Space
  1

  0
ENDBLK
  5
21
100
AcDbEntity
  8
0
100
AcDbBlockEnd
  0
BLOCK
  5
1C
100
AcDbEntity
  8
0
100
AcDbBlockBegin
  2
*Paper_Space
 70
0
 10
0.0
 20
0.0
 30
0.0
  3
*Paper_Space
  1

  0
ENDBLK
  5
1D
100
AcDbEntity
  8
0
100
AcDbBlockEnd
  0
BLOCK
  5
214
100
AcDbEntity
  8
0
100
AcDbBlockBegin
  2
_FILLED
 70
64
 10
0.0
 20
0.0
  3
_FILLED
  1

  0
SOLID
  5
215
100
AcDbEntity
  8
0
  6
BYBLOCK
 62
0
100
AcDbTrace
 10
0.0
 20
0.0
 11
-1.0
 21
0.25
 12
-1.0
 22
-0.25
 13
-1.0
 23
-0.25
  0
ENDBLK
  5
216
100
AcDbEntity
  8
0
  6
BYBLOCK
 62
0
100
AcDbBlockEnd
  0
ENDSEC
  0
SECTION
  2
ENTITIES
  0
LINE
  5
217
100
AcDbEntity
  8
0
100
AcDbLine
 62
7
  6
BYLAYER
 10
5.9532715295
 20
26.3472286724
 11
5.9532715295
 21
24.7142238381
  0
LINE
  5
218
100
AcDbEntity
  8
0
100
AcDbLine
 62
7
  6
BYLAYER
 10
9.7813524132
 20
23.2037167295
 11
9.9227499198
 21
23.1220826878
  0
LINE
  5
219
100
AcDbEntity
  8
0
100
AcDbLine
 62
7
  6
BYLAYER
 10
7.5723500314
 20
21.9283562226
 11
7.5723500314
 21
23.5613610568
  0
LINE
  5
21A
100
AcDbEntity
  8
0
100
AcDbLine
 62
7
  6
BYLAYER
 10
9.7813524132
 20
24.8367215638
 11
11.3369938086
 21
23.9385919038
  0
LINE
  5
21B
100
AcDbEntity
  8
0
100
AcDbLine
 62
7
  6
BYLAYER
 10
9.1279382939
 20
28.3981979164
 11
9.1279382939
 21
30.0312027506
  0
LINE
  5
21C
100
AcDbEntity
  8
0
100
AcDbLine
 62
7
  6
BYLAYER
 10
9.1279914267
 20
22.6632313969
 11
9.1279914267
 21
21.0302265626
  0
LINE
  5
21D
100
AcDbEntity
  8
0
100
AcDbLine
 62
7
  6
BYLAYER
 10
9.7813524132
 20
23.2037167295
 11
9.7813524132
 21
24.8367215638
  0
LINE
  5
21E
100
AcDbEntity
  8
0
100
AcDbLine
 62
7
  6
BYLAYER
 10
9.7813306279
 20
27.8577157248
 11
7.572309852
 21
29.1330656121
  0
LINE
  5
21F
100
AcDbEntity
  8
0
100
AcDbLine
 62
7
  6
BYLAYER
 10
16.5695839893
 20
23.9386044814
 11
18.7786047651
 21
22.6632545941
  0
LINE
  5
220
100
AcDbEntity
  8
0
100
AcDbLine
 62
7
  6
BYLAYER
 10
9.922715181
 20
27.9393436473
 11
9.1279382939
 21
28.3981979164
  0
LINE
  5
221
100
AcDbEntity
  8
0
100
AcDbLine
 62
7
  6
BYLAYER
 10
18.1252124312
 20
23.2037367857
 11
20.334233207
 21
21.9283868984
  0
LINE
  5
222
100
AcDbEntity
  8
0
100
AcDbLine
 62
7
  6
BYLAYER
 10
11.3369590697
 20
28.7558528633
 11
9.1279382939
 21
30.0312027506
  0
LINE
  5
223
100
AcDbEntity
  8
0
100
AcDbLine
 62
7
  6
BYLAYER
 10
18.1252124312
 20
24.8367416199
 11
20.334233207
 21
23.5613917326
  0
LINE
  5
224
100
AcDbEntity
  8
0
100
AcDbLine
 62
7
  6
BYLAYER
 10
18.1251906458
 20
27.857735781
 11
16.5695492505
 21
28.7558654409
  0
LINE
  5
225
100
AcDbEntity
  8
0
100
AcDbLine
 62
7
  6
BYLAYER
 10
18.8322815296
 20
28.4292418991
 11
18.9736790361
 21
28.3476078574
  0
LINE
  5
226
100
AcDbEntity
  8
0
100
AcDbLine
 62
7
  6
BYLAYER
 10
31.2772831576
 20
50.3929557188
 11
30.9237282951
 21
50.1888248875
  0
LINE
  5
227
100
AcDbEntity
  8
0
100
AcDbLine
 62
7
  6
BYLAYER
 10
18.8322815296
 20
30.0622467333
 11
20.3879229249
 21
29.1641170734
  0
LINE
  5
228
100
AcDbEntity
  8
0
100
AcDbLine
 62
7
  6
BYLAYER
 10
18.1252124312
 20
23.2037367857
 11
18.1252124312
 21
24.8367416199
  0
LINE
  5
229
100
AcDbEntity
  8
0
100
AcDbLine
 62
7
  6
BYLAYER
 10
18.7786047651
 20
21.0302497598
 11
18.7786047651
 21
22.6632545941
  0
LINE
  5
22A
100
AcDbEntity
  8
0
100
AcDbLine
 62
7
  6
BYLAYER
 10
18.8322815296
 20
28.4292418991
 11
18.8322815296
 21
30.0622467333
  0
LINE
  5
22B
100
AcDbEntity
  8
0
100
AcDbLine
 62
7
  6
BYLAYER
 10
20.334233207
 20
23.5613917326
 11
20.334233207
 21
21.9283868984
  0
LINE
  5
22C
100
AcDbEntity
  8
0
100
AcDbLine
 62
7
  6
BYLAYER
 10
21.794267185
 20
23.797942383
 11
21.794267185
 21
25.4309472172
  0
LINE
  5
22D
100
AcDbEntity
  8
0
100
AcDbLine
 62
7
  6
BYLAYER
 10
24.1663866459
 20
46.3105011304
 11
24.1663866459
 21
42.2279890447
  0
LINE
  5
22E
100
AcDbEntity
  8
0
100
AcDbLine
 62
7
  6
BYLAYER
 10
24.5244145028
 20
26.7349981092
 11
24.5244145028
 21
28.3680029435
  0
LINE
  5
22F
100
AcDbEntity
  8
0
100
AcDbLine
 62
7
  6
BYLAYER
 10
22.4384881364
 20
35.3285830608
 11
25.5602639273
 21
39.2121377969
  0
LINE
  5
230
100
AcDbEntity
  8
0
100
AcDbLine
 62
7
  6
BYLAYER
 10
22.4384881364
 20
35.3285830608
 11
29.5095853879
 21
31.2461755156
  0
LINE
  5
231
100
AcDbEntity
  8
0
100
AcDbLine
 62
7
  6
BYLAYER
 10
29.3934443962
 20
46.1134478957
 11
29.2658257573
 21
45.7137993509
  0
LINE
  5
232
100
AcDbEntity
  8
0
100
AcDbLine
 62
7
  6
BYLAYER
 10
22.4384881364
 20
35.3285830608
 11
17.4533172514
 21
32.4504104887
  0
LINE
  5
233
100
AcDbEntity
  8
0
100
AcDbLine
 62
7
  6
BYLAYER
 10
11.3369590697
 20
28.7558528633
 11
9.7813306279
 21
27.8577157248
  0
LWPOLYLINE
  5
234
100
AcDbEntity
  8
0
100
AcDbPolyline
 62
7
  6
BYLAYER
 90
8
 70
0
 10
36.2925064266
 20
35.9105956201
 10
33.2984296704
 20
35.9694669572
 10
30.4435745405
 20
36.4923658106
 10
27.9351416673
 20
37.4423501575
 10
26.8734711758
 20
38.055621724
 10
25.2317008245
 20
39.5014969288
 10
24.3270285207
 20
41.1466114801
 10
24.1664466611
 20
42.227989039
  0
LINE
  5
235
100
AcDbEntity
  8
0
100
AcDbLine
 62
7
  6
BYLAYER
 10
9.7813524132
 20
24.8367215638
 11
7.5723500314
 21
23.5613610568
  0
LINE
  5
236
100
AcDbEntity
  8
0
100
AcDbLine
 62
7
  6
BYLAYER
 10
16.5695492505
 20
28.7558654409
 11
18.8322815296
 21
30.0622467333
  0
LINE
  5
237
100
AcDbEntity
  8
0
100
AcDbLine
 62
7
  6
BYLAYER
 10
29.1663866459
 20
47.7393803604
 11
29.1663866459
 21
46.9228779432
  0
LINE
  5
238
100
AcDbEntity
  8
0
100
AcDbLine
 62
7
  6
BYLAYER
 10
9.7813524132
 20
23.2037167295
 11
7.5723500314
 21
21.9283562226
  0
LINE
  5
239
100
AcDbEntity
  8
0
100
AcDbLine
 62
7
  6
BYLAYER
 10
17.9837931393
 20
27.9393698226
 11
18.8322815296
 21
28.4292418991
  0
LINE
  5
23A
100
AcDbEntity
  8
0
100
AcDbLine
 62
7
  6
BYLAYER
 10
20.3879229249
 20
29.1641170734
 11
18.1251906458
 21
27.857735781
  0
LINE
  5
23B
100
AcDbEntity
  8
0
100
AcDbLine
 62
7
  6
BYLAYER
 10
11.3369938086
 20
23.9385919038
 11
9.1279914267
 21
22.6632313969
  0
LINE
  5
23C
100
AcDbEntity
  8
0
100
AcDbLine
 62
7
  6
BYLAYER
 10
33.3062555795
 20
35.9693130795
 11
29.5095853879
 21
31.2461755156
  0
LINE
  5
23D
100
AcDbEntity
  8
0
100
AcDbLine
 62
7
  6
BYLAYER
 10
29.8885211922
 20
29.831948064
 11
34.7874802813
 21
35.9263561981
  0
LINE
  5
23E
100
AcDbEntity
  8
0
100
AcDbLine
 62
7
  6
BYLAYER
 10
16.5695839893
 20
23.9386044814
 11
18.1252124312
 21
24.8367416199
  0
LINE
  5
23F
100
AcDbEntity
  8
0
100
AcDbLine
 62
7
  6
BYLAYER
 10
29.5095853879
 20
31.2461755156
 11
24.5244145028
 21
28.3680029435
  0
LWPOLYLINE
  5
240
100
AcDbEntity
  8
0
100
AcDbPolyline
 62
7
  6
BYLAYER
 90
4
 70
0
 10
42.9445936226
 20
37.737340745
 10
41.8125796828
 20
37.1674911034
 10
39.1999378677
 20
36.3195925904
 10
36.2925064266
 20
35.9105956201
  0
LINE
  5
241
100
AcDbEntity
  8
0
100
AcDbLine
 62
7
  6
BYLAYER
 10
17.9838278781
 20
23.1221088631
 11
18.1252124312
 21
23.2037367857
  0
LINE
  5
242
100
AcDbEntity
  8
0
100
AcDbLine
 62
7
  6
BYLAYER
 10
29.8885211922
 20
29.831948064
 11
24.5244145028
 21
26.7349981092
  0
LINE
  5
243
100
AcDbEntity
  8
0
100
AcDbLine
 62
7
  6
BYLAYER
 10
41.1663866459
 20
47.7393803604
 11
41.1663866459
 21
46.9228779432
  0
LWPOLYLINE
  5
244
100
AcDbEntity
  8
0
100
AcDbPolyline
 62
7
  6
BYLAYER
 90
5
 70
0
 10
43.5062489462
 20
44.4777807215
 10
43.6447378698
 20
45.4357472471
 10
43.1313257334
 20
46.7993621293
 10
41.9727955054
 20
48.0252473764
 10
40.9038181992
 20
48.6427832463
  0
LINE
  5
245
100
AcDbEntity
  8
0
100
AcDbLine
 62
7
  6
BYLAYER
 10
40.9532354154
 20
46.0698984549
 11
41.0669475346
 21
45.7137993509
  0
LINE
  5
246
100
AcDbEntity
  8
0
100
AcDbLine
 62
7
  6
BYLAYER
 10
39.0555573366
 20
50.392916919
 11
39.4091183085
 21
50.1887825605
  0
LINE
  5
247
100
AcDbEntity
  8
0
100
AcDbLine
 62
7
  6
BYLAYER
 10
46.1663866459
 20
46.3105011304
 11
46.1663866459
 21
42.2279890447
  0
ARC
  5
248
100
AcDbEntity
  8
0
100
AcDbCircle
 62
7
  6
BYLAYER
 10
33.2999502956
 20
41.3735888824
 40
8.2919704908
100
AcDbArc
 50
118.0272294381
 51
119.9841320992
  0
SPLINE
  5
249
100
AcDbEntity
  8
0
100
AcDbSpline
 62
7
  6
BYLAYER
 70
0
 71
3
 72
23
 73
19
 74
0
 42
0.0000001
 43
0.0000001
 44
0.0000000001
 40
0.0
 40
0.0
 40
0.0
 40
0.0
 40
0.0558380341
 40
0.1141784096
 40
0.1747815757
 40
0.2373517359
 40
0.3015468581
 40
0.3669904294
 40
0.4332805689
 40
0.49999796
 40
0.5667155124
 40
0.6330059265
 40
0.6984494795
 40
0.762645653
 40
0.8252164739
 40
0.8858172111
 40
0.9441685836
 40
1.0
 40
1.0
 40
1.0
 40
1.0
 10
39.0555551722
 20
50.3929156695
 30
0.0
 10
38.9252560054
 20
50.4681460176
 30
0.0
 10
38.6520394709
 20
50.6104621976
 30
0.0
 10
38.2184549253
 20
50.795341088
 30
0.0
 10
37.7556940268
 20
50.9548688737
 30
0.0
 10
37.26819742
 20
51.0875014385
 30
0.0
 10
36.7606051439
 20
51.1919971811
 30
0.0
 10
36.2377677085
 20
51.2673652721
 30
0.0
 10
35.7046796001
 20
51.3128735831
 30
0.0
 10
35.16644066
 20
51.3280902952
 30
0.0
 10
34.6282007954
 20
51.3128797309
 30
0.0
 10
34.0951110667
 20
51.2673776061
 30
0.0
 10
33.5722689441
 20
51.1920172632
 30
0.0
 10
33.0646713321
 20
51.0875240493
 30
0.0
 10
32.5771756431
 20
50.9548970343
 30
0.0
 10
32.1143845765
 20
50.7953791122
 30
0.0
 10
31.6808008723
 20
50.61048472
 30
0.0
 10
31.4075679807
 20
50.4681752474
 30
0.0
 10
31.2772831576
 20
50.3929557188
 30
0.0
  0
SPLINE
  5
24A
100
AcDbEntity
  8
0
100
AcDbSpline
 62
7
  6
BYLAYER
 70
0
 71
3
 72
16
 73
12
 74
0
 42
0.0000001
 43
0.0000001
 44
0.0000000001
 40
0.0
 40
0.0
 40
0.0
 40
0.0
 40
0.05391985
 40
0.1080981475
 40
0.2181359638
 40
0.3320616993
 40
0.4514090161
 40
0.5773162477
 40
0.7105187188
 40
0.8514287221
 40
1.0
 40
1.0
 40
1.0
 40
1.0
 10
41.1663782992
 20
46.9228779424
 30
0.0
 10
41.1663784366
 20
46.8661696275
 30
0.0
 10
41.16153476
 20
46.7524160276
 30
0.0
 10
41.1323741229
 20
46.5246387831
 30
0.0
 10
41.0586173021
 20
46.2400737423
 30
0.0
 10
40.9132795287
 20
45.9080668668
 30
0.0
 10
40.712503984
 20
45.5866463455
 30
0.0
 10
40.4585512411
 20
45.2788364108
 30
0.0
 10
40.1540068372
 20
44.9873261254
 30
0.0
 10
39.8019104025
 20
44.7148030997
 30
0.0
 10
39.5443656876
 20
44.551560387
 30
0.0
 10
39.4090449968
 20
44.4734334161
 30
0.0
  0
SPLINE
  5
24B
100
AcDbEntity
  8
0
100
AcDbSpline
 62
7
  6
BYLAYER
 70
0
 71
3
 72
16
 73
12
 74
0
 42
0.0000001
 43
0.0000001
 44
0.0000000001
 40
0.0
 40
0.0
 40
0.0
 40
0.0
 40
0.0539202689
 40
0.1080988704
 40
0.2181373732
 40
0.3320645623
 40
0.4514107583
 40
0.5773181785
 40
0.7105289219
 40
0.8514093407
 40
1.0
 40
1.0
 40
1.0
 40
1.0
 10
41.1663802279
 20
47.7393803604
 30
0.0
 10
41.1663802145
 20
47.7960876168
 30
0.0
 10
41.1615364361
 20
47.9098389401
 30
0.0
 10
41.1323777437
 20
48.1376117738
 30
0.0
 10
41.0586233082
 20
48.4221722426
 30
0.0
 10
40.9132881679
 20
48.7541707708
 30
0.0
 10
40.7125252628
 20
49.075587605
 30
0.0
 10
40.4585772958
 20
49.3833988868
 30
0.0
 10
40.154050173
 20
49.6748779461
 30
0.0
 10
39.8019852901
 20
49.9474185559
 30
0.0
 10
39.5444519021
 20
50.110645433
 30
0.0
 10
39.4091183085
 20
50.1887825605
 30
0.0
  0
SPLINE
  5
24C
100
AcDbEntity
  8
0
100
AcDbSpline
 62
7
  6
BYLAYER
 70
0
 71
3
 72
32
 73
28
 74
0
 42
0.0000001
 43
0.0000001
 44
0.0000000001
 40
0.0
 40
0.0
 40
0.0
 40
0.0
 40
0.0306612898
 40
0.0623959827
 40
0.0951156321
 40
0.1287405804
 40
0.1631829066
 40
0.1983362425
 40
0.2702949118
 40
0.3436544086
 40
0.4173682193
 40
0.4903748789
 40
0.5616440818
 40
0.6302247753
 40
0.6952967002
 40
0.7263247817
 40
0.756259128
 40
0.7850630227
 40
0.8127199445
 40
0.8392390972
 40
0.8646556435
 40
0.8890365474
 40
0.9124799114
 40
0.9351189771
 40
0.9571185539
 40
0.9786735092
 40
1.0
 40
1.0
 40
1.0
 40
1.0
 10
39.4090449968
 20
44.4734334161
 30
0.0
 10
39.3030671049
 20
44.4122474169
 30
0.0
 10
39.0833085422
 20
44.2947108814
 30
0.0
 10
38.7383888538
 20
44.1356912269
 30
0.0
 10
38.3741575188
 20
43.9917578767
 30
0.0
 10
37.9926640024
 20
43.863666044
 30
0.0
 10
37.5959159364
 20
43.7521092198
 30
0.0
 10
37.0452141204
 20
43.6252059018
 30
0.0
 10
36.3327788875
 20
43.5122526818
 30
0.0
 10
35.4597501873
 20
43.4505329872
 30
0.0
 10
34.5804149685
 20
43.4629060472
 30
0.0
 10
33.7135986456
 20
43.5491048713
 30
0.0
 10
32.8777294497
 20
43.7073053327
 30
0.0
 10
32.0906611456
 20
43.9341344561
 30
0.0
 10
31.4796635536
 20
44.1802708209
 30
0.0
 10
31.0311652898
 20
44.4086258687
 30
0.0
 10
30.7223960224
 20
44.5908307769
 30
0.0
 10
30.4375738761
 20
44.7856710391
 30
0.0
 10
30.1782438844
 20
44.9921601648
 30
0.0
 10
29.9457874719
 20
45.209186469
 30
0.0
 10
29.7415047977
 20
45.435658246
 30
0.0
 10
29.566495328
 20
45.6703655861
 30
0.0
 10
29.4218074427
 20
45.9121227823
 30
0.0
 10
29.3082538793
 20
46.1596151498
 30
0.0
 10
29.226613961
 20
46.4115444076
 30
0.0
 10
29.1773682485
 20
46.6664188496
 30
0.0
 10
29.1663951989
 20
46.8377615968
 30
0.0
 10
29.1663949927
 20
46.922877944
 30
0.0
  0
SPLINE
  5
24D
100
AcDbEntity
  8
0
100
AcDbSpline
 62
7
  6
BYLAYER
 70
0
 71
3
 72
16
 73
12
 74
0
 42
0.0000001
 43
0.0000001
 44
0.0000000001
 40
0.0
 40
0.0
 40
0.0
 40
0.0
 40
0.1485711791
 40
0.2894803597
 40
0.4226823394
 40
0.5485894866
 40
0.6679371145
 40
0.7818634534
 40
0.8919015512
 40
0.9460799692
 40
1.0
 40
1.0
 40
1.0
 40
1.0
 10
30.9237282951
 20
50.1888248875
 30
0.0
 10
30.7884076528
 20
50.1106979446
 30
0.0
 10
30.5308635431
 20
49.9474559231
 30
0.0
 10
30.1787681302
 20
49.6749337546
 30
0.0
 10
29.8742245785
 20
49.3834246162
 30
0.0
 10
29.620270549
 20
49.075615916
 30
0.0
 10
29.4194946081
 20
48.7541944282
 30
0.0
 10
29.2741554732
 20
48.4221867441
 30
0.0
 10
29.2003972606
 20
48.1376207952
 30
0.0
 10
29.1712369852
 20
47.9098428103
 30
0.0
 10
29.1663930506
 20
47.7960888828
 30
0.0
 10
29.166393064
 20
47.7393803604
 30
0.0
  0
SPLINE
  5
24E
100
AcDbEntity
  8
0
100
AcDbSpline
 62
7
  6
BYLAYER
 70
0
 71
3
 72
16
 73
12
 74
0
 42
0.0000001
 43
0.0000001
 44
0.0000000001
 40
0.0
 40
0.0
 40
0.0
 40
0.0
 40
0.1485711791
 40
0.2894803597
 40
0.4226823394
 40
0.5485894866
 40
0.6679371145
 40
0.7818634534
 40
0.8919015512
 40
0.9460799692
 40
1.0
 40
1.0
 40
1.0
 40
1.0
 10
39.4090449968
 20
45.2899358332
 30
0.0
 10
39.5443656391
 20
45.3680627761
 30
0.0
 10
39.8019097487
 20
45.5313047976
 30
0.0
 10
40.1540051617
 20
45.8038269661
 30
0.0
 10
40.4585487134
 20
46.0953361045
 30
0.0
 10
40.7125027429
 20
46.4031448047
 30
0.0
 10
40.9132786837
 20
46.7245662925
 30
0.0
 10
41.0586178187
 20
47.0565739766
 30
0.0
 10
41.1323760313
 20
47.3411399255
 30
0.0
 10
41.1615363067
 20
47.5689179104
 30
0.0
 10
41.1663802413
 20
47.6826718379
 30
0.0
 10
41.1663802279
 20
47.7393803604
 30
0.0
  0
SPLINE
  5
24F
100
AcDbEntity
  8
0
100
AcDbSpline
 62
7
  6
BYLAYER
 70
0
 71
3
 72
9
 73
5
 74
0
 42
0.0000001
 43
0.0000001
 44
0.0000000001
 40
0.0
 40
0.0
 40
0.0
 40
0.0
 40
0.2546623863
 40
1.0
 40
1.0
 40
1.0
 40
1.0
 10
31.2772831576
 20
50.3929557188
 30
0.0
 10
31.2459687873
 20
50.3748764666
 30
0.0
 10
31.1237548802
 20
50.3025956113
 30
0.0
 10
31.0046065305
 20
50.2251007022
 30
0.0
 10
30.9179963505
 20
50.1642875061
 30
0.0
  0
SPLINE
  5
250
100
AcDbEntity
  8
0
100
AcDbSpline
 62
7
  6
BYLAYER
 70
0
 71
3
 72
39
 73
35
 74
0
 42
0.0000001
 43
0.0000001
 44
0.0000000001
 40
0.0
 40
0.0
 40
0.0
 40
0.0
 40
0.0294208003
 40
0.0572822254
 40
0.0836615457
 40
0.1086966421
 40
0.1326006392
 40
0.1556631076
 40
0.1782372301
 40
0.2007169944
 40
0.2235048087
 40
0.2469763316
 40
0.2714526247
 40
0.2971837706
 40
0.3243427705
 40
0.3530297329
 40
0.383279122
 40
0.4150672601
 40
0.4483225125
 40
0.4829328864
 40
0.5187520164
 40
0.555606805
 40
0.5933024774
 40
0.6316270959
 40
0.6703572008
 40
0.7092616806
 40
0.7481062087
 40
0.7866576113
 40
0.8246877403
 40
0.8619794706
 40
0.898327913
 40
0.9335473502
 40
0.967487623
 40
1.0
 40
1.0
 40
1.0
 40
1.0
 10
30.9179963505
 20
50.1642875061
 30
0.0
 10
30.8101114502
 20
50.0885363
 30
0.0
 10
30.6064270823
 20
49.9316196129
 30
0.0
 10
30.3335973558
 20
49.6735584702
 30
0.0
 10
30.1041426403
 20
49.4013023232
 30
0.0
 10
29.9202600358
 20
49.1171498622
 30
0.0
 10
29.7838574964
 20
48.8235298094
 30
0.0
 10
29.6965260779
 20
48.5230973026
 30
0.0
 10
29.6593695532
 20
48.2187798941
 30
0.0
 10
29.6729066539
 20
47.9137131577
 30
0.0
 10
29.7369725055
 20
47.6110925506
 30
0.0
 10
29.850674707
 20
47.3139528245
 30
0.0
 10
30.0126335407
 20
47.0250655639
 30
0.0
 10
30.2211124462
 20
46.7469769886
 30
0.0
 10
30.4740250472
 20
46.4820252065
 30
0.0
 10
30.7690106673
 20
46.2324308288
 30
0.0
 10
31.1034060732
 20
46.0003216388
 30
0.0
 10
31.4742027216
 20
45.7876683017
 30
0.0
 10
31.8780947701
 20
45.596315954
 30
0.0
 10
32.3114855147
 20
45.4279598931
 30
0.0
 10
32.7704950457
 20
45.2840713052
 30
0.0
 10
33.2510162131
 20
45.1659302606
 30
0.0
 10
33.7487451719
 20
45.0746082243
 30
0.0
 10
34.2592117222
 20
45.0109069798
 30
0.0
 10
34.777831427
 20
44.9753977055
 30
0.0
 10
35.2999446932
 20
44.9684154942
 30
0.0
 10
35.8208574887
 20
44.9900085693
 30
0.0
 10
36.3358876125
 20
45.0399806476
 30
0.0
 10
36.8404085853
 20
45.1178984422
 30
0.0
 10
37.3298892491
 20
45.2230555877
 30
0.0
 10
37.7999332364
 20
45.3544970979
 30
0.0
 10
38.2463710422
 20
45.5110792351
 30
0.0
 10
38.6651165139
 20
45.6913999649
 30
0.0
 10
38.929331238
 20
45.8294699812
 30
0.0
 10
39.0554901342
 20
45.9023074191
 30
0.0
  0
SPLINE
  5
251
100
AcDbEntity
  8
0
100
AcDbSpline
 62
7
  6
BYLAYER
 70
0
 71
3
 72
24
 73
20
 74
0
 42
0.0000001
 43
0.0000001
 44
0.0000000001
 40
0.0
 40
0.0
 40
0.0
 40
0.0
 40
0.0753142802
 40
0.1469917362
 40
0.2149889039
 40
0.2476656579
 40
0.2794947159
 40
0.3407526785
 40
0.3992463879
 40
0.4556066916
 40
0.5106128141
 40
0.5651477851
 40
0.6201339381
 40
0.6764563506
 40
0.7348970385
 40
0.7960885501
 40
0.8604958827
 40
0.9284186764
 40
1.0
 40
1.0
 40
1.0
 40
1.0
 10
39.0554901342
 20
45.9023074191
 30
0.0
 10
39.172270918
 20
45.9697304336
 30
0.0
 10
39.3952031632
 20
46.1102890606
 30
0.0
 10
39.7020112328
 20
46.3435818985
 30
0.0
 10
39.9287920914
 20
46.5537509776
 30
0.0
 10
40.0890321267
 20
46.7288550589
 30
0.0
 10
40.2313817193
 20
46.9034525753
 30
0.0
 10
40.3839169386
 20
47.1288641222
 30
0.0
 10
40.5248679837
 20
47.4120492515
 30
0.0
 10
40.6199457375
 20
47.7021405972
 30
0.0
 10
40.6680616231
 20
47.9965095903
 30
0.0
 10
40.6685763416
 20
48.2923616846
 30
0.0
 10
40.6214855273
 20
48.5867936731
 30
0.0
 10
40.5274145215
 20
48.8770033583
 30
0.0
 10
40.3874295856
 20
49.160372874
 30
0.0
 10
40.2030210766
 20
49.4345168047
 30
0.0
 10
39.9759526671
 20
49.6972400686
 30
0.0
 10
39.7082632298
 20
49.9464140232
 30
0.0
 10
39.509420466
 20
50.0982607103
 30
0.0
 10
39.40432219
 20
50.1716098382
 30
0.0
  0
SPLINE
  5
252
100
AcDbEntity
  8
0
100
AcDbSpline
 62
7
  6
BYLAYER
 70
0
 71
3
 72
9
 73
5
 74
0
 42
0.0000001
 43
0.0000001
 44
0.0000000001
 40
0.0
 40
0.0
 40
0.0
 40
0.0
 40
0.2454050098
 40
1.0
 40
1.0
 40
1.0
 40
1.0
 10
39.40432219
 20
50.1716098382
 30
0.0
 10
39.3766094759
 20
50.1909508159
 30
0.0
 10
39.2627927538
 20
50.2684828423
 30
0.0
 10
39.1455472087
 20
50.3409573003
 30
0.0
 10
39.0555551722
 20
50.3929156695
 30
0.0
  0
SPLINE
  5
253
100
AcDbEntity
  8
0
100
AcDbSpline
 62
7
  6
BYLAYER
 70
0
 71
3
 72
31
 73
27
 74
0
 42
0.0000001
 43
0.0000001
 44
0.0000000001
 40
0.0
 40
0.0
 40
0.0
 40
0.0
 40
0.0213533861
 40
0.0428950039
 40
0.0648046748
 40
0.0872475381
 40
0.1103676189
 40
0.1342858515
 40
0.1590975917
 40
0.1848735118
 40
0.2116605499
 40
0.2394831311
 40
0.2683464245
 40
0.298236407
 40
0.3291244849
 40
0.3609662434
 40
0.3937065783
 40
0.4272777928
 40
0.4965847671
 40
0.5682054495
 40
0.6413479449
 40
0.7151636952
 40
0.7887799601
 40
0.8613307472
 40
0.9319905025
 40
1.0
 40
1.0
 40
1.0
 40
1.0
 10
29.166393064
 20
47.7393803604
 30
0.0
 10
29.1663930822
 20
47.662271381
 30
0.0
 10
29.175379276
 20
47.5072256756
 30
0.0
 10
29.2157534937
 20
47.2762328332
 30
0.0
 10
29.2827479398
 20
47.0474040619
 30
0.0
 10
29.3760617555
 20
46.821852596
 30
0.0
 10
29.4951654942
 20
46.6005611555
 30
0.0
 10
29.6395096282
 20
46.3845234093
 30
0.0
 10
29.8083851525
 20
46.1746588999
 30
0.0
 10
30.001026712
 20
45.9718780067
 30
0.0
 10
30.2165593089
 20
45.7770500404
 30
0.0
 10
30.4540148797
 20
45.5910043842
 30
0.0
 10
30.7123489538
 20
45.4145613349
 30
0.0
 10
30.9904037093
 20
45.2484603054
 30
0.0
 10
31.2869666778
 20
45.093457695
 30
0.0
 10
31.6007086955
 20
44.9501933164
 30
0.0
 10
31.930265057
 20
44.8193339048
 30
0.0
 10
32.3936679005
 20
44.6604489605
 30
0.0
 10
33.0032432277
 20
44.4973415231
 30
0.0
 10
33.7649243896
 20
44.3606476653
 30
0.0
 10
34.5512515085
 20
44.2833156431
 30
0.0
 10
35.348374099
 20
44.2667062078
 30
0.0
 10
36.1422958623
 20
44.311109593
 30
0.0
 10
36.9191005057
 20
44.4157487003
 30
0.0
 10
37.665059406
 20
44.5787761396
 30
0.0
 10
38.1439591228
 20
44.7278582492
 30
0.0
 10
38.3746364662
 20
44.8121292584
 30
0.0
  0
SPLINE
  5
254
100
AcDbEntity
  8
0
100
AcDbSpline
 62
7
  6
BYLAYER
 70
0
 71
3
 72
9
 73
5
 74
0
 42
0.0000001
 43
0.0000001
 44
0.0000000001
 40
0.0
 40
0.0
 40
0.0
 40
0.0
 40
0.5121950964
 40
1.0
 40
1.0
 40
1.0
 40
1.0
 10
38.3746364662
 20
44.8121292584
 30
0.0
 10
38.557532353
 20
44.8789447538
 30
0.0
 10
38.9097622395
 20
45.0232069467
 30
0.0
 10
39.2484437949
 20
45.1972132395
 30
0.0
 10
39.4090449968
 20
45.2899358332
 30
0.0
  0
SPLINE
  5
255
100
AcDbEntity
  8
0
100
AcDbSpline
 62
7
  6
BYLAYER
 70
0
 71
3
 72
18
 73
14
 74
0
 42
0.0000001
 43
0.0000001
 44
0.0000000001
 40
0.0
 40
0.0
 40
0.0
 40
0.0
 40
0.148549876
 40
0.2894292718
 40
0.422608555
 40
0.5484954934
 40
0.6678211882
 40
0.7254046723
 40
0.7818096008
 40
0.8372403899
 40
0.8919202943
 40
0.946089243
 40
1.0
 40
1.0
 40
1.0
 40
1.0
 10
27.3881796693
 20
50.8011494301
 30
0.0
 10
27.1400843225
 20
50.6579123698
 30
0.0
 10
26.667917545
 20
50.3586400418
 30
0.0
 10
26.022417142
 20
49.8590147092
 30
0.0
 10
25.4640893082
 20
49.3245631572
 30
0.0
 10
24.9985180958
 20
48.7603205195
 30
0.0
 10
24.6880930367
 20
48.2632738354
 30
0.0
 10
24.4931095529
 20
47.857368091
 30
0.0
 10
24.3743360981
 20
47.5526371076
 30
0.0
 10
24.2816185088
 20
47.2448346069
 30
0.0
 10
24.2151902502
 20
46.9346918788
 30
0.0
 10
24.1752887159
 20
46.6230034784
 30
0.0
 10
24.1663984959
 20
46.4144669178
 30
0.0
 10
24.1663950296
 20
46.3105011236
 30
0.0
  0
SPLINE
  5
256
100
AcDbEntity
  8
0
100
AcDbSpline
 62
7
  6
BYLAYER
 70
0
 71
3
 72
29
 73
25
 74
0
 42
0.0000001
 43
0.0000001
 44
0.0000000001
 40
0.0
 40
0.0
 40
0.0
 40
0.0
 40
0.0295880047
 40
0.0601167258
 40
0.1237048024
 40
0.1902560253
 40
0.259122469
 40
0.3295605251
 40
0.4007705053
 40
0.4719241263
 40
0.542195627
 40
0.6107907596
 40
0.676977579
 40
0.7401194437
 40
0.7703952731
 40
0.7997348003
 40
0.8281027303
 40
0.8554790374
 40
0.8818582908
 40
0.9072546662
 40
0.9317003403
 40
0.9552509474
 40
0.9779834563
 40
1.0
 40
1.0
 40
1.0
 40
1.0
 10
41.5303741723
 20
42.6363343397
 30
0.0
 10
41.3877163085
 20
42.5539712753
 30
0.0
 10
41.0929263846
 20
42.3950447005
 30
0.0
 10
40.4698392712
 20
42.1010455592
 30
0.0
 10
39.6325381103
 20
41.7819742699
 30
0.0
 10
38.5643899762
 20
41.482724334
 30
0.0
 10
37.4374954376
 20
41.2669990162
 30
0.0
 10
36.2713588572
 20
41.1385434387
 30
0.0
 10
35.0861081876
 20
41.0995523722
 30
0.0
 10
33.902245628
 20
41.1507097392
 30
0.0
 10
32.7402517842
 20
41.2911251081
 30
0.0
 10
31.6201695343
 20
41.5183871364
 30
0.0
 10
30.5613947703
 20
41.8285723662
 30
0.0
 10
29.733786482
 20
42.1563075489
 30
0.0
 10
29.1196355475
 20
42.4567816874
 30
0.0
 10
28.6918043443
 20
42.6958611825
 30
0.0
 10
28.2922285293
 20
42.9507971853
 30
0.0
 10
27.9226073472
 20
43.220453022
 30
0.0
 10
27.5845987838
 20
43.5037400209
 30
0.0
 10
27.2796313541
 20
43.7993904709
 30
0.0
 10
27.0091153891
 20
44.1062171624
 30
0.0
 10
26.7741945793
 20
44.4228752953
 30
0.0
 10
26.5760291374
 20
44.7480236084
 30
0.0
 10
26.4674307002
 20
44.9727949685
 30
0.0
 10
26.4199543979
 20
45.085800961
 30
0.0
  0
SPLINE
  5
257
100
AcDbEntity
  8
0
100
AcDbSpline
 62
7
  6
BYLAYER
 70
0
 71
3
 72
33
 73
29
 74
0
 42
0.0000001
 43
0.0000001
 44
0.0000000001
 40
0.0
 40
0.0
 40
0.0
 40
0.0
 40
0.0213260117
 40
0.0428804028
 40
0.064879601
 40
0.0875179173
 40
0.1109610469
 40
0.1353410903
 40
0.1607574878
 40
0.1872757182
 40
0.2149324068
 40
0.2437353396
 40
0.2736692616
 40
0.3046963678
 40
0.3367610345
 40
0.3697909309
 40
0.4383698936
 40
0.5096372161
 40
0.5826418408
 40
0.6563535605
 40
0.7297110841
 40
0.8016680325
 40
0.8368205223
 40
0.8712623503
 40
0.9048869169
 40
0.9376049993
 40
0.9693382895
 40
1.0
 40
1.0
 40
1.0
 40
1.0
 10
46.1663782623
 20
46.3105011372
 30
0.0
 10
46.1663834651
 20
46.4665480598
 30
0.0
 10
46.1462312105
 20
46.7806733327
 30
0.0
 10
46.0559942907
 20
47.2479533567
 30
0.0
 10
45.9062744501
 20
47.7098081393
 30
0.0
 10
45.6981386412
 20
48.1635670179
 30
0.0
 10
45.4328331479
 20
48.6067615685
 30
0.0
 10
45.1120212469
 20
49.037091252
 30
0.0
 10
44.7374667053
 20
49.4522570916
 30
0.0
 10
44.3113232078
 20
49.8501728797
 30
0.0
 10
43.8358611606
 20
50.2287054923
 30
0.0
 10
43.3137003576
 20
50.5859415775
 30
0.0
 10
42.7476185147
 20
50.9199535054
 30
0.0
 10
42.1406841872
 20
51.22901402
 30
0.0
 10
41.4961340078
 20
51.5114689473
 30
0.0
 10
40.5798380261
 20
51.8548330749
 30
0.0
 10
39.3621641527
 20
52.2057381975
 30
0.0
 10
37.8298532127
 20
52.4957442328
 30
0.0
 10
36.2406636434
 20
52.6537813024
 30
0.0
 10
34.6285633038
 20
52.6764630993
 30
0.0
 10
33.0280112234
 20
52.5633139567
 30
0.0
 10
31.7218829573
 20
52.3562285778
 30
0.0
 10
30.7122566176
 20
52.1235865933
 30
0.0
 10
29.9848829451
 20
51.9190524126
 30
0.0
 10
29.2854761186
 20
51.6842237891
 30
0.0
 10
28.6177260697
 20
51.4203465626
 30
0.0
 10
27.9853718987
 20
51.1288176414
 30
0.0
 10
27.5824798586
 20
50.9133280271
 30
0.0
 10
27.3881796693
 20
50.8011494301
 30
0.0
  0
SPLINE
  5
258
100
AcDbEntity
  8
0
100
AcDbSpline
 62
7
  6
BYLAYER
 70
0
 71
3
 72
18
 73
14
 74
0
 42
0.0000001
 43
0.0000001
 44
0.0000000001
 40
0.0
 40
0.0
 40
0.0
 40
0.0
 40
0.053910546
 40
0.1080792985
 40
0.1627590376
 40
0.2181896687
 40
0.2745944954
 40
0.3321779242
 40
0.4515036544
 40
0.5773906687
 40
0.7105701712
 40
0.8514500681
 40
1.0
 40
1.0
 40
1.0
 40
1.0
 10
46.1663779819
 20
42.2279890499
 30
0.0
 10
46.1663745552
 20
42.1240236659
 30
0.0
 10
46.1574847507
 20
41.915487883
 30
0.0
 10
46.1175832819
 20
41.6038005734
 30
0.0
 10
46.0511550359
 20
41.2936589104
 30
0.0
 10
45.9584387418
 20
40.985856882
 30
0.0
 10
45.8396652309
 20
40.681126569
 30
0.0
 10
45.644682497
 20
40.2752207583
 30
0.0
 10
45.3342575686
 20
39.7781738786
 30
0.0
 10
44.8686870406
 20
39.2139298955
 30
0.0
 10
44.3103581661
 20
38.6794771661
 30
0.0
 10
43.664856576
 20
38.1798509882
 30
0.0
 10
43.1926890548
 20
37.8805778546
 30
0.0
 10
42.9445936226
 20
37.737340745
 30
0.0
  0
SPLINE
  5
259
100
AcDbEntity
  8
0
100
AcDbSpline
 62
7
  6
BYLAYER
 70
0
 71
3
 72
15
 73
11
 74
0
 42
0.0000001
 43
0.0000001
 44
0.0000000001
 40
0.0
 40
0.0
 40
0.0
 40
0.0
 40
0.1094267571
 40
0.222552051
 40
0.339910042
 40
0.4618918128
 40
0.5887799683
 40
0.7207579791
 40
0.8578822012
 40
1.0
 40
1.0
 40
1.0
 40
1.0
 10
43.9128212645
 20
45.0858006264
 30
0.0
 10
43.8637178499
 20
44.9689197706
 30
0.0
 10
43.7508957858
 20
44.7364648931
 30
0.0
 10
43.5440035683
 20
44.4007055844
 30
0.0
 10
43.2979171861
 20
44.0741351487
 30
0.0
 10
43.0139319316
 20
43.7582384045
 30
0.0
 10
42.6933254899
 20
43.4544608315
 30
0.0
 10
42.3376124913
 20
43.1641153098
 30
0.0
 10
41.948508519
 20
42.888636661
 30
0.0
 10
41.672966108
 20
42.7186593408
 30
0.0
 10
41.5303741723
 20
42.6363343397
 30
0.0
  0
SPLINE
  5
25A
100
AcDbEntity
  8
0
100
AcDbSpline
 62
7
  6
BYLAYER
 70
0
 71
3
 72
18
 73
14
 74
0
 42
0.0000001
 43
0.0000001
 44
0.0000000001
 40
0.0
 40
0.0
 40
0.0
 40
0.0
 40
0.148549876
 40
0.2894292718
 40
0.422608555
 40
0.5484954934
 40
0.6678211882
 40
0.7254046723
 40
0.7818096008
 40
0.8372403899
 40
0.8919202943
 40
0.946089243
 40
1.0
 40
1.0
 40
1.0
 40
1.0
 10
42.9445936226
 20
41.8198528307
 30
0.0
 10
43.1926889694
 20
41.9630898909
 30
0.0
 10
43.6648557469
 20
42.262362219
 30
0.0
 10
44.3103561499
 20
42.7619875516
 30
0.0
 10
44.8686839837
 20
43.2964391036
 30
0.0
 10
45.3342551961
 20
43.8606817413
 30
0.0
 10
45.6446802552
 20
44.3577284254
 30
0.0
 10
45.8396637389
 20
44.7636341698
 30
0.0
 10
45.9584371938
 20
45.0683651532
 30
0.0
 10
46.0511547831
 20
45.3761676539
 30
0.0
 10
46.1175830417
 20
45.686310382
 30
0.0
 10
46.157484576
 20
45.9979987824
 30
0.0
 10
46.1663747959
 20
46.206535343
 30
0.0
 10
46.1663782623
 20
46.3105011372
 30
0.0
  0
SPLINE
  5
25B
100
AcDbEntity
  8
0
100
AcDbSpline
 62
7
  6
BYLAYER
 70
0
 71
3
 72
18
 73
14
 74
0
 42
0.0000001
 43
0.0000001
 44
0.0000000001
 40
0.0
 40
0.0
 40
0.0
 40
0.0
 40
0.1507534043
 40
0.2923952735
 40
0.4250342365
 40
0.5494135115
 40
0.6668497892
 40
0.7236165986
 40
0.7794352428
 40
0.834632422
 40
0.8895555229
 40
0.9445601693
 40
1.0
 40
1.0
 40
1.0
 40
1.0
 10
29.1559539822
 20
48.5557939181
 30
0.0
 10
28.9341616574
 20
48.4277428241
 30
0.0
 10
28.5154381658
 20
48.1585702675
 30
0.0
 10
27.9536770611
 20
47.7023672803
 30
0.0
 10
27.4844526251
 20
47.2111155805
 30
0.0
 10
27.1142309166
 20
46.6908586247
 30
0.0
 10
26.8902713133
 20
46.2326033928
 30
0.0
 10
26.7684039171
 20
45.8608069097
 30
0.0
 10
26.705375755
 20
45.5823707345
 30
0.0
 10
26.6700318981
 20
45.3022428221
 30
0.0
 10
26.6625060122
 20
45.0213618001
 30
0.0
 10
26.6827748594
 20
44.7407269367
 30
0.0
 10
26.7146396677
 20
44.5554740963
 30
0.0
 10
26.7350010026
 20
44.4635189409
 30
0.0
  0
SPLINE
  5
25C
100
AcDbEntity
  8
0
100
AcDbSpline
 62
7
  6
BYLAYER
 70
0
 71
3
 72
15
 73
11
 74
0
 42
0.0000001
 43
0.0000001
 44
0.0000000001
 40
0.0
 40
0.0
 40
0.0
 40
0.0
 40
0.1109755572
 40
0.2288623551
 40
0.3524663159
 40
0.4803311745
 40
0.6107970866
 40
0.7420949979
 40
0.8724172594
 40
1.0
 40
1.0
 40
1.0
 40
1.0
 10
39.4090449968
 20
42.6363029776
 30
0.0
 10
39.198630444
 20
42.514820804
 30
0.0
 10
38.7483549565
 20
42.2919496246
 30
0.0
 10
38.0226678481
 20
42.0259128193
 30
0.0
 10
37.2388400892
 20
41.8222744525
 30
0.0
 10
36.4129026697
 20
41.6851576203
 30
0.0
 10
35.5615682732
 20
41.6173407204
 30
0.0
 10
34.7021628744
 20
41.6201933803
 30
0.0
 10
33.8522868492
 20
41.6936535464
 30
0.0
 10
33.295072178
 20
41.7901701889
 30
0.0
 10
33.0223237662
 20
41.8504238229
 30
0.0
  0
SPLINE
  5
25D
100
AcDbEntity
  8
0
100
AcDbSpline
 62
7
  6
BYLAYER
 70
0
 71
3
 72
22
 73
18
 74
0
 42
0.0000001
 43
0.0000001
 44
0.0000000001
 40
0.0
 40
0.0
 40
0.0
 40
0.0
 40
0.1607221703
 40
0.2376571496
 40
0.3119023679
 40
0.383239219
 40
0.4515095646
 40
0.5166357265
 40
0.5786268314
 40
0.6375963598
 40
0.6937741199
 40
0.747513923
 40
0.7992999887
 40
0.8497314764
 40
0.8995006415
 40
0.9493461719
 40
1.0
 40
1.0
 40
1.0
 40
1.0
 10
33.0223237662
 20
41.8504238229
 30
0.0
 10
32.706252663
 20
41.9202479969
 30
0.0
 10
32.243644339
 20
42.0484637565
 30
0.0
 10
31.6559332808
 20
42.2711317046
 30
0.0
 10
31.2476972326
 20
42.4568619078
 30
0.0
 10
30.8687152201
 20
42.6622731222
 30
0.0
 10
30.5218064738
 20
42.8859424316
 30
0.0
 10
30.2095310744
 20
43.1262012601
 30
0.0
 10
29.9342476244
 20
43.381369084
 30
0.0
 10
29.6980393245
 20
43.6496224278
 30
0.0
 10
29.5027472289
 20
43.9290632683
 30
0.0
 10
29.3500164195
 20
44.2177128518
 30
0.0
 10
29.2411494166
 20
44.5134158858
 30
0.0
 10
29.1772879811
 20
44.8138981528
 30
0.0
 10
29.1590193183
 20
45.1166964081
 30
0.0
 10
29.18662966
 20
45.4191702014
 30
0.0
 10
29.2347930476
 20
45.6166186684
 30
0.0
 10
29.265829295
 20
45.7137989544
 30
0.0
  0
SPLINE
  5
25E
100
AcDbEntity
  8
0
100
AcDbSpline
 62
7
  6
BYLAYER
 70
0
 71
3
 72
18
 73
14
 74
0
 42
0.0000001
 43
0.0000001
 44
0.0000000001
 40
0.0
 40
0.0
 40
0.0
 40
0.0
 40
0.0564860476
 40
0.1121791668
 40
0.1674657924
 40
0.222746833
 40
0.2784230171
 40
0.3348805254
 40
0.4514173153
 40
0.574911309
 40
0.7070037536
 40
0.84864688
 40
1.0
 40
1.0
 40
1.0
 40
1.0
 10
41.0669412914
 20
45.7137986847
 30
0.0
 10
41.0886673924
 20
45.6457732642
 30
0.0
 10
41.1252426661
 20
45.5084616242
 30
0.0
 10
41.1586688487
 20
45.2990401118
 30
0.0
 10
41.1700655542
 20
45.0887681738
 30
0.0
 10
41.1593058839
 20
44.8784926409
 30
0.0
 10
41.1264997854
 20
44.6690103068
 30
0.0
 10
41.0528142409
 20
44.3890244639
 30
0.0
 10
40.903394407
 20
44.0425775437
 30
0.0
 10
40.6419989383
 20
43.6488946607
 30
0.0
 10
40.301258589
 20
43.2775423807
 30
0.0
 10
39.8865234312
 20
42.9336181561
 30
0.0
 10
39.574753377
 20
42.7319741844
 30
0.0
 10
39.4090449968
 20
42.6363029776
 30
0.0
  0
SPLINE
  5
25F
100
AcDbEntity
  8
0
100
AcDbSpline
 62
7
  6
BYLAYER
 70
0
 71
3
 72
36
 73
32
 74
0
 42
0.0000001
 43
0.0000001
 44
0.0000000001
 40
0.0
 40
0.0
 40
0.0
 40
0.0
 40
0.0316035296
 40
0.0644127465
 40
0.0983193455
 40
0.1332231331
 40
0.205505322
 40
0.2801585542
 40
0.3559248069
 40
0.4314843048
 40
0.4687861944
 40
0.5055512228
 40
0.5416290566
 40
0.5768800903
 40
0.6111761968
 40
0.6444052183
 40
0.6764728293
 40
0.7073062519
 40
0.736858728
 40
0.7651118384
 40
0.79208262
 40
0.8051062479
 40
0.8178334431
 40
0.8424457315
 40
0.8660707258
 40
0.888897562
 40
0.9111578075
 40
0.9331157969
 40
0.9550551777
 40
0.9772607408
 40
1.0
 40
1.0
 40
1.0
 40
1.0
 10
28.8023991196
 20
49.9846679211
 30
0.0
 10
28.9777301217
 20
50.0858947181
 30
0.0
 10
29.3425620526
 20
50.2794715535
 30
0.0
 10
29.9171974466
 20
50.5382629314
 30
0.0
 10
30.5261992321
 20
50.7693551985
 30
0.0
 10
31.3884717252
 20
51.0416593237
 30
0.0
 10
32.5263166241
 20
51.3015694569
 30
0.0
 10
33.9437482783
 20
51.4811588991
 30
0.0
 10
35.3927043286
 20
51.5274858035
 30
0.0
 10
36.6007672034
 20
51.4537136699
 30
0.0
 10
37.5511520496
 20
51.3267271245
 30
0.0
 10
38.245414337
 20
51.199083199
 30
0.0
 10
38.9195322714
 20
51.0394435611
 30
0.0
 10
39.5691357114
 20
50.8488996645
 30
0.0
 10
40.1899699483
 20
50.6286346586
 30
0.0
 10
40.7780037479
 20
50.3801178751
 30
0.0
 10
41.3294038103
 20
50.1049292221
 30
0.0
 10
41.8405785556
 20
49.8048319102
 30
0.0
 10
42.3082284744
 20
49.481758007
 30
0.0
 10
42.7292428919
 20
49.1377259569
 30
0.0
 10
43.0426027501
 20
48.8318614625
 30
0.0
 10
43.266355358
 20
48.5786994368
 30
0.0
 10
43.467535041
 20
48.3263318687
 30
0.0
 10
43.6866253455
 20
48.0019913244
 30
0.0
 10
43.8964916858
 20
47.5967780266
 30
0.0
 10
44.0488128266
 20
47.1824792339
 30
0.0
 10
44.1423424522
 20
46.7619202212
 30
0.0
 10
44.1761910062
 20
46.3380665014
 30
0.0
 10
44.150123238
 20
45.9139923809
 30
0.0
 10
44.0643112923
 20
45.4928882057
 30
0.0
 10
43.9692423074
 20
45.2200996326
 30
0.0
 10
43.9128212645
 20
45.0858006264
 30
0.0
  0
SPLINE
  5
260
100
AcDbEntity
  8
0
100
AcDbSpline
 62
7
  6
BYLAYER
 70
0
 71
3
 72
33
 73
29
 74
0
 42
0.0000001
 43
0.0000001
 44
0.0000000001
 40
0.0
 40
0.0
 40
0.0
 40
0.0
 40
0.0213260117
 40
0.0428804028
 40
0.064879601
 40
0.0875179173
 40
0.1109610469
 40
0.1353410903
 40
0.1607574878
 40
0.1872757182
 40
0.2149324068
 40
0.2437353396
 40
0.2736692616
 40
0.3046963678
 40
0.3367610345
 40
0.3697909309
 40
0.4383698936
 40
0.5096372161
 40
0.5826418408
 40
0.6563535605
 40
0.7297110841
 40
0.8016680325
 40
0.8368205223
 40
0.8712623503
 40
0.9048869169
 40
0.9376049993
 40
0.9693382895
 40
1.0
 40
1.0
 40
1.0
 40
1.0
 10
24.1663950296
 20
46.3105011236
 30
0.0
 10
24.1663898268
 20
46.154454201
 30
0.0
 10
24.1865420814
 20
45.8403289281
 30
0.0
 10
24.2767790012
 20
45.373048904
 30
0.0
 10
24.4264988418
 20
44.9111941215
 30
0.0
 10
24.6346346507
 20
44.4574352428
 30
0.0
 10
24.899940144
 20
44.0142406923
 30
0.0
 10
25.220752045
 20
43.5839110088
 30
0.0
 10
25.5953065866
 20
43.1687451691
 30
0.0
 10
26.0214500841
 20
42.7708293811
 30
0.0
 10
26.4969121313
 20
42.3922967684
 30
0.0
 10
27.0190729343
 20
42.0350606832
 30
0.0
 10
27.5851547772
 20
41.7010487554
 30
0.0
 10
28.1920891047
 20
41.3919882408
 30
0.0
 10
28.8366392841
 20
41.1095333135
 30
0.0
 10
29.7529352658
 20
40.7661691859
 30
0.0
 10
30.9706091392
 20
40.4152640633
 30
0.0
 10
32.5029200792
 20
40.125258028
 30
0.0
 10
34.0921096484
 20
39.9672209584
 30
0.0
 10
35.704209988
 20
39.9445391614
 30
0.0
 10
37.3047620685
 20
40.0576883041
 30
0.0
 10
38.6108903346
 20
40.264773683
 30
0.0
 10
39.6205166743
 20
40.4974156675
 30
0.0
 10
40.3478903467
 20
40.7019498481
 30
0.0
 10
41.0472971732
 20
40.9367784717
 30
0.0
 10
41.7150472221
 20
41.2006556981
 30
0.0
 10
42.3474013932
 20
41.4921846193
 30
0.0
 10
42.7502934332
 20
41.7076742337
 30
0.0
 10
42.9445936226
 20
41.8198528307
 30
0.0
  0
SPLINE
  5
261
100
AcDbEntity
  8
0
100
AcDbSpline
 62
7
  6
BYLAYER
 70
0
 71
3
 72
22
 73
18
 74
0
 42
0.0000001
 43
0.0000001
 44
0.0000000001
 40
0.0
 40
0.0
 40
0.0
 40
0.0
 40
0.0577239296
 40
0.1142753021
 40
0.1700628043
 40
0.2255253631
 40
0.2811144982
 40
0.3372773202
 40
0.3944366783
 40
0.4529801812
 40
0.5132455747
 40
0.5755184795
 40
0.6400216959
 40
0.706920381
 40
0.8482578288
 40
0.9228673337
 40
1.0
 40
1.0
 40
1.0
 40
1.0
 10
26.4199543979
 20
45.085800961
 30
0.0
 10
26.375296762
 20
45.1920977914
 30
0.0
 10
26.2972159363
 20
45.4070772461
 30
0.0
 10
26.2151162848
 20
45.7373230788
 30
0.0
 10
26.1698489372
 20
46.0701031358
 30
0.0
 10
26.1616859866
 20
46.4039281689
 30
0.0
 10
26.1906104322
 20
46.7373490382
 30
0.0
 10
26.2565543639
 20
47.0688941608
 30
0.0
 10
26.3590897944
 20
47.3971587379
 30
0.0
 10
26.4978155492
 20
47.7207303243
 30
0.0
 10
26.6720048261
 20
48.0383177266
 30
0.0
 10
26.8809470064
 20
48.3485948572
 30
0.0
 10
27.1236885707
 20
48.6503684234
 30
0.0
 10
27.4978365059
 20
49.0469464736
 30
0.0
 10
27.9305026321
 20
49.4135073779
 30
0.0
 10
28.4105378147
 20
49.7488742708
 30
0.0
 10
28.668976189
 20
49.907636616
 30
0.0
 10
28.8023991196
 20
49.9846679211
 30
0.0
  0
SPLINE
  5
262
100
AcDbEntity
  8
0
100
AcDbSpline
 62
7
  6
BYLAYER
 70
0
 71
3
 72
11
 73
7
 74
0
 42
0.0000001
 43
0.0000001
 44
0.0000000001
 40
0.0
 40
0.0
 40
0.0
 40
0.0
 40
0.2608180466
 40
0.5156960473
 40
0.7626639184
 40
1.0
 40
1.0
 40
1.0
 40
1.0
 10
12.3661375163
 20
30.8741572775
 30
0.0
 10
12.0762257602
 20
30.8402773784
 30
0.0
 10
11.505010337
 20
30.7544210096
 30
0.0
 10
10.6709891288
 20
30.5698657252
 30
0.0
 10
9.8776969615
 20
30.3327895348
 30
0.0
 10
9.3713559126
 20
30.1374772536
 30
0.0
 10
9.1279382939
 20
30.0312027506
 30
0.0
  0
SPLINE
  5
263
100
AcDbEntity
  8
0
100
AcDbSpline
 62
7
  6
BYLAYER
 70
0
 71
3
 72
12
 73
8
 74
0
 42
0.0000001
 43
0.0000001
 44
0.0000000001
 40
0.0
 40
0.0
 40
0.0
 40
0.0
 40
0.1134899924
 40
0.2309377977
 40
0.4763420101
 40
0.7337549567
 40
1.0
 40
1.0
 40
1.0
 40
1.0
 10
17.4533172514
 20
32.4504104887
 30
0.0
 10
17.2777188643
 20
32.3490293179
 30
0.0
 10
16.9136507936
 20
32.154219013
 30
0.0
 10
16.1406143296
 20
31.7973819548
 30
0.0
 10
15.0969174625
 20
31.4181546886
 30
0.0
 10
13.7638121673
 20
31.0777643163
 30
0.0
 10
12.8386004187
 20
30.9293706144
 30
0.0
 10
12.3661375163
 20
30.8741572775
 30
0.0
  0
SPLINE
  5
264
100
AcDbEntity
  8
0
100
AcDbSpline
 62
7
  6
BYLAYER
 70
0
 71
3
 72
15
 73
11
 74
0
 42
0.0000001
 43
0.0000001
 44
0.0000000001
 40
0.0
 40
0.0
 40
0.0
 40
0.0
 40
0.1437766861
 40
0.2811299814
 40
0.4122091583
 40
0.5375450338
 40
0.6579137166
 40
0.7742962736
 40
0.8878719887
 40
1.0
 40
1.0
 40
1.0
 40
1.0
 10
7.572309852
 20
29.1330656121
 30
0.0
 10
7.4451477019
 20
29.0359800534
 30
0.0
 10
7.2038958857
 20
28.8361525699
 30
0.0
 10
6.8774330854
 20
28.5130477538
 30
0.0
 10
6.5970609019
 20
28.1753311574
 30
0.0
 10
6.3647089529
 20
27.8252904773
 30
0.0
 10
6.182084172
 20
27.4650416357
 30
0.0
 10
6.0504389836
 20
27.0969329117
 30
0.0
 10
5.9710472513
 20
26.7234939209
 30
0.0
 10
5.9532778427
 20
26.4719986675
 30
0.0
 10
5.9532778387
 20
26.3472286724
 30
0.0
  0
SPLINE
  5
265
100
AcDbEntity
  8
0
100
AcDbSpline
 62
7
  6
BYLAYER
 70
0
 71
3
 72
25
 73
21
 74
0
 42
0.0000001
 43
0.0000001
 44
0.0000000001
 40
0.0
 40
0.0
 40
0.0
 40
0.0
 40
0.0623734645
 40
0.1287286825
 40
0.1983150471
 40
0.270293404
 40
0.3436699715
 40
0.4174008711
 40
0.4904261231
 40
0.5617139603
 40
0.6303116329
 40
0.6953988698
 40
0.7563464596
 40
0.8127840807
 40
0.8646840769
 40
0.9124582291
 40
0.9351032093
 40
0.9571080912
 40
0.9786683614
 40
1.0
 40
1.0
 40
1.0
 40
1.0
 10
16.1453116775
 20
25.0816823334
 30
0.0
 10
16.0339521528
 20
25.0173892656
 30
0.0
 10
15.7952502046
 20
24.899719238
 30
0.0
 10
15.4102363797
 20
24.7601803303
 30
0.0
 10
14.9941308308
 20
24.6545714068
 30
0.0
 10
14.5559177621
 20
24.5850683561
 30
0.0
 10
14.1048327959
 20
24.5531876543
 30
0.0
 10
13.6505199516
 20
24.5595867995
 30
0.0
 10
13.2026604843
 20
24.6041185534
 30
0.0
 10
12.770799147
 20
24.6858476668
 30
0.0
 10
12.3641199573
 20
24.8030590473
 30
0.0
 10
11.9912166423
 20
24.9532958055
 30
0.0
 10
11.6599205714
 20
25.1334757813
 30
0.0
 10
11.3771585736
 20
25.3400988257
 30
0.0
 10
11.1490004644
 20
25.5691775586
 30
0.0
 10
11.0061886445
 20
25.7793555105
 30
0.0
 10
10.9265773805
 20
25.9528716483
 30
0.0
 10
10.8843923677
 20
26.0830415966
 30
0.0
 10
10.8589687336
 20
26.2147269328
 30
0.0
 10
10.8532754744
 20
26.3032521952
 30
0.0
 10
10.8532753245
 20
26.3472286726
 30
0.0
  0
SPLINE
  5
266
100
AcDbEntity
  8
0
100
AcDbSpline
 62
7
  6
BYLAYER
 70
0
 71
3
 72
20
 73
16
 74
0
 42
0.0000001
 43
0.0000001
 44
0.0000000001
 40
0.0
 40
0.0
 40
0.0
 40
0.0
 40
0.1016554502
 40
0.1576565329
 40
0.216862843
 40
0.2789628907
 40
0.3435373857
 40
0.4100882821
 40
0.4780529267
 40
0.6157156678
 40
0.751624596
 40
0.8174394884
 40
0.8810715109
 40
0.9420753202
 40
1.0
 40
1.0
 40
1.0
 40
1.0
 10
16.7013040127
 20
25.5425052198
 30
0.0
 10
16.5816735166
 20
25.6747975983
 30
0.0
 10
16.3648873822
 20
25.8525528155
 30
0.0
 10
16.0364971615
 20
26.0451032336
 30
0.0
 10
15.7537641536
 20
26.1761745236
 30
0.0
 10
15.4467450134
 20
26.2872225199
 30
0.0
 10
15.1194467195
 20
26.3769168955
 30
0.0
 10
14.7763063201
 20
26.4439711727
 30
0.0
 10
14.3019904027
 20
26.5022613811
 30
0.0
 10
13.7009449873
 20
26.5141536117
 30
0.0
 10
13.1073038203
 20
26.4461724535
 30
0.0
 10
12.6528276129
 20
26.343382794
 30
0.0
 10
12.3331271015
 20
26.2448970536
 30
0.0
 10
12.0354866613
 20
26.1255448628
 30
0.0
 10
11.8492480075
 20
26.0305862965
 30
0.0
 10
11.7612313816
 20
25.9797701771
 30
0.0
  0
SPLINE
  5
267
100
AcDbEntity
  8
0
100
AcDbSpline
 62
7
  6
BYLAYER
 70
0
 71
3
 72
14
 73
10
 74
0
 42
0.0000001
 43
0.0000001
 44
0.0000000001
 40
0.0
 40
0.0
 40
0.0
 40
0.0
 40
0.1080574356
 40
0.2181531492
 40
0.3321481772
 40
0.4515528322
 40
0.7103677173
 40
0.8514076978
 40
1.0
 40
1.0
 40
1.0
 40
1.0
 10
17.0532677345
 20
26.3472286721
 30
0.0
 10
17.0532679344
 20
26.2885440017
 30
0.0
 10
17.0430570728
 20
26.169831689
 30
0.0
 10
16.9976007721
 20
25.994475908
 30
0.0
 10
16.9224710545
 20
25.8229077426
 30
0.0
 10
16.7804731042
 20
25.5955147706
 30
0.0
 10
16.5840171192
 20
25.3887985347
 30
0.0
 10
16.3482835783
 20
25.2064265046
 30
0.0
 10
16.2151988715
 20
25.1220314828
 30
0.0
 10
16.1453116775
 20
25.0816823334
 30
0.0
  0
SPLINE
  5
268
100
AcDbEntity
  8
0
100
AcDbSpline
 62
7
  6
BYLAYER
 70
0
 71
3
 72
15
 73
11
 74
0
 42
0.0000001
 43
0.0000001
 44
0.0000000001
 40
0.0
 40
0.0
 40
0.0
 40
0.0
 40
0.1437769978
 40
0.2811305178
 40
0.4122098211
 40
0.5375457235
 40
0.6579143373
 40
0.7742967403
 40
0.8878722387
 40
1.0
 40
1.0
 40
1.0
 40
1.0
 10
7.5723500314
 20
21.9283562226
 30
0.0
 10
7.4451848717
 20
22.0254423986
 30
0.0
 10
7.2039273013
 20
22.2252713049
 30
0.0
 10
6.8774565045
 20
22.548378976
 30
0.0
 10
6.5970773456
 20
22.8860989698
 30
0.0
 10
6.3647195366
 20
23.236143516
 30
0.0
 10
6.1820900908
 20
23.5963966171
 30
0.0
 10
6.0504415087
 20
23.9645099124
 30
0.0
 10
5.971047717
 20
24.3379536883
 30
0.0
 10
5.953277839
 20
24.5894522341
 30
0.0
 10
5.9532778387
 20
24.7142238381
 30
0.0
  0
SPLINE
  5
269
100
AcDbEntity
  8
0
100
AcDbSpline
 62
7
  6
BYLAYER
 70
0
 71
3
 72
17
 73
13
 74
0
 42
0.0000001
 43
0.0000001
 44
0.0000000001
 40
0.0
 40
0.0
 40
0.0
 40
0.0
 40
0.0578736031
 40
0.1175626887
 40
0.2413586438
 40
0.3695498678
 40
0.4999995712
 40
0.6304493319
 40
0.7586407258
 40
0.8824369519
 40
0.9421262063
 40
1.0
 40
1.0
 40
1.0
 40
1.0
 10
18.7786047651
 20
21.0302497598
 30
0.0
 10
18.6036801701
 20
20.9538788525
 30
0.0
 10
18.2433909107
 20
20.8098584507
 30
0.0
 10
17.4881519081
 20
20.5572945363
 30
0.0
 10
16.487706994
 20
20.3123495416
 30
0.0
 10
15.2370359271
 20
20.1351065809
 30
0.0
 10
13.9533046139
 20
20.075512327
 30
0.0
 10
12.6695724591
 20
20.1351004752
 30
0.0
 10
11.4188988963
 20
20.3123374851
 30
0.0
 10
10.4184507466
 20
20.5572776538
 30
0.0
 10
9.66320832
 20
20.8098378746
 30
0.0
 10
9.3029170825
 20
20.953856514
 30
0.0
 10
9.1279914267
 20
21.0302265626
 30
0.0
  0
SPLINE
  5
26A
100
AcDbEntity
  8
0
100
AcDbSpline
 62
7
  6
BYLAYER
 70
0
 71
3
 72
11
 73
7
 74
0
 42
0.0000001
 43
0.0000001
 44
0.0000000001
 40
0.0
 40
0.0
 40
0.0
 40
0.0
 40
0.2283089626
 40
0.4694933666
 40
0.726232908
 40
1.0
 40
1.0
 40
1.0
 40
1.0
 10
21.794267185
 20
23.7979423829
 30
0.0
 10
21.733751058
 20
23.6253268913
 30
0.0
 10
21.5762381605
 20
23.2813076632
 30
0.0
 10
21.2499147753
 20
22.7969746215
 30
0.0
 10
20.8328235745
 20
22.3380648337
 30
0.0
 10
20.508567825
 20
22.0614876188
 30
0.0
 10
20.334233207
 20
21.9283868984
 30
0.0
  0
SPLINE
  5
26B
100
AcDbEntity
  8
0
100
AcDbSpline
 62
7
  6
BYLAYER
 70
0
 71
3
 72
14
 73
10
 74
0
 42
0.0000001
 43
0.0000001
 44
0.0000000001
 40
0.0
 40
0.0
 40
0.0
 40
0.0
 40
0.1433233369
 40
0.2812426677
 40
0.5402801209
 40
0.6619368471
 40
0.7787493979
 40
0.8912352261
 40
1.0
 40
1.0
 40
1.0
 40
1.0
 10
24.5244145028
 20
26.7349981092
 30
0.0
 10
24.3551294733
 20
26.6372619353
 30
0.0
 10
24.0287550799
 20
26.4350294415
 30
0.0
 10
23.4299967021
 20
26.0050239134
 30
0.0
 10
22.9007126495
 20
25.5302432277
 30
0.0
 10
22.4599134178
 20
25.0133200356
 30
0.0
 10
22.1848657692
 20
24.6205790421
 30
0.0
 10
21.9603222609
 20
24.2169380355
 30
0.0
 10
21.8433441561
 20
23.9379289606
 30
0.0
 10
21.794267185
 20
23.7979423829
 30
0.0
  0
SPLINE
  5
26C
100
AcDbEntity
  8
0
100
AcDbSpline
 62
7
  6
BYLAYER
 70
0
 71
3
 72
9
 73
5
 74
0
 42
0.0000001
 43
0.0000001
 44
0.0000000001
 40
0.0
 40
0.0
 40
0.0
 40
0.0
 40
0.5212028899
 40
1.0
 40
1.0
 40
1.0
 40
1.0
 10
11.7612313816
 20
25.9797701771
 30
0.0
 10
11.6542439816
 20
25.9180013416
 30
0.0
 10
11.4561209795
 20
25.7863781704
 30
0.0
 10
11.2801884073
 20
25.6255650266
 30
0.0
 10
11.2041491364
 20
25.5413194031
 30
0.0
  0
SPLINE
  5
26D
100
AcDbEntity
  8
0
100
AcDbSpline
 62
7
  6
BYLAYER
 70
0
 71
3
 72
14
 73
10
 74
0
 42
0.0000001
 43
0.0000001
 44
0.0000000001
 40
0.0
 40
0.0
 40
0.0
 40
0.0
 40
0.1087647739
 40
0.2212506021
 40
0.3380631529
 40
0.4597198791
 40
0.7187573323
 40
0.8566766631
 40
1.0
 40
1.0
 40
1.0
 40
1.0
 10
21.794267185
 20
25.4309472172
 30
0.0
 10
21.8433441561
 20
25.5709337949
 30
0.0
 10
21.9603222609
 20
25.8499428697
 30
0.0
 10
22.1848657692
 20
26.2535838764
 30
0.0
 10
22.4599134178
 20
26.6463248699
 30
0.0
 10
22.9007126495
 20
27.163248062
 30
0.0
 10
23.4299967021
 20
27.6380287477
 30
0.0
 10
24.0287550799
 20
28.0680342758
 30
0.0
 10
24.3551294733
 20
28.2702667695
 30
0.0
 10
24.5244145028
 20
28.3680029435
 30
0.0
  0
SPLINE
  5
26E
100
AcDbEntity
  8
0
100
AcDbSpline
 62
7
  6
BYLAYER
 70
0
 71
3
 72
25
 73
21
 74
0
 42
0.0000001
 43
0.0000001
 44
0.0000000001
 40
0.0
 40
0.0
 40
0.0
 40
0.0
 40
0.0623734645
 40
0.1287286825
 40
0.1983150471
 40
0.270293404
 40
0.3436699715
 40
0.4174008711
 40
0.4904261231
 40
0.5617139603
 40
0.6303116329
 40
0.6953988698
 40
0.7563464596
 40
0.8127840807
 40
0.8646840769
 40
0.9124582291
 40
0.9351032093
 40
0.9571080912
 40
0.9786683614
 40
1.0
 40
1.0
 40
1.0
 40
1.0
 10
11.7612313816
 20
27.6127750114
 30
0.0
 10
11.8725909062
 20
27.6770680791
 30
0.0
 10
12.1112928545
 20
27.7947381067
 30
0.0
 10
12.4963066793
 20
27.9342770145
 30
0.0
 10
12.9124122282
 20
28.0398859379
 30
0.0
 10
13.350625297
 20
28.1093889887
 30
0.0
 10
13.8017102631
 20
28.1412696904
 30
0.0
 10
14.2560231075
 20
28.1348705452
 30
0.0
 10
14.7038825747
 20
28.0903387913
 30
0.0
 10
15.135743912
 20
28.008609678
 30
0.0
 10
15.5424231017
 20
27.8913982974
 30
0.0
 10
15.9153264168
 20
27.7411615392
 30
0.0
 10
16.2466224876
 20
27.5609815634
 30
0.0
 10
16.5293844855
 20
27.354358519
 30
0.0
 10
16.7575425946
 20
27.1252797862
 30
0.0
 10
16.9003544146
 20
26.9151018342
 30
0.0
 10
16.9799656785
 20
26.7415856965
 30
0.0
 10
17.0221506913
 20
26.6114157481
 30
0.0
 10
17.0475743254
 20
26.4797304119
 30
0.0
 10
17.0532675847
 20
26.3912051495
 30
0.0
 10
17.0532677345
 20
26.3472286721
 30
0.0
  0
SPLINE
  5
26F
100
AcDbEntity
  8
0
100
AcDbSpline
 62
7
  6
BYLAYER
 70
0
 71
3
 72
14
 73
10
 74
0
 42
0.0000001
 43
0.0000001
 44
0.0000000001
 40
0.0
 40
0.0
 40
0.0
 40
0.0
 40
0.1080574356
 40
0.2181531492
 40
0.3321481772
 40
0.4515528322
 40
0.7103677173
 40
0.8514076978
 40
1.0
 40
1.0
 40
1.0
 40
1.0
 10
10.8532753245
 20
26.3472286726
 30
0.0
 10
10.8532751246
 20
26.405913343
 30
0.0
 10
10.8634859863
 20
26.5246256557
 30
0.0
 10
10.9089422869
 20
26.6999814367
 30
0.0
 10
10.9840720046
 20
26.8715496022
 30
0.0
 10
11.1260699548
 20
27.0989425741
 30
0.0
 10
11.3225259398
 20
27.30565881
 30
0.0
 10
11.5582594808
 20
27.4880308401
 30
0.0
 10
11.6913441875
 20
27.5724258619
 30
0.0
 10
11.7612313816
 20
27.6127750114
 30
0.0
  0
SPLINE
  5
270
100
AcDbEntity
  8
0
100
AcDbSpline
 62
7
  6
BYLAYER
 70
0
 71
3
 72
15
 73
11
 74
0
 42
0.0000001
 43
0.0000001
 44
0.0000000001
 40
0.0
 40
0.0
 40
0.0
 40
0.0
 40
0.1121277641
 40
0.2257032646
 40
0.3420856689
 40
0.4624542848
 40
0.5877901874
 40
0.7188694861
 40
0.8562230009
 40
1.0
 40
1.0
 40
1.0
 40
1.0
 10
5.9532778387
 20
26.3472286724
 30
0.0
 10
5.9532778347
 20
26.2224570651
 30
0.0
 10
5.9710477194
 20
25.9709585138
 30
0.0
 10
6.0504415106
 20
25.5975147311
 30
0.0
 10
6.1820900958
 20
25.2294014299
 30
0.0
 10
6.3647195501
 20
24.8691483285
 30
0.0
 10
6.5970773591
 20
24.5191037853
 30
0.0
 10
6.877456512
 20
24.1813838003
 30
0.0
 10
7.2039273008
 20
23.8582761341
 30
0.0
 10
7.4451848706
 20
23.6584472337
 30
0.0
 10
7.5723500314
 20
23.5613610568
 30
0.0
  0
SPLINE
  5
271
100
AcDbEntity
  8
0
100
AcDbSpline
 62
7
  6
BYLAYER
 70
0
 71
3
 72
11
 73
7
 74
0
 42
0.0000001
 43
0.0000001
 44
0.0000000001
 40
0.0
 40
0.0
 40
0.0
 40
0.0
 40
0.273767092
 40
0.5305066334
 40
0.7716910374
 40
1.0
 40
1.0
 40
1.0
 40
1.0
 10
20.334233207
 20
23.5613917326
 30
0.0
 10
20.508567825
 20
23.694492453
 30
0.0
 10
20.8328235745
 20
23.971069668
 30
0.0
 10
21.2499147753
 20
24.4299794558
 30
0.0
 10
21.5762381605
 20
24.9143124975
 30
0.0
 10
21.733751058
 20
25.2583317255
 30
0.0
 10
21.794267185
 20
25.4309472172
 30
0.0
  0
SPLINE
  5
272
100
AcDbEntity
  8
0
100
AcDbSpline
 62
7
  6
BYLAYER
 70
0
 71
3
 72
17
 73
13
 74
0
 42
0.0000001
 43
0.0000001
 44
0.0000000001
 40
0.0
 40
0.0
 40
0.0
 40
0.0
 40
0.0578737953
 40
0.1175630538
 40
0.2413592863
 40
0.3695506831
 40
0.5000004451
 40
0.6304501472
 40
0.7586413684
 40
0.8824373171
 40
0.9421263985
 40
1.0
 40
1.0
 40
1.0
 40
1.0
 10
9.1279914267
 20
22.6632313969
 30
0.0
 10
9.3029170874
 20
22.5868613461
 30
0.0
 10
9.6632083439
 20
22.4428427033
 30
0.0
 10
10.4184508083
 20
22.1902824696
 30
0.0
 10
11.4188990031
 20
21.9453422972
 30
0.0
 10
12.6695726025
 20
21.7681052972
 30
0.0
 10
13.9533047671
 20
21.7085171613
 30
0.0
 10
15.2370360705
 20
21.7681114274
 30
0.0
 10
16.4877071007
 20
21.945354398
 30
0.0
 10
17.4881519698
 20
22.190299389
 30
0.0
 10
18.2433909345
 20
22.4428632906
 30
0.0
 10
18.6036801749
 20
22.5868836889
 30
0.0
 10
18.7786047651
 20
22.6632545941
 30
0.0
  0
ENDSEC
  0
SECTION
  2
OBJECTS
  0
DICTIONARY
  5
C
100
AcDbDictionary
280
0
281
1
  3
ACAD_GROUP
350
D
  3
ACAD_MLINESTYLE
350
17
  3
ACAD_LAYOUT
350
1A
  3
ACAD_PLOTSETTINGS
350
19
  3
ACAD_PLOTSTYLENAME
350
E
  0
DICTIONARY
  5
D
102
{ACAD_REACTORS
330
C
102
}
100
AcDbDictionary
280
0
281
1
  0
ACDBDICTIONARYWDFLT
  5
E
102
{ACAD_REACTORS
330
C
102
}
100
AcDbDictionary
281
1
  3
Normal
350
F
100
AcDbDictionaryWithDefault
340
F
  0
DICTIONARY
  5
17
102
{ACAD_REACTORS
330
C
102
}
100
AcDbDictionary
280
0
281
1
  3
Standard
350
18
  0
DICTIONARY
  5
19
102
{ACAD_REACTORS
330
C
102
}
100
AcDbDictionary
281
1
  0
DICTIONARY
  5
1A
102
{ACAD_REACTORS
330
C
102
}
100
AcDbDictionary
281
1
  3
Model
350
273
  3
Layout1
350
274
  0
ACDBPLACEHOLDER
  5
F
102
{ACAD_REACTORS
330
E
102
}
  0
MLINESTYLE
  5
18
102
{ACAD_REACTORS
330
17
102
}
100
AcDbMlineStyle
  2
STANDARD
 70
0
  3

 62
256
 51
90.0
 52
90.0
 71
2
 49
0.5
 62
256
  6
BYLAYER
 49
-0.5
 62
256
  6
BYLAYER
  0
LAYOUT
  5
273
102
{ACAD_REACTORS
330
1A
102
}
100
AcDbPlotSettings
  1

  2
none_device
  4

  6

 40
0.0
 41
0.0
 42
0.0
 43
0.0
 44
210.0
 45
297.0
 46
0.0
 47
0.0
 48
0.0
 49
0.0
140
0.0
141
0.0
142
1.0
143
1.0
 70
1024
 72
1
 73
0
 74
0
  7

 75
0
147
1.0
148
0.0
149
0.0
100
AcDbLayout
  1
Model
 70
0
 71
0
 10
0.0
 20
0.0
 11
210.0
 21
297.0
 12
0.0
 22
0.0
 32
0.0
 14
0.0
 24
0.0
 34
0.0
 15
0.0
 25
0.0
 35
0.0
146
0.0
 13
0.0
 23
0.0
 33
0.0
 16
1.0
 26
0.0
 36
0.0
 17
0.0
 27
1.0
 37
0.0
 76
0
330
210
345
0
346
0
  0
LAYOUT
  5
274
102
{ACAD_REACTORS
330
1A
102
}
100
AcDbPlotSettings
  1

  2
none_device
  4

  6

 40
0.0
 41
0.0
 42
0.0
 43
0.0
 44
210.0
 45
297.0
 46
0.0
 47
0.0
 48
0.0
 49
0.0
140
0.0
141
0.0
142
1.0
143
1.0
 70
0
 72
1
 73
0
 74
0
  7

 75
0
147
1.0
148
0.0
149
0.0
100
AcDbLayout
  1
Layout1
 70
0
 71
1
 10
0.0
 20
0.0
 11
210.0
 21
297.0
 12
0.0
 22
0.0
 32
0.0
 14
0.0
 24
0.0
 34
0.0
 15
0.0
 25
0.0
 35
0.0
146
0.0
 13
0.0
 23
0.0
 33
0.0
 16
1.0
 26
0.0
 36
0.0
 17
0.0
 27
1.0
 37
0.0
 76
0
330
211
345
0
346
0
  0
ENDSEC
  0
EOF
