999
DXF file: C:\Users\sesa63760\Dev\_Creo\CAD\MCADID0004777_3D-CAD\drw0001_3.dxf
999
Pro/ENGINEER 2019471 by Parametric Technology Corporation
  0
SECTION
  2
HEADER
  9
$ACADVER
  1
AC1024
  9
$DWGCODEPAGE
  3
ANSI_1252
  9
$EXTMAX
 10
53.5927191919
 20
75.7954171428
 30
0.0
  9
$EXTMIN
 10
0.0
 20
0.0
 30
0.0
  9
$LIMMIN
 10
0.0
 20
0.0
  9
$LIMMAX
 10
53.5927191919
 20
75.7954171428
  9
$VIEWCTR
 10
26.7963595959
 20
37.8977085714
  9
$VIEWSIZE
 40
75.7954171428
  9
$CLAYER
  8
0
  9
$LTSCALE
 40
4.9407383026
  9
$CELTYPE
  6
BYLAYER
  9
$DIMSCALE
 40
1.0
  9
$DIMASZ
 40
0.6380085618
  9
$DIMEXO
 40
1.0
  9
$DIMDLI
 40
3.4136010091
  9
$DIMEXE
 40
1.0
  9
$DIMCEN
 40
0.8084844495
  9
$DIMLFAC
 40
1.0
  9
$DIMBLK
  1
_FILLED
  9
$DIMALT
 70
0
  9
$DIMALTF
 40
0.0393700787
  9
$DIMTXT
 40
0.8932119865
  9
$DIMTOL
 70
1
  9
$DIMLIM
 70
0
  9
$DIMTFAC
 40
1.0
  9
$DIMTP
 40
0.01
  9
$DIMTM
 40
0.01
  9
$DIMGAP
 40
0.625
  9
$DIMDSEP
 70
46
  9
$AUNITS
 70
0
  9
$PDMODE
 70
3
  9
$PDSIZE
 40
0.3125
  9
$HANDSEED
  5
2D7
  9
$TILEMODE
 70
1
  9
$MEASUREMENT
 70
1
  9
$INSUNITS
 70
4
  0
ENDSEC
  0
SECTION
  2
CLASSES
  0
CLASS
  1
ACDBDICTIONARYWDFLT
  2
AcDbDictionaryWithDefault
  3
AutoCAD 2000
 90
0
 91
1
280
0
281
0
  0
CLASS
  1
ACDBPLACEHOLDER
  2
AcDbPlaceHolder
  3
AutoCAD 2000
 90
0
 91
1
280
0
281
0
  0
CLASS
  1
LAYOUT
  2
AcDbLayout
  3
AutoCAD 2000
 90
0
 91
0
280
0
281
0
  0
ENDSEC
  0
SECTION
  2
TABLES
  0
TABLE
  2
VPORT
  5
8
100
AcDbSymbolTable
 70
2
  0
VPORT
  5
1F4
100
AcDbSymbolTableRecord
100
AcDbViewportTableRecord
  2
*ACTIVE
 70
0
 10
0.0
 20
0.0
 11
1.0
 21
1.0
 12
26.7963595959
 22
37.8977085714
 13
0.0
 23
0.0
 14
1.0
 24
1.0
 15
0.0
 25
0.0
 16
0.0
 26
0.0
 36
1.0
 17
0.0
 27
0.0
 37
0.0
 40
75.7954171428
 41
0.7070707071
 42
50.0
 43
0.0
 44
0.0
 50
0.0
 51
0.0
 71
0
 72
100
 73
1
 74
1
 75
0
 76
0
 77
0
 78
0
  0
ENDTAB
  0
TABLE
  2
LTYPE
  5
5
100
AcDbSymbolTable
 70
6
  0
LTYPE
  5
14
100
AcDbSymbolTableRecord
100
AcDbLinetypeTableRecord
  2
BYBLOCK
 70
0
  3

 72
65
 73
0
 40
0.0
  0
LTYPE
  5
15
100
AcDbSymbolTableRecord
100
AcDbLinetypeTableRecord
  2
BYLAYER
 70
0
  3

 72
65
 73
0
 40
0.0
  0
LTYPE
  5
16
100
AcDbSymbolTableRecord
100
AcDbLinetypeTableRecord
  2
CONTINUOUS
 70
64
  3
Solid line
 72
65
 73
0
 40
0.0
  0
LTYPE
  5
1F5
100
AcDbSymbolTableRecord
100
AcDbLinetypeTableRecord
  2
CENTER
 70
64
  3
____ _ ____ _ ____ _ ____ _ ____ _ ____ _ ____
 72
65
 73
4
 40
0.6
 49
0.375
 74
0
 49
-0.075
 74
0
 49
0.075
 74
0
 49
-0.075
 74
0
  0
LTYPE
  5
1F6
100
AcDbSymbolTableRecord
100
AcDbLinetypeTableRecord
  2
HIDDEN
 70
64
  3
- - - - - - - - - - - - - - - - - - - -
 72
65
 73
2
 40
0.2
 49
0.1
 74
0
 49
-0.1
 74
0
  0
LTYPE
  5
1F7
100
AcDbSymbolTableRecord
100
AcDbLinetypeTableRecord
  2
PHANTOM
 70
64
  3
_____ _ _ _____ _ _ _____ _ _ _____
 72
65
 73
6
 40
0.8
 49
0.45
 74
0
 49
-0.05
 74
0
 49
0.1
 74
0
 49
-0.05
 74
0
 49
0.1
 74
0
 49
-0.05
 74
0
  0
LTYPE
  5
1F8
100
AcDbSymbolTableRecord
100
AcDbLinetypeTableRecord
  2
DOT
 70
64
  3
. . . . . . . . . . . . . . . . . . . .
 72
65
 73
2
 40
0.2
 49
0.1
 74
0
 49
-0.1
 74
0
  0
LTYPE
  5
1F9
100
AcDbSymbolTableRecord
100
AcDbLinetypeTableRecord
  2
DASHED
 70
64
  3
- - - - - - - - - - - - - - - - - - - -
 72
65
 73
2
 40
0.2
 49
0.1
 74
0
 49
-0.1
 74
0
  0
ENDTAB
  0
TABLE
  2
LAYER
  5
2
100
AcDbSymbolTable
 70
36
  0
LAYER
  5
10
100
AcDbSymbolTableRecord
100
AcDbLayerTableRecord
  2
0
 70
0
 62
7
  6
CONTINUOUS
370
-3
390
F
  0
LAYER
  5
1FA
100
AcDbSymbolTableRecord
100
AcDbLayerTableRecord
  2
DEFAULT_1
 70
0
 62
7
  6
CENTER
370
-3
390
F
  0
LAYER
  5
1FB
100
AcDbSymbolTableRecord
100
AcDbLayerTableRecord
  2
DEFAULT_2
 70
0
 62
7
  6
HIDDEN
370
-3
390
F
  0
LAYER
  5
1FC
100
AcDbSymbolTableRecord
100
AcDbLayerTableRecord
  2
DEFAULT_3
 70
0
 62
7
  6
PHANTOM
370
-3
390
F
  0
LAYER
  5
1FD
100
AcDbSymbolTableRecord
100
AcDbLayerTableRecord
  2
00_COMPONENTS
 70
0
 62
7
  6
CONTINUOUS
370
-3
390
F
  0
LAYER
  5
1FE
100
AcDbSymbolTableRecord
100
AcDbLayerTableRecord
  2
01_1_DEFAULT_DATUMS
 70
0
 62
7
  6
CONTINUOUS
370
-3
390
F
  0
LAYER
  5
1FF
100
AcDbSymbolTableRecord
100
AcDbLayerTableRecord
  2
01_PLANES
 70
0
 62
7
  6
CONTINUOUS
370
-3
390
F
  0
LAYER
  5
200
100
AcDbSymbolTableRecord
100
AcDbLayerTableRecord
  2
02_COORD_SYS
 70
0
 62
7
  6
CONTINUOUS
370
-3
390
F
  0
LAYER
  5
201
100
AcDbSymbolTableRecord
100
AcDbLayerTableRecord
  2
03_AXES
 70
0
 62
7
  6
CONTINUOUS
370
-3
390
F
  0
LAYER
  5
202
100
AcDbSymbolTableRecord
100
AcDbLayerTableRecord
  2
04_POINTS
 70
0
 62
7
  6
CONTINUOUS
370
-3
390
F
  0
LAYER
  5
203
100
AcDbSymbolTableRecord
100
AcDbLayerTableRecord
  2
05_CURVES
 70
0
 62
7
  6
CONTINUOUS
370
-3
390
F
  0
LAYER
  5
204
100
AcDbSymbolTableRecord
100
AcDbLayerTableRecord
  2
06_SURFS
 70
0
 62
7
  6
CONTINUOUS
370
-3
390
F
  0
LAYER
  5
205
100
AcDbSymbolTableRecord
100
AcDbLayerTableRecord
  2
07_COSMETICS
 70
0
 62
7
  6
CONTINUOUS
370
-3
390
F
  0
LAYER
  5
206
100
AcDbSymbolTableRecord
100
AcDbLayerTableRecord
  2
10_NOTES
 70
0
 62
7
  6
CONTINUOUS
370
-3
390
F
  0
LAYER
  5
207
100
AcDbSymbolTableRecord
100
AcDbLayerTableRecord
  2
11_NOTES_PUB
 70
0
 62
7
  6
CONTINUOUS
370
-3
390
F
  0
LAYER
  5
208
100
AcDbSymbolTableRecord
100
AcDbLayerTableRecord
  2
13_REF_GTOL
 70
0
 62
7
  6
CONTINUOUS
370
-3
390
F
  0
LAYER
  5
209
100
AcDbSymbolTableRecord
100
AcDbLayerTableRecord
  2
16_MISC
 70
0
 62
7
  6
CONTINUOUS
370
-3
390
F
  0
LAYER
  5
20A
100
AcDbSymbolTableRecord
100
AcDbLayerTableRecord
  2
17_NO_PRINT
 70
0
 62
7
  6
CONTINUOUS
370
-3
390
F
  0
LAYER
  5
20B
100
AcDbSymbolTableRecord
100
AcDbLayerTableRecord
  2
18_DATUM_CAMS_JOINTS
 70
0
 62
7
  6
CONTINUOUS
370
-3
390
F
  0
LAYER
  5
20C
100
AcDbSymbolTableRecord
100
AcDbLayerTableRecord
  2
19_DATUM_FUNCTIONAL
 70
0
 62
7
  6
CONTINUOUS
370
-3
390
F
  0
LAYER
  5
20D
100
AcDbSymbolTableRecord
100
AcDbLayerTableRecord
  2
20_DATUM_KINEMATIC_SCHEME
 70
0
 62
7
  6
CONTINUOUS
370
-3
390
F
  0
ENDTAB
  0
TABLE
  2
STYLE
  5
3
100
AcDbSymbolTable
 70
1
  0
STYLE
  5
11
100
AcDbSymbolTableRecord
100
AcDbTextStyleTableRecord
  2
STANDARD
 70
0
 40
0.0
 41
1.0
 50
0.0
 71
0
 42
0.2
  3
ARIAL.TTF
  4

  0
STYLE
  5
20E
100
AcDbSymbolTableRecord
100
AcDbTextStyleTableRecord
  2
TEXTSTYLE_1
 70
0
 40
0.0
 41
0.8
 50
0.0
 71
0
 42
0.2
  3
gdt
  4

  0
ENDTAB
  0
TABLE
  2
VIEW
  5
6
100
AcDbSymbolTable
 70
0
  0
ENDTAB
  0
TABLE
  2
UCS
  5
7
100
AcDbSymbolTable
 70
0
  0
ENDTAB
  0
TABLE
  2
APPID
  5
9
100
AcDbSymbolTable
 70
1
  0
APPID
  5
20F
100
AcDbSymbolTableRecord
100
AcDbRegAppTableRecord
  2
ACAD
 70
0
  0
ENDTAB
  0
TABLE
  2
BLOCK_RECORD
  5
1
100
AcDbSymbolTable
 70
0
  0
BLOCK_RECORD
  5
210
100
AcDbSymbolTableRecord
100
AcDbBlockTableRecord
  2
*Model_Space
  0
BLOCK_RECORD
  5
211
100
AcDbSymbolTableRecord
100
AcDbBlockTableRecord
  2
*Paper_Space
  0
BLOCK_RECORD
  5
212
100
AcDbSymbolTableRecord
100
AcDbBlockTableRecord
  2
_FILLED
  0
ENDTAB
  0
TABLE
  2
DIMSTYLE
  5
A
100
AcDbSymbolTable
 70
1
100
AcDbDimStyleTable
 71
0
  0
DIMSTYLE
105
213
100
AcDbSymbolTableRecord
100
AcDbDimStyleTableRecord
  2
STANDARD
 70
0
  3

  4

 40
1.0
 41
0.6380085618
 42
1.0
 43
0.38
 44
1.0
 45
0.0
 46
0.0
 47
0.01
 48
0.01
140
0.8932119865
141
0.09
142
0.0
143
25.4
144
1.0
145
0.0
146
1.0
147
0.625
 71
1
 72
0
 73
0
 74
0
 75
0
 76
0
 77
1
 78
8
 79
2
170
0
171
1
172
0
173
0
174
0
175
0
176
0
177
0
178
0
270
2
179
2
271
2
272
2
273
2
274
2
275
0
280
0
281
0
282
0
283
1
284
8
285
0
286
0
287
3
288
0
340
11
278
46
341
212
342
212
343
212
344
212
  0
ENDTAB
  0
ENDSEC
  0
SECTION
  2
BLOCKS
  0
BLOCK
  5
20
100
AcDbEntity
  8
0
100
AcDbBlockBegin
  2
*Model_Space
 70
0
 10
0.0
 20
0.0
 30
0.0
  3
*Model_Space
  1

  0
ENDBLK
  5
21
100
AcDbEntity
  8
0
100
AcDbBlockEnd
  0
BLOCK
  5
1C
100
AcDbEntity
  8
0
100
AcDbBlockBegin
  2
*Paper_Space
 70
0
 10
0.0
 20
0.0
 30
0.0
  3
*Paper_Space
  1

  0
ENDBLK
  5
1D
100
AcDbEntity
  8
0
100
AcDbBlockEnd
  0
BLOCK
  5
214
100
AcDbEntity
  8
0
100
AcDbBlockBegin
  2
_FILLED
 70
64
 10
0.0
 20
0.0
  3
_FILLED
  1

  0
SOLID
  5
215
100
AcDbEntity
  8
0
  6
BYBLOCK
 62
0
100
AcDbTrace
 10
0.0
 20
0.0
 11
-1.0
 21
0.25
 12
-1.0
 22
-0.25
 13
-1.0
 23
-0.25
  0
ENDBLK
  5
216
100
AcDbEntity
  8
0
  6
BYBLOCK
 62
0
100
AcDbBlockEnd
  0
ENDSEC
  0
SECTION
  2
ENTITIES
  0
LINE
  5
217
100
AcDbEntity
  8
0
100
AcDbLine
 62
7
  6
BYLAYER
 10
23.7885423831
 20
6.0534527558
 11
30.7885423831
 21
6.0534527558
  0
LINE
  5
218
100
AcDbEntity
  8
0
100
AcDbLine
 62
7
  6
BYLAYER
 10
18.1885423831
 20
69.5898869662
 11
18.6885423831
 21
70.0898869662
  0
LINE
  5
219
100
AcDbEntity
  8
0
100
AcDbLine
 62
7
  6
BYLAYER
 10
19.1885423831
 20
8.0534527558
 11
22.9885423831
 21
8.0534527558
  0
LINE
  5
21A
100
AcDbEntity
  8
0
100
AcDbLine
 62
7
  6
BYLAYER
 10
31.9885423831
 20
8.0534527558
 11
35.7885423831
 21
8.0534527558
  0
LINE
  5
21B
100
AcDbEntity
  8
0
100
AcDbLine
 62
7
  6
BYLAYER
 10
31.0385414959
 20
10.5534527558
 11
30.7885423831
 21
10.5534527558
  0
LINE
  5
21C
100
AcDbEntity
  8
0
100
AcDbLine
 62
7
  6
BYLAYER
 10
23.7885423831
 20
10.5534527558
 11
23.5385433826
 21
10.5534527558
  0
LINE
  5
21D
100
AcDbEntity
  8
0
100
AcDbLine
 62
7
  6
BYLAYER
 10
23.5385431303
 20
10.5534530081
 11
23.2885426261
 21
10.8034534669
  0
LINE
  5
21E
100
AcDbEntity
  8
0
100
AcDbLine
 62
7
  6
BYLAYER
 10
35.4885423831
 20
19.1793017837
 11
31.9885423831
 21
19.1793017839
  0
LINE
  5
21F
100
AcDbEntity
  8
0
100
AcDbLine
 62
7
  6
BYLAYER
 10
22.9885423831
 20
19.1793017841
 11
19.4885423831
 21
19.1793017837
  0
LINE
  5
220
100
AcDbEntity
  8
0
100
AcDbLine
 62
7
  6
BYLAYER
 10
11.0385423831
 20
40.3898869662
 11
11.0385423831
 21
59.4898869662
  0
LINE
  5
221
100
AcDbEntity
  8
0
100
AcDbLine
 62
7
  6
BYLAYER
 10
31.7885423831
 20
19.7731070155
 11
31.2885423831
 21
19.7731070155
  0
LINE
  5
222
100
AcDbEntity
  8
0
100
AcDbLine
 62
7
  6
BYLAYER
 10
23.2885423831
 20
19.7731070155
 11
23.1885423831
 21
19.7731070155
  0
LINE
  5
223
100
AcDbEntity
  8
0
100
AcDbLine
 62
7
  6
BYLAYER
 10
31.7414339458
 20
19.9043411513
 11
31.2885423831
 21
19.9043411513
  0
LINE
  5
224
100
AcDbEntity
  8
0
100
AcDbLine
 62
7
  6
BYLAYER
 10
23.2885423831
 20
19.9043411513
 11
23.2356508417
 21
19.9043411513
  0
LINE
  5
225
100
AcDbEntity
  8
0
100
AcDbLine
 62
7
  6
BYLAYER
 10
31.0385414959
 20
21.5534527558
 11
30.7885423831
 21
21.5534527558
  0
LINE
  5
226
100
AcDbEntity
  8
0
100
AcDbLine
 62
7
  6
BYLAYER
 10
23.7885423831
 20
21.5534527558
 11
23.5385433826
 21
21.5534527558
  0
LINE
  5
227
100
AcDbEntity
  8
0
100
AcDbLine
 62
7
  6
BYLAYER
 10
12.5385423831
 20
39.8898869662
 11
12.5385423831
 21
54.8898869662
  0
LINE
  5
228
100
AcDbEntity
  8
0
100
AcDbLine
 62
7
  6
BYLAYER
 10
13.7885423831
 20
59.4898869662
 11
13.7885423831
 21
60.4898869662
  0
LINE
  5
229
100
AcDbEntity
  8
0
100
AcDbLine
 62
7
  6
BYLAYER
 10
14.7885423831
 20
29.0899127172
 11
14.7885423831
 21
38.6413320529
  0
LINE
  5
22A
100
AcDbEntity
  8
0
100
AcDbLine
 62
7
  6
BYLAYER
 10
15.7885423831
 20
28.0898869662
 11
15.7885423831
 21
37.550815611
  0
LINE
  5
22B
100
AcDbEntity
  8
0
100
AcDbLine
 62
7
  6
BYLAYER
 10
19.1885423831
 20
24.0534527558
 11
19.4885423831
 21
24.0534527558
  0
LINE
  5
22C
100
AcDbEntity
  8
0
100
AcDbLine
 62
7
  6
BYLAYER
 10
35.4885423831
 20
24.0534527558
 11
35.7885423831
 21
24.0534527558
  0
LINE
  5
22D
100
AcDbEntity
  8
0
100
AcDbLine
 62
7
  6
BYLAYER
 10
23.7885423831
 20
26.0534527558
 11
30.7885423831
 21
26.0534527558
  0
LINE
  5
22E
100
AcDbEntity
  8
0
100
AcDbLine
 62
7
  6
BYLAYER
 10
16.6526570264
 20
59.4898869662
 11
16.6526570264
 21
54.8898869662
  0
LINE
  5
22F
100
AcDbEntity
  8
0
100
AcDbLine
 62
7
  6
BYLAYER
 10
18.1885423831
 20
60.4898869662
 11
18.1885423831
 21
69.5898869662
  0
LWPOLYLINE
  5
230
100
AcDbEntity
  8
0
100
AcDbPolyline
 62
7
  6
BYLAYER
 90
6
 70
0
 10
31.5885423851
 20
26.5540988868
 10
31.5830313721
 20
26.553968737
 10
31.6702878871
 20
26.5250163879
 10
31.7127891429
 20
26.4836508342
 10
31.7824111136
 20
26.3168769217
 10
31.7885433552
 20
26.2405721758
  0
LINE
  5
231
100
AcDbEntity
  8
0
100
AcDbLine
 62
7
  6
BYLAYER
 10
23.3885429586
 20
26.554089197
 11
31.5885423831
 21
26.554089197
  0
LINE
  5
232
100
AcDbEntity
  8
0
100
AcDbLine
 62
7
  6
BYLAYER
 10
31.5885423831
 20
26.8322354227
 11
23.3885423828
 21
26.8322354227
  0
LINE
  5
233
100
AcDbEntity
  8
0
100
AcDbLine
 62
7
  6
BYLAYER
 10
39.2885423831
 20
28.0898869662
 11
35.4885423831
 21
28.0898869662
  0
LINE
  5
234
100
AcDbEntity
  8
0
100
AcDbLine
 62
7
  6
BYLAYER
 10
19.5885423831
 20
28.0898869662
 11
15.7885423831
 21
28.0898869662
  0
LINE
  5
235
100
AcDbEntity
  8
0
100
AcDbLine
 62
7
  6
BYLAYER
 10
20.1885423831
 20
28.0898869662
 11
20.4885423831
 21
28.0898869662
  0
LINE
  5
236
100
AcDbEntity
  8
0
100
AcDbLine
 62
7
  6
BYLAYER
 10
34.4885423831
 20
28.0898869662
 11
34.7885423831
 21
28.0898869662
  0
LINE
  5
237
100
AcDbEntity
  8
0
100
AcDbLine
 62
7
  6
BYLAYER
 10
20.6885423831
 20
28.4372450478
 11
34.2885423831
 21
28.4372450479
  0
LINE
  5
238
100
AcDbEntity
  8
0
100
AcDbLine
 62
7
  6
BYLAYER
 10
34.2885423831
 20
28.544535593
 11
20.6885423831
 21
28.544535593
  0
LINE
  5
239
100
AcDbEntity
  8
0
100
AcDbLine
 62
7
  6
BYLAYER
 10
18.9885423831
 20
8.2535495498
 11
18.9885423831
 21
23.8533656537
  0
LINE
  5
23A
100
AcDbEntity
  8
0
100
AcDbLine
 62
7
  6
BYLAYER
 10
19.1385423831
 20
54.8898869662
 11
19.1385423831
 21
59.4898869662
  0
LINE
  5
23B
100
AcDbEntity
  8
0
100
AcDbLine
 62
7
  6
BYLAYER
 10
19.1885423831
 20
8.0534527558
 11
19.1885423831
 21
24.0534527558
  0
LINE
  5
23C
100
AcDbEntity
  8
0
100
AcDbLine
 62
7
  6
BYLAYER
 10
19.4885423831
 20
24.0534527558
 11
19.4885423831
 21
19.1793017837
  0
LINE
  5
23D
100
AcDbEntity
  8
0
100
AcDbLine
 62
7
  6
BYLAYER
 10
19.5885423831
 20
38.8898869662
 11
19.5885423831
 21
28.0898869662
  0
LINE
  5
23E
100
AcDbEntity
  8
0
100
AcDbLine
 62
7
  6
BYLAYER
 10
19.9885423831
 20
28.2898877554
 11
19.9885423831
 21
38.8898869662
  0
LINE
  5
23F
100
AcDbEntity
  8
0
100
AcDbLine
 62
7
  6
BYLAYER
 10
20.1885423831
 20
28.0898869662
 11
20.1885423831
 21
38.8898869662
  0
LINE
  5
240
100
AcDbEntity
  8
0
100
AcDbLine
 62
7
  6
BYLAYER
 10
20.4885369593
 20
23.2274541871
 11
20.4885423831
 21
38.8898869662
  0
LINE
  5
241
100
AcDbEntity
  8
0
100
AcDbLine
 62
7
  6
BYLAYER
 10
20.6885423831
 20
29.7038073265
 11
34.2885423831
 21
29.7038073265
  0
LINE
  5
242
100
AcDbEntity
  8
0
100
AcDbLine
 62
7
  6
BYLAYER
 10
20.6885423831
 20
29.9586638356
 11
34.2885423831
 21
29.9586638356
  0
LINE
  5
243
100
AcDbEntity
  8
0
100
AcDbLine
 62
7
  6
BYLAYER
 10
31.28854215
 20
21.303452142
 11
31.0385417383
 21
21.5534525133
  0
LINE
  5
244
100
AcDbEntity
  8
0
100
AcDbLine
 62
7
  6
BYLAYER
 10
18.6158926523
 20
38.8898869662
 11
18.0385423831
 21
39.8898869662
  0
LINE
  5
245
100
AcDbEntity
  8
0
100
AcDbLine
 62
7
  6
BYLAYER
 10
20.6885423831
 20
23.3123583251
 11
20.6885423831
 21
38.8898869662
  0
LINE
  5
246
100
AcDbEntity
  8
0
100
AcDbLine
 62
7
  6
BYLAYER
 10
22.7885423831
 20
38.8898869662
 11
22.7885423831
 21
33.1214311821
  0
LINE
  5
247
100
AcDbEntity
  8
0
100
AcDbLine
 62
7
  6
BYLAYER
 10
22.7885423831
 20
32.1034314875
 11
22.7885423831
 21
29.9586638356
  0
LINE
  5
248
100
AcDbEntity
  8
0
100
AcDbLine
 62
7
  6
BYLAYER
 10
22.9885423831
 20
38.8898869662
 11
22.9885423831
 21
33.0075773843
  0
LINE
  5
249
100
AcDbEntity
  8
0
100
AcDbLine
 62
7
  6
BYLAYER
 10
22.9885423831
 20
31.9222022364
 11
22.9885423831
 21
29.9586638356
  0
LINE
  5
24A
100
AcDbEntity
  8
0
100
AcDbLine
 62
7
  6
BYLAYER
 10
22.9885423831
 20
26.3190023225
 11
22.9885423831
 21
8.0534527558
  0
LWPOLYLINE
  5
24B
100
AcDbEntity
  8
0
100
AcDbPolyline
 62
7
  6
BYLAYER
 90
3
 70
0
 10
32.0084250346
 20
33.0070805813
 10
32.002328725
 20
33.0053953074
 10
31.9751404512
 20
32.9942105561
  0
LINE
  5
24C
100
AcDbEntity
  8
0
100
AcDbLine
 62
7
  6
BYLAYER
 10
23.0013916349
 20
32.9943991421
 11
22.9367115324
 21
32.9864091731
  0
LINE
  5
24D
100
AcDbEntity
  8
0
100
AcDbLine
 62
7
  6
BYLAYER
 10
23.1885423829
 20
32.0067258887
 11
31.7885423835
 21
32.0067258887
  0
LINE
  5
24E
100
AcDbEntity
  8
0
100
AcDbLine
 62
7
  6
BYLAYER
 10
31.7884698235
 20
32.2725110983
 11
23.1886188331
 21
32.2725110983
  0
LINE
  5
24F
100
AcDbEntity
  8
0
100
AcDbLine
 62
7
  6
BYLAYER
 10
23.188555678
 20
32.9487003173
 11
31.7884218859
 21
32.9487003175
  0
LINE
  5
250
100
AcDbEntity
  8
0
100
AcDbLine
 62
7
  6
BYLAYER
 10
23.1885423831
 20
32.9674387599
 11
31.7885423831
 21
32.9674387599
  0
LINE
  5
251
100
AcDbEntity
  8
0
100
AcDbLine
 62
7
  6
BYLAYER
 10
20.6885423831
 20
32.9864093973
 11
22.9367112717
 21
32.9864093974
  0
LINE
  5
252
100
AcDbEntity
  8
0
100
AcDbLine
 62
7
  6
BYLAYER
 10
32.0403509065
 20
32.9864093975
 11
34.2885423831
 21
32.9864093973
  0
LINE
  5
253
100
AcDbEntity
  8
0
100
AcDbLine
 62
7
  6
BYLAYER
 10
23.001430193
 20
32.9943860063
 11
23.0013916349
 21
32.9943991421
  0
LINE
  5
254
100
AcDbEntity
  8
0
100
AcDbLine
 62
7
  6
BYLAYER
 10
23.0018885666
 20
32.994230312
 11
22.9706732442
 21
33.0075773843
  0
LINE
  5
255
100
AcDbEntity
  8
0
100
AcDbLine
 62
7
  6
BYLAYER
 10
23.1885423831
 20
26.2408560939
 11
23.1885423831
 21
8.2536018559
  0
LINE
  5
256
100
AcDbEntity
  8
0
100
AcDbLine
 62
7
  6
BYLAYER
 10
23.188542383
 20
29.9586638356
 11
23.1885423831
 21
32.2725110985
  0
LINE
  5
257
100
AcDbEntity
  8
0
100
AcDbLine
 62
7
  6
BYLAYER
 10
23.1885423831
 20
32.9487003173
 11
23.1885423832
 21
38.8898869662
  0
LINE
  5
258
100
AcDbEntity
  8
0
100
AcDbLine
 62
7
  6
BYLAYER
 10
23.2885423831
 20
10.8034534669
 11
23.2885423831
 21
21.3034520447
  0
LINE
  5
259
100
AcDbEntity
  8
0
100
AcDbLine
 62
7
  6
BYLAYER
 10
23.3885429586
 20
26.8322354227
 11
23.3885423831
 21
21.4034517835
  0
LINE
  5
25A
100
AcDbEntity
  8
0
100
AcDbLine
 62
7
  6
BYLAYER
 10
23.538542878
 20
10.5534527558
 11
23.538542878
 21
21.5534527558
  0
LINE
  5
25B
100
AcDbEntity
  8
0
100
AcDbLine
 62
7
  6
BYLAYER
 10
23.7885423831
 20
6.0535367306
 11
23.7885423831
 21
26.0533687809
  0
LWPOLYLINE
  5
25C
100
AcDbEntity
  8
0
100
AcDbPolyline
 62
7
  6
BYLAYER
 90
6
 70
0
 10
23.1885417759
 20
26.2409485155
 10
23.1943611102
 20
26.3149461617
 10
23.2335726485
 20
26.4361926546
 10
23.263857865
 20
26.4831007044
 10
23.3467364658
 20
26.546603873
 10
23.3885425481
 20
26.554098184
  0
LWPOLYLINE
  5
25D
100
AcDbEntity
  8
0
100
AcDbPolyline
 62
7
  6
BYLAYER
 90
3
 70
0
 10
31.7392352535
 20
19.9081328013
 10
31.7818669788
 20
19.7876543599
 10
31.7885369863
 20
19.7138980586
  0
LINE
  5
25E
100
AcDbEntity
  8
0
100
AcDbLine
 62
7
  6
BYLAYER
 10
34.4885423831
 20
36.6116405455
 11
31.9885423831
 21
36.6116405455
  0
LINE
  5
25F
100
AcDbEntity
  8
0
100
AcDbLine
 62
7
  6
BYLAYER
 10
22.9885423831
 20
36.6116405455
 11
20.4885423831
 21
36.6116405455
  0
LINE
  5
260
100
AcDbEntity
  8
0
100
AcDbLine
 62
7
  6
BYLAYER
 10
39.2885423831
 20
37.550815611
 11
35.4885423831
 21
37.550815611
  0
LINE
  5
261
100
AcDbEntity
  8
0
100
AcDbLine
 62
7
  6
BYLAYER
 10
19.5885423831
 20
37.550815611
 11
15.7885423831
 21
37.550815611
  0
LINE
  5
262
100
AcDbEntity
  8
0
100
AcDbLine
 62
7
  6
BYLAYER
 10
36.4611800021
 20
38.8898869662
 11
18.6159047641
 21
38.8898869662
  0
LINE
  5
263
100
AcDbEntity
  8
0
100
AcDbLine
 62
7
  6
BYLAYER
 10
43.5385423831
 20
39.8898869662
 11
11.5385423831
 21
39.8898869662
  0
LINE
  5
264
100
AcDbEntity
  8
0
100
AcDbLine
 62
7
  6
BYLAYER
 10
30.7885423831
 20
26.0533687809
 11
30.7885423831
 21
6.0535367306
  0
LINE
  5
265
100
AcDbEntity
  8
0
100
AcDbLine
 62
7
  6
BYLAYER
 10
31.0385419808
 20
21.5534527558
 11
31.0385419808
 21
10.5534527558
  0
LINE
  5
266
100
AcDbEntity
  8
0
100
AcDbLine
 62
7
  6
BYLAYER
 10
31.2885423831
 20
21.303452142
 11
31.2885423831
 21
10.8034533695
  0
LINE
  5
267
100
AcDbEntity
  8
0
100
AcDbLine
 62
7
  6
BYLAYER
 10
31.5885423831
 20
26.8322354227
 11
31.5885423831
 21
20.1411805181
  0
LINE
  5
268
100
AcDbEntity
  8
0
100
AcDbLine
 62
7
  6
BYLAYER
 10
31.7885423803
 20
38.8898869662
 11
31.7885423831
 21
32.9487003173
  0
LINE
  5
269
100
AcDbEntity
  8
0
100
AcDbLine
 62
7
  6
BYLAYER
 10
31.7885423831
 20
32.2725110985
 11
31.7885423834
 21
29.9586638356
  0
LINE
  5
26A
100
AcDbEntity
  8
0
100
AcDbLine
 62
7
  6
BYLAYER
 10
31.7885423831
 20
8.2536136116
 11
31.7885423831
 21
26.2408560975
  0
LINE
  5
26B
100
AcDbEntity
  8
0
100
AcDbLine
 62
7
  6
BYLAYER
 10
31.9885423831
 20
8.0534527558
 11
31.9885423831
 21
26.3190023225
  0
LINE
  5
26C
100
AcDbEntity
  8
0
100
AcDbLine
 62
7
  6
BYLAYER
 10
31.9885423831
 20
29.9586638356
 11
31.9885423831
 21
31.9222022364
  0
LINE
  5
26D
100
AcDbEntity
  8
0
100
AcDbLine
 62
7
  6
BYLAYER
 10
31.9885423831
 20
33.0070805813
 11
31.9885423831
 21
38.8898869662
  0
LINE
  5
26E
100
AcDbEntity
  8
0
100
AcDbLine
 62
7
  6
BYLAYER
 10
32.1885423831
 20
29.9586638356
 11
32.1885423831
 21
32.1034331236
  0
LINE
  5
26F
100
AcDbEntity
  8
0
100
AcDbLine
 62
7
  6
BYLAYER
 10
32.1885423831
 20
33.1214311821
 11
32.1885423831
 21
38.8898869662
  0
LINE
  5
270
100
AcDbEntity
  8
0
100
AcDbLine
 62
7
  6
BYLAYER
 10
34.2885423831
 20
38.8898869662
 11
34.2885423831
 21
23.3123583251
  0
LINE
  5
271
100
AcDbEntity
  8
0
100
AcDbLine
 62
7
  6
BYLAYER
 10
34.4885423831
 20
38.8898869662
 11
34.4885423831
 21
23.234180389
  0
LINE
  5
272
100
AcDbEntity
  8
0
100
AcDbLine
 62
7
  6
BYLAYER
 10
34.7885423831
 20
38.8898869662
 11
34.7885423831
 21
28.0898869662
  0
LINE
  5
273
100
AcDbEntity
  8
0
100
AcDbLine
 62
7
  6
BYLAYER
 10
34.9885423831
 20
38.8898869662
 11
34.9885423831
 21
28.2899151119
  0
LINE
  5
274
100
AcDbEntity
  8
0
100
AcDbLine
 62
7
  6
BYLAYER
 10
36.4611921139
 20
38.8898869662
 11
37.0385423831
 21
39.8898869662
  0
LINE
  5
275
100
AcDbEntity
  8
0
100
AcDbLine
 62
7
  6
BYLAYER
 10
31.9756078512
 20
32.9943700544
 11
31.9756517154
 21
32.9943850348
  0
LINE
  5
276
100
AcDbEntity
  8
0
100
AcDbLine
 62
7
  6
BYLAYER
 10
35.4885423831
 20
19.1793017837
 11
35.4885423831
 21
24.0534527558
  0
LINE
  5
277
100
AcDbEntity
  8
0
100
AcDbLine
 62
7
  6
BYLAYER
 10
35.4885423831
 20
28.0898869662
 11
35.4885423831
 21
38.8898869662
  0
LINE
  5
278
100
AcDbEntity
  8
0
100
AcDbLine
 62
7
  6
BYLAYER
 10
35.7885423831
 20
24.0534527558
 11
35.7885423831
 21
8.0534527558
  0
LINE
  5
279
100
AcDbEntity
  8
0
100
AcDbLine
 62
7
  6
BYLAYER
 10
35.9385423831
 20
54.8898869662
 11
35.9385423831
 21
59.4898869662
  0
LINE
  5
27A
100
AcDbEntity
  8
0
100
AcDbLine
 62
7
  6
BYLAYER
 10
35.9885423831
 20
23.8534150855
 11
35.9885423831
 21
8.253500118
  0
LINE
  5
27B
100
AcDbEntity
  8
0
100
AcDbLine
 62
7
  6
BYLAYER
 10
36.8885423831
 20
69.5898869662
 11
36.8885423831
 21
60.4898869662
  0
LINE
  5
27C
100
AcDbEntity
  8
0
100
AcDbLine
 62
7
  6
BYLAYER
 10
23.2885426261
 20
21.3034520447
 11
23.5385431303
 21
21.5534525035
  0
LINE
  5
27D
100
AcDbEntity
  8
0
100
AcDbLine
 62
7
  6
BYLAYER
 10
38.4244277399
 20
54.8898869662
 11
38.4244277399
 21
59.4898869662
  0
LINE
  5
27E
100
AcDbEntity
  8
0
100
AcDbLine
 62
7
  6
BYLAYER
 10
39.2885423831
 20
37.550815611
 11
39.2885423831
 21
28.0898869662
  0
LINE
  5
27F
100
AcDbEntity
  8
0
100
AcDbLine
 62
7
  6
BYLAYER
 10
40.2885423831
 20
38.6413320529
 11
40.2885423831
 21
29.0899053035
  0
LINE
  5
280
100
AcDbEntity
  8
0
100
AcDbLine
 62
7
  6
BYLAYER
 10
41.2885423831
 20
60.4898869662
 11
41.2885423831
 21
59.4898869662
  0
LINE
  5
281
100
AcDbEntity
  8
0
100
AcDbLine
 62
7
  6
BYLAYER
 10
42.5385423831
 20
54.8898869662
 11
42.5385423831
 21
39.8898869662
  0
LINE
  5
282
100
AcDbEntity
  8
0
100
AcDbLine
 62
7
  6
BYLAYER
 10
44.0385423831
 20
40.3898869662
 11
44.0385423831
 21
59.4898869662
  0
LINE
  5
283
100
AcDbEntity
  8
0
100
AcDbLine
 62
7
  6
BYLAYER
 10
11.0385423831
 20
54.8898869662
 11
19.1385423831
 21
54.8898869662
  0
LINE
  5
284
100
AcDbEntity
  8
0
100
AcDbLine
 62
7
  6
BYLAYER
 10
35.9385423831
 20
54.8898869662
 11
44.0385423831
 21
54.8898869662
  0
LINE
  5
285
100
AcDbEntity
  8
0
100
AcDbLine
 62
7
  6
BYLAYER
 10
35.9385423831
 20
59.4898869662
 11
19.1385423831
 21
59.4898869662
  0
LINE
  5
286
100
AcDbEntity
  8
0
100
AcDbLine
 62
7
  6
BYLAYER
 10
16.6526570264
 20
59.4898869662
 11
11.0385423831
 21
59.4898869662
  0
LINE
  5
287
100
AcDbEntity
  8
0
100
AcDbLine
 62
7
  6
BYLAYER
 10
38.4244277399
 20
59.4898869662
 11
44.0385423831
 21
59.4898869662
  0
LINE
  5
288
100
AcDbEntity
  8
0
100
AcDbLine
 62
7
  6
BYLAYER
 10
31.0385417383
 20
10.5534529982
 11
31.28854215
 21
10.8034533695
  0
LINE
  5
289
100
AcDbEntity
  8
0
100
AcDbLine
 62
7
  6
BYLAYER
 10
13.7885423831
 20
60.4898869662
 11
41.2885423831
 21
60.4898869662
  0
LINE
  5
28A
100
AcDbEntity
  8
0
100
AcDbLine
 62
7
  6
BYLAYER
 10
36.3885423831
 20
70.0898869662
 11
36.8885423831
 21
69.5898869662
  0
LINE
  5
28B
100
AcDbEntity
  8
0
100
AcDbLine
 62
7
  6
BYLAYER
 10
18.1885423831
 20
69.5898869662
 11
36.8885423831
 21
69.5898869662
  0
LINE
  5
28C
100
AcDbEntity
  8
0
100
AcDbLine
 62
7
  6
BYLAYER
 10
18.6885423831
 20
70.0898869662
 11
36.3885423831
 21
70.0898869662
  0
ARC
  5
28D
100
AcDbEntity
  8
0
100
AcDbCircle
 62
7
  6
BYLAYER
 10
35.4885423831
 20
25.0534527558
 40
1.0
100
AcDbArc
 50
180.0
 51
270.0
  0
ARC
  5
28E
100
AcDbEntity
  8
0
100
AcDbCircle
 62
7
  6
BYLAYER
 10
19.4885423831
 20
25.0534527558
 40
1.0
100
AcDbArc
 50
270.0
 51
360.0
  0
ARC
  5
28F
100
AcDbEntity
  8
0
100
AcDbCircle
 62
7
  6
BYLAYER
 10
15.7885423831
 20
29.0898869662
 40
1.0
100
AcDbArc
 50
180.0
 51
270.0
  0
ARC
  5
290
100
AcDbEntity
  8
0
100
AcDbCircle
 62
7
  6
BYLAYER
 10
39.2885423831
 20
29.0898869662
 40
1.0
100
AcDbArc
 50
270.0
 51
360.0
  0
ARC
  5
291
100
AcDbEntity
  8
0
100
AcDbCircle
 62
7
  6
BYLAYER
 10
23.1884907823
 20
33.8839351686
 40
0.9352348536
100
AcDbArc
 50
264.4797007587
 51
270.0039757355
  0
ARC
  5
292
100
AcDbEntity
  8
0
100
AcDbCircle
 62
7
  6
BYLAYER
 10
31.7889346858
 20
33.8757245426
 40
0.9270243669
100
AcDbArc
 50
269.96830583
 51
275.5480176758
  0
ARC
  5
293
100
AcDbEntity
  8
0
100
AcDbCircle
 62
7
  6
BYLAYER
 10
23.1430818602
 20
33.6042160609
 40
0.6514595139
100
AcDbArc
 50
253.8378138063
 51
256.7843282173
  0
ARC
  5
294
100
AcDbEntity
  8
0
100
AcDbCircle
 62
7
  6
BYLAYER
 10
23.1197126982
 20
33.5222765823
 40
0.5662536199
100
AcDbArc
 50
251.1446974836
 51
253.801094829
  0
ARC
  5
295
100
AcDbEntity
  8
0
100
AcDbCircle
 62
7
  6
BYLAYER
 10
11.5385423831
 20
40.3898869662
 40
0.5
100
AcDbArc
 50
180.0
 51
270.0
  0
ARC
  5
296
100
AcDbEntity
  8
0
100
AcDbCircle
 62
7
  6
BYLAYER
 10
43.5385423831
 20
40.3898869662
 40
0.5
100
AcDbArc
 50
270.0
 51
360.0
  0
ARC
  5
297
100
AcDbEntity
  8
0
100
AcDbCircle
 62
7
  6
BYLAYER
 10
34.2885423831
 20
29.7586638356
 40
0.2
100
AcDbArc
 50
0.0
 51
90.0
  0
ARC
  5
298
100
AcDbEntity
  8
0
100
AcDbCircle
 62
7
  6
BYLAYER
 10
35.7885423831
 20
23.8534527558
 40
0.2
100
AcDbArc
 50
0.0
 51
90.0
  0
ARC
  5
299
100
AcDbEntity
  8
0
100
AcDbCircle
 62
7
  6
BYLAYER
 10
35.7885423831
 20
8.2534527558
 40
0.2
100
AcDbArc
 50
270.0
 51
360.0
  0
ARC
  5
29A
100
AcDbEntity
  8
0
100
AcDbCircle
 62
7
  6
BYLAYER
 10
20.6885423831
 20
29.7586638356
 40
0.2
100
AcDbArc
 50
90.0
 51
180.0
  0
ARC
  5
29B
100
AcDbEntity
  8
0
100
AcDbCircle
 62
7
  6
BYLAYER
 10
19.1885423831
 20
23.8534527558
 40
0.2
100
AcDbArc
 50
90.0
 51
180.0
  0
ARC
  5
29C
100
AcDbEntity
  8
0
100
AcDbCircle
 62
7
  6
BYLAYER
 10
19.1885423831
 20
8.2534527558
 40
0.2
100
AcDbArc
 50
180.0
 51
270.0
  0
ARC
  5
29D
100
AcDbEntity
  8
0
100
AcDbCircle
 62
7
  6
BYLAYER
 10
22.9885423831
 20
8.2534527558
 40
0.2
100
AcDbArc
 50
270.0
 51
360.0
  0
ARC
  5
29E
100
AcDbEntity
  8
0
100
AcDbCircle
 62
7
  6
BYLAYER
 10
34.7885423831
 20
28.2898869662
 40
0.2
100
AcDbArc
 50
270.0
 51
360.0
  0
ARC
  5
29F
100
AcDbEntity
  8
0
100
AcDbCircle
 62
7
  6
BYLAYER
 10
20.1885423831
 20
28.2898869662
 40
0.2
100
AcDbArc
 50
180.0
 51
270.0
  0
ARC
  5
2A0
100
AcDbEntity
  8
0
100
AcDbCircle
 62
7
  6
BYLAYER
 10
31.9885423831
 20
8.2534527558
 40
0.2
100
AcDbArc
 50
180.0
 51
270.0
  0
SPLINE
  5
2A1
100
AcDbEntity
  8
0
100
AcDbSpline
 62
7
  6
BYLAYER
 70
0
 71
3
 72
9
 73
5
 74
0
 42
0.0000001
 43
0.0000001
 44
0.0000000001
 40
0.0
 40
0.0
 40
0.0
 40
0.0
 40
0.2269936207
 40
1.0
 40
1.0
 40
1.0
 40
1.0
 10
31.9751932176
 20
32.9942283419
 30
0.0
 10
31.9716064833
 20
32.9930051798
 30
0.0
 10
31.9557086454
 20
32.9879020573
 30
0.0
 10
31.9394904881
 20
32.9838220976
 30
0.0
 10
31.9268689383
 20
32.9811321279
 30
0.0
  0
SPLINE
  5
2A2
100
AcDbEntity
  8
0
100
AcDbSpline
 62
7
  6
BYLAYER
 70
0
 71
3
 72
9
 73
5
 74
0
 42
0.0000001
 43
0.0000001
 44
0.0000000001
 40
0.0
 40
0.0
 40
0.0
 40
0.0
 40
0.4806339934
 40
1.0
 40
1.0
 40
1.0
 40
1.0
 10
31.9268689383
 20
32.9811321279
 30
0.0
 10
31.9050593832
 20
32.9764839633
 30
0.0
 10
31.8590602064
 20
32.9696620459
 30
0.0
 10
31.812638759
 20
32.9674387599
 30
0.0
 10
31.7885423831
 20
32.9674387599
 30
0.0
  0
SPLINE
  5
2A3
100
AcDbEntity
  8
0
100
AcDbSpline
 62
7
  6
BYLAYER
 70
0
 71
3
 72
9
 73
5
 74
0
 42
0.0000001
 43
0.0000001
 44
0.0000000001
 40
0.0
 40
0.0
 40
0.0
 40
0.0
 40
0.2270146877
 40
1.0
 40
1.0
 40
1.0
 40
1.0
 10
23.0019185909
 20
32.9942191212
 30
0.0
 10
23.0055036821
 20
32.9929968823
 30
0.0
 10
23.021392634
 20
32.9878978753
 30
0.0
 10
23.0376013896
 20
32.9838205969
 30
0.0
 10
23.0502152497
 20
32.981132251
 30
0.0
  0
SPLINE
  5
2A4
100
AcDbEntity
  8
0
100
AcDbSpline
 62
7
  6
BYLAYER
 70
0
 71
3
 72
9
 73
5
 74
0
 42
0.0000001
 43
0.0000001
 44
0.0000000001
 40
0.0
 40
0.0
 40
0.0
 40
0.0
 40
0.4806337928
 40
1.0
 40
1.0
 40
1.0
 40
1.0
 10
23.0502152497
 20
32.981132251
 30
0.0
 10
23.0720248829
 20
32.9764840438
 30
0.0
 10
23.1180242513
 20
32.9696620655
 30
0.0
 10
23.1644458957
 20
32.9674387599
 30
0.0
 10
23.1885423831
 20
32.9674387599
 30
0.0
  0
SPLINE
  5
2A5
100
AcDbEntity
  8
0
100
AcDbSpline
 62
7
  6
BYLAYER
 70
0
 71
3
 72
9
 73
5
 74
0
 42
0.0000001
 43
0.0000001
 44
0.0000000001
 40
0.0
 40
0.0
 40
0.0
 40
0.0
 40
0.4946298724
 40
1.0
 40
1.0
 40
1.0
 40
1.0
 10
20.4885423831
 20
29.5183705556
 30
0.0
 10
20.4885423831
 20
29.5425633064
 30
0.0
 10
20.499197505
 20
29.5920109739
 30
0.0
 10
20.5289952535
 20
29.6326882294
 30
0.0
 10
20.5471210269
 20
29.6494941538
 30
0.0
  0
SPLINE
  5
2A6
100
AcDbEntity
  8
0
100
AcDbSpline
 62
7
  6
BYLAYER
 70
0
 71
3
 72
9
 73
5
 74
0
 42
0.0000001
 43
0.0000001
 44
0.0000000001
 40
0.0
 40
0.0
 40
0.0
 40
0.0
 40
0.4951345549
 40
1.0
 40
1.0
 40
1.0
 40
1.0
 10
20.5471210269
 20
29.6494941538
 30
0.0
 10
20.5657780019
 20
29.6667925998
 30
0.0
 10
20.6107642822
 20
29.6944446747
 30
0.0
 10
20.6625998983
 20
29.7038073266
 30
0.0
 10
20.6885423831
 20
29.7038073266
 30
0.0
  0
SPLINE
  5
2A7
100
AcDbEntity
  8
0
100
AcDbSpline
 62
7
  6
BYLAYER
 70
0
 71
3
 72
14
 73
10
 74
0
 42
0.0000001
 43
0.0000001
 44
0.0000000001
 40
0.0
 40
0.0
 40
0.0
 40
0.0
 40
0.3357714154
 40
0.4903361914
 40
0.6294793663
 40
0.7498955986
 40
0.8501003467
 40
0.9313532437
 40
1.0
 40
1.0
 40
1.0
 40
1.0
 10
31.9885423831
 20
19.1793017837
 30
0.0
 10
31.9629532158
 20
19.1793017837
 30
0.0
 10
31.9254665469
 20
19.1766035516
 30
0.0
 10
31.8784169938
 20
19.1669711671
 30
0.0
 10
31.8482287998
 20
19.1575298081
 30
0.0
 10
31.8232445234
 20
19.1460018207
 30
0.0
 10
31.8042268377
 20
19.1327575885
 30
0.0
 10
31.7917862176
 20
19.1178737479
 30
0.0
 10
31.7885423831
 20
19.106387133
 30
0.0
 10
31.7885423831
 20
19.101155558
 30
0.0
  0
SPLINE
  5
2A8
100
AcDbEntity
  8
0
100
AcDbSpline
 62
7
  6
BYLAYER
 70
0
 71
3
 72
12
 73
8
 74
0
 42
0.0000001
 43
0.0000001
 44
0.0000000001
 40
0.0
 40
0.0
 40
0.0
 40
0.0
 40
0.2382488885
 40
0.3603671732
 40
0.4846148834
 40
0.7390938533
 40
1.0
 40
1.0
 40
1.0
 40
1.0
 10
20.4885423831
 20
32.8051478399
 30
0.0
 10
20.4885423831
 20
32.8288201081
 30
0.0
 10
20.4966575317
 20
32.8651711912
 30
0.0
 10
20.521396505
 20
32.9067578201
 30
0.0
 10
20.5550467145
 20
32.9438522621
 30
0.0
 10
20.6109541638
 20
32.977295477
 30
0.0
 10
20.6626189032
 20
32.9864093973
 30
0.0
 10
20.6885423831
 20
32.9864093973
 30
0.0
  0
SPLINE
  5
2A9
100
AcDbEntity
  8
0
100
AcDbSpline
 62
7
  6
BYLAYER
 70
0
 71
3
 72
9
 73
5
 74
0
 42
0.0000001
 43
0.0000001
 44
0.0000000001
 40
0.0
 40
0.0
 40
0.0
 40
0.0
 40
0.4803054935
 40
1.0
 40
1.0
 40
1.0
 40
1.0
 10
31.9927436602
 20
32.9824687104
 30
0.0
 10
31.9966157549
 20
32.998755302
 30
0.0
 10
32.0104084294
 20
33.0314716541
 30
0.0
 10
32.0334711368
 20
33.0584118324
 30
0.0
 10
32.0471205892
 20
33.0703193251
 30
0.0
  0
SPLINE
  5
2AA
100
AcDbEntity
  8
0
100
AcDbSpline
 62
7
  6
BYLAYER
 70
0
 71
3
 72
9
 73
5
 74
0
 42
0.0000001
 43
0.0000001
 44
0.0000000001
 40
0.0
 40
0.0
 40
0.0
 40
0.0
 40
0.5111313034
 40
1.0
 40
1.0
 40
1.0
 40
1.0
 10
32.0471205892
 20
33.0703193251
 30
0.0
 10
32.0667358937
 20
33.0874313006
 30
0.0
 10
32.1123853226
 20
33.1131356355
 30
0.0
 10
32.1636457856
 20
33.121430958
 30
0.0
 10
32.1885423831
 20
33.1214307146
 30
0.0
  0
SPLINE
  5
2AB
100
AcDbEntity
  8
0
100
AcDbSpline
 62
7
  6
BYLAYER
 70
0
 71
3
 72
9
 73
5
 74
0
 42
0.0000001
 43
0.0000001
 44
0.0000000001
 40
0.0
 40
0.0
 40
0.0
 40
0.0
 40
0.2576930454
 40
1.0
 40
1.0
 40
1.0
 40
1.0
 10
23.098522682
 20
32.953037767
 30
0.0
 10
23.0894785358
 20
32.9539198869
 30
0.0
 10
23.0544390702
 20
32.9578849036
 30
0.0
 10
23.019628231
 20
32.9640182768
 30
0.0
 10
22.994147037
 20
32.9700095356
 30
0.0
  0
SPLINE
  5
2AC
100
AcDbEntity
  8
0
100
AcDbSpline
 62
7
  6
BYLAYER
 70
0
 71
3
 72
9
 73
5
 74
0
 42
0.0000001
 43
0.0000001
 44
0.0000000001
 40
0.0
 40
0.0
 40
0.0
 40
0.0
 40
0.2391057589
 40
1.0
 40
1.0
 40
1.0
 40
1.0
 10
32.0403509065
 20
32.9864093975
 30
0.0
 10
32.0343839777
 20
32.9843659173
 30
0.0
 10
32.0092735088
 20
32.9762753329
 30
0.0
 10
31.9836269598
 20
32.9698880854
 30
0.0
 10
31.9639701633
 20
32.9658320372
 30
0.0
  0
SPLINE
  5
2AD
100
AcDbEntity
  8
0
100
AcDbSpline
 62
7
  6
BYLAYER
 70
0
 71
3
 72
9
 73
5
 74
0
 42
0.0000001
 43
0.0000001
 44
0.0000000001
 40
0.0
 40
0.0
 40
0.0
 40
0.0
 40
0.2436999106
 40
1.0
 40
1.0
 40
1.0
 40
1.0
 10
31.9639701633
 20
32.9658320372
 30
0.0
 10
31.9570975201
 20
32.9644139133
 30
0.0
 10
31.9288128455
 20
32.9590032712
 30
0.0
 10
31.9002343854
 20
32.9551572123
 30
0.0
 10
31.8785593339
 20
32.9530427993
 30
0.0
  0
SPLINE
  5
2AE
100
AcDbEntity
  8
0
100
AcDbSpline
 62
7
  6
BYLAYER
 70
0
 71
3
 72
15
 73
11
 74
0
 42
0.0000001
 43
0.0000001
 44
0.0000000001
 40
0.0
 40
0.0
 40
0.0
 40
0.0
 40
0.0728069898
 40
0.1568474457
 40
0.2582157478
 40
0.3786151563
 40
0.51661961
 40
0.669134748
 40
0.8320901151
 40
1.0
 40
1.0
 40
1.0
 40
1.0
 10
22.7885423831
 20
32.1034314875
 30
0.0
 10
22.7885423831
 20
32.1147134248
 30
0.0
 10
22.7947861766
 20
32.1391913974
 30
0.0
 10
22.8195714041
 20
32.171486743
 30
0.0
 10
22.8576469795
 20
32.2003177391
 30
0.0
 10
22.9077331927
 20
32.2253082739
 30
0.0
 10
22.9681753456
 20
32.245813769
 30
0.0
 10
23.0368959161
 20
32.2610413005
 30
0.0
 10
23.1113046783
 20
32.2703942595
 30
0.0
 10
23.1626000567
 20
32.2725110983
 30
0.0
 10
23.1886188331
 20
32.2725110983
 30
0.0
  0
SPLINE
  5
2AF
100
AcDbEntity
  8
0
100
AcDbSpline
 62
7
  6
BYLAYER
 70
0
 71
3
 72
15
 73
11
 74
0
 42
0.0000001
 43
0.0000001
 44
0.0000000001
 40
0.0
 40
0.0
 40
0.0
 40
0.0
 40
0.1679098781
 40
0.3308652171
 40
0.4833801196
 40
0.6213843647
 40
0.7417838337
 40
0.8431523778
 40
0.9271930284
 40
1.0
 40
1.0
 40
1.0
 40
1.0
 10
31.7884698235
 20
32.2725110983
 30
0.0
 10
31.8144883214
 20
32.2725110983
 30
0.0
 10
31.8657831471
 20
32.2703942117
 30
0.0
 10
31.940191056
 20
32.2610412052
 30
0.0
 10
32.0089107831
 20
32.245813677
 30
0.0
 10
32.0693521999
 20
32.2253083328
 30
0.0
 10
32.1194379023
 20
32.2003180877
 30
0.0
 10
32.1575132165
 20
32.1714874952
 30
0.0
 10
32.1822985029
 20
32.1391926716
 30
0.0
 10
32.1885423831
 20
32.1147149378
 30
0.0
 10
32.1885423831
 20
32.1034331236
 30
0.0
  0
SPLINE
  5
2B0
100
AcDbEntity
  8
0
100
AcDbSpline
 62
7
  6
BYLAYER
 70
0
 71
3
 72
14
 73
10
 74
0
 42
0.0000001
 43
0.0000001
 44
0.0000000001
 40
0.0
 40
0.0
 40
0.0
 40
0.0
 40
0.3357714154
 40
0.4903361914
 40
0.6294793663
 40
0.7498955986
 40
0.8501003467
 40
0.9313532437
 40
1.0
 40
1.0
 40
1.0
 40
1.0
 10
34.2885423831
 20
28.4372450478
 30
0.0
 10
34.3141315504
 20
28.4372450478
 30
0.0
 10
34.3516182194
 20
28.4345468157
 30
0.0
 10
34.3986677724
 20
28.4249144312
 30
0.0
 10
34.4288559665
 20
28.4154730722
 30
0.0
 10
34.4538402428
 20
28.4039450848
 30
0.0
 10
34.4728579286
 20
28.3907008526
 30
0.0
 10
34.4852985487
 20
28.375817012
 30
0.0
 10
34.4885423831
 20
28.3643303971
 30
0.0
 10
34.4885423831
 20
28.3590988221
 30
0.0
  0
SPLINE
  5
2B1
100
AcDbEntity
  8
0
100
AcDbSpline
 62
7
  6
BYLAYER
 70
0
 71
3
 72
12
 73
8
 74
0
 42
0.0000001
 43
0.0000001
 44
0.0000000001
 40
0.0
 40
0.0
 40
0.0
 40
0.0
 40
0.2409163324
 40
0.3638174461
 40
0.4883187129
 40
0.741675175
 40
1.0
 40
1.0
 40
1.0
 40
1.0
 10
34.4885423831
 20
28.3590988221
 30
0.0
 10
34.4885423831
 20
28.3832919989
 30
0.0
 10
34.4804833936
 20
28.4203739968
 30
0.0
 10
34.4557346206
 20
28.4629859578
 30
0.0
 10
34.4221772853
 20
28.5008638122
 30
0.0
 10
34.3663452026
 20
28.535148181
 30
0.0
 10
34.3144837467
 20
28.544535593
 30
0.0
 10
34.2885423831
 20
28.544535593
 30
0.0
  0
SPLINE
  5
2B2
100
AcDbEntity
  8
0
100
AcDbSpline
 62
7
  6
BYLAYER
 70
0
 71
3
 72
14
 73
10
 74
0
 42
0.0000001
 43
0.0000001
 44
0.0000000001
 40
0.0
 40
0.0
 40
0.0
 40
0.0
 40
0.3228991747
 40
0.4827242174
 40
0.6294720813
 40
0.7552968816
 40
0.8571615711
 40
0.9360438678
 40
1.0
 40
1.0
 40
1.0
 40
1.0
 10
34.2885423831
 20
23.3123532815
 30
0.0
 10
34.3131486678
 20
23.3123522673
 30
0.0
 10
34.3500445152
 20
23.3098171019
 30
0.0
 10
34.3971314588
 20
23.300402651
 30
0.0
 10
34.4287162197
 20
23.2907268768
 30
0.0
 10
34.4546592155
 20
23.2785836887
 30
0.0
 10
34.4738565993
 20
23.2649382129
 30
0.0
 10
34.4856718914
 20
23.250046157
 30
0.0
 10
34.488511329
 20
23.2390906595
 30
0.0
 10
34.4885113318
 20
23.2342169313
 30
0.0
  0
SPLINE
  5
2B3
100
AcDbEntity
  8
0
100
AcDbSpline
 62
7
  6
BYLAYER
 70
0
 71
3
 72
14
 73
10
 74
0
 42
0.0000001
 43
0.0000001
 44
0.0000000001
 40
0.0
 40
0.0
 40
0.0
 40
0.0
 40
0.2542038441
 40
0.3802674611
 40
0.5056018351
 40
0.63019866
 40
0.7540748232
 40
0.8772954123
 40
1.0
 40
1.0
 40
1.0
 40
1.0
 10
35.4208855158
 20
19.3746327368
 30
0.0
 10
35.3103088752
 20
19.6939195264
 30
0.0
 10
35.1452877816
 20
20.1717225663
 30
0.0
 10
34.9407280615
 20
20.8119341425
 30
0.0
 10
34.8001358422
 20
21.2916029779
 30
0.0
 10
34.6768006646
 20
21.7730546384
 30
0.0
 10
34.5766458304
 20
22.2571163214
 30
0.0
 10
34.5073294817
 20
22.7441160407
 30
0.0
 10
34.4885337513
 20
23.0711184736
 30
0.0
 10
34.4885423831
 20
23.2342196371
 30
0.0
  0
LINE
  5
2B4
100
AcDbEntity
  8
0
100
AcDbLine
 62
7
  6
BYLAYER
 10
35.4885423831
 20
19.1793017837
 11
35.4208855158
 21
19.3746327368
  0
SPLINE
  5
2B5
100
AcDbEntity
  8
0
100
AcDbSpline
 62
7
  6
BYLAYER
 70
0
 71
3
 72
14
 73
10
 74
0
 42
0.0000001
 43
0.0000001
 44
0.0000000001
 40
0.0
 40
0.0
 40
0.0
 40
0.0
 40
0.0686467563
 40
0.1498996533
 40
0.2501044014
 40
0.3705206337
 40
0.5096638086
 40
0.6642285846
 40
1.0
 40
1.0
 40
1.0
 40
1.0
 10
23.1885423831
 20
19.101155558
 30
0.0
 10
23.1885423831
 20
19.106387133
 30
0.0
 10
23.1852985487
 20
19.1178737479
 30
0.0
 10
23.1728579286
 20
19.1327575885
 30
0.0
 10
23.1538402428
 20
19.1460018207
 30
0.0
 10
23.1288559665
 20
19.1575298081
 30
0.0
 10
23.0986677724
 20
19.1669711671
 30
0.0
 10
23.0516182194
 20
19.1766035516
 30
0.0
 10
23.0141315504
 20
19.1793017837
 30
0.0
 10
22.9885423831
 20
19.1793017837
 30
0.0
  0
SPLINE
  5
2B6
100
AcDbEntity
  8
0
100
AcDbSpline
 62
7
  6
BYLAYER
 70
0
 71
3
 72
8
 73
4
 74
0
 42
0.0000001
 43
0.0000001
 44
0.0000000001
 40
0.0
 40
0.0
 40
0.0
 40
0.0
 40
1.0
 40
1.0
 40
1.0
 40
1.0
 10
23.2378336709
 20
19.9081048719
 30
0.0
 10
23.2544285083
 20
19.9368082832
 30
0.0
 10
23.2701397632
 20
19.9660142803
 30
0.0
 10
23.2860711882
 20
19.9950911464
 30
0.0
  0
SPLINE
  5
2B7
100
AcDbEntity
  8
0
100
AcDbSpline
 62
7
  6
BYLAYER
 70
0
 71
3
 72
9
 73
5
 74
0
 42
0.0000001
 43
0.0000001
 44
0.0000000001
 40
0.0
 40
0.0
 40
0.0
 40
0.0
 40
0.5187564245
 40
1.0
 40
1.0
 40
1.0
 40
1.0
 10
23.2111149969
 20
19.9130149221
 30
0.0
 10
23.218670264
 20
19.9443316396
 30
0.0
 10
23.2373844016
 20
20.0037217714
 30
0.0
 10
23.2674083686
 20
20.0591426633
 30
0.0
 10
23.2861755126
 20
20.0824008756
 30
0.0
  0
SPLINE
  5
2B8
100
AcDbEntity
  8
0
100
AcDbSpline
 62
7
  6
BYLAYER
 70
0
 71
3
 72
14
 73
10
 74
0
 42
0.0000001
 43
0.0000001
 44
0.0000000001
 40
0.0
 40
0.0
 40
0.0
 40
0.0
 40
0.3242414269
 40
0.4672062285
 40
0.6056905881
 40
0.7323426819
 40
0.8404965206
 40
0.9279080867
 40
1.0
 40
1.0
 40
1.0
 40
1.0
 10
22.9885423832
 20
26.3190024664
 30
0.0
 10
23.0132510042
 20
26.3190008143
 30
0.0
 10
23.0489568051
 20
26.3165100063
 30
0.0
 10
23.0943060798
 20
26.3076979502
 30
0.0
 10
23.1242015663
 20
26.298927396
 30
0.0
 10
23.1504261567
 20
26.2876427436
 30
0.0
 10
23.1710784303
 20
26.2740664947
 30
0.0
 10
23.1849407833
 20
26.2585777807
 30
0.0
 10
23.1885373614
 20
26.2463498373
 30
0.0
 10
23.1885417635
 20
26.2408561186
 30
0.0
  0
SPLINE
  5
2B9
100
AcDbEntity
  8
0
100
AcDbSpline
 62
7
  6
BYLAYER
 70
0
 71
3
 72
9
 73
5
 74
0
 42
0.0000001
 43
0.0000001
 44
0.0000000001
 40
0.0
 40
0.0
 40
0.0
 40
0.0
 40
0.5048654451
 40
1.0
 40
1.0
 40
1.0
 40
1.0
 10
34.2885423831
 20
29.7038073266
 30
0.0
 10
34.314484868
 20
29.7038073266
 30
0.0
 10
34.3663204841
 20
29.6944446747
 30
0.0
 10
34.4113067644
 20
29.6667925998
 30
0.0
 10
34.4299637394
 20
29.6494941538
 30
0.0
  0
SPLINE
  5
2BA
100
AcDbEntity
  8
0
100
AcDbSpline
 62
7
  6
BYLAYER
 70
0
 71
3
 72
9
 73
5
 74
0
 42
0.0000001
 43
0.0000001
 44
0.0000000001
 40
0.0
 40
0.0
 40
0.0
 40
0.0
 40
0.5053701276
 40
1.0
 40
1.0
 40
1.0
 40
1.0
 10
34.4299637394
 20
29.6494941538
 30
0.0
 10
34.4480895128
 20
29.6326882294
 30
0.0
 10
34.4778872612
 20
29.5920109739
 30
0.0
 10
34.4885423831
 20
29.5425633064
 30
0.0
 10
34.4885423831
 20
29.5183705556
 30
0.0
  0
SPLINE
  5
2BB
100
AcDbEntity
  8
0
100
AcDbSpline
 62
7
  6
BYLAYER
 70
0
 71
3
 72
14
 73
10
 74
0
 42
0.0000001
 43
0.0000001
 44
0.0000000001
 40
0.0
 40
0.0
 40
0.0
 40
0.0
 40
0.0720904291
 40
0.1595044116
 40
0.2676555471
 40
0.3943082392
 40
0.5327929417
 40
0.6757584154
 40
1.0
 40
1.0
 40
1.0
 40
1.0
 10
31.7885434586
 20
26.2408559946
 30
0.0
 10
31.7885489779
 20
26.2463495957
 30
0.0
 10
31.7921422269
 20
26.2585781632
 30
0.0
 10
31.806007454
 20
26.2740653465
 30
0.0
 10
31.8266580813
 20
26.2876429586
 30
0.0
 10
31.8528831469
 20
26.2989269662
 30
0.0
 10
31.8827785415
 20
26.3076977362
 30
0.0
 10
31.9281279513
 20
26.3165097188
 30
0.0
 10
31.9638337658
 20
26.319000505
 30
0.0
 10
31.9885423832
 20
26.3190021598
 30
0.0
  0
SPLINE
  5
2BC
100
AcDbEntity
  8
0
100
AcDbSpline
 62
7
  6
BYLAYER
 70
0
 71
3
 72
12
 73
8
 74
0
 42
0.0000001
 43
0.0000001
 44
0.0000000001
 40
0.0
 40
0.0
 40
0.0
 40
0.0
 40
0.2609061467
 40
0.5153851166
 40
0.6396328268
 40
0.7617511115
 40
1.0
 40
1.0
 40
1.0
 40
1.0
 10
34.2885423831
 20
32.9864093973
 30
0.0
 10
34.3144658631
 20
32.9864093973
 30
0.0
 10
34.3661306024
 20
32.977295477
 30
0.0
 10
34.4220380518
 20
32.9438522621
 30
0.0
 10
34.4556882613
 20
32.9067578201
 30
0.0
 10
34.4804272346
 20
32.8651711912
 30
0.0
 10
34.4885423831
 20
32.8288201081
 30
0.0
 10
34.4885423831
 20
32.8051478399
 30
0.0
  0
SPLINE
  5
2BD
100
AcDbEntity
  8
0
100
AcDbSpline
 62
7
  6
BYLAYER
 70
0
 71
3
 72
16
 73
12
 74
0
 42
0.0000001
 43
0.0000001
 44
0.0000000001
 40
0.0
 40
0.0
 40
0.0
 40
0.0
 40
0.2421426658
 40
0.3643182959
 40
0.4258228604
 40
0.4876953427
 40
0.5500009382
 40
0.6127715047
 40
0.7397496923
 40
0.8690543464
 40
1.0
 40
1.0
 40
1.0
 40
1.0
 10
31.9885423831
 20
26.3190023225
 30
0.0
 10
31.9885433471
 20
26.3770705591
 30
0.0
 10
31.9770835081
 20
26.4650330147
 30
0.0
 10
31.9434060786
 20
26.5617524774
 30
0.0
 10
31.9175742393
 20
26.6147525362
 30
0.0
 10
31.8944940469
 20
26.6529045816
 30
0.0
 10
31.8678521398
 20
26.6890442957
 30
0.0
 10
31.827630166
 20
26.7342519682
 30
0.0
 10
31.7679077216
 20
26.7832249841
 30
0.0
 10
31.6827500876
 20
26.8229032879
 30
0.0
 10
31.6199444625
 20
26.8322342421
 30
0.0
 10
31.5885423831
 20
26.8322354227
 30
0.0
  0
SPLINE
  5
2BE
100
AcDbEntity
  8
0
100
AcDbSpline
 62
7
  6
BYLAYER
 70
0
 71
3
 72
12
 73
8
 74
0
 42
0.0000001
 43
0.0000001
 44
0.0000000001
 40
0.0
 40
0.0
 40
0.0
 40
0.0
 40
0.1251088878
 40
0.2500932639
 40
0.4998274173
 40
0.7497627237
 40
1.0
 40
1.0
 40
1.0
 40
1.0
 10
20.6885838115
 20
23.3123583211
 30
0.0
 10
20.6885632104
 20
23.1317386399
 30
0.0
 10
20.6652429923
 20
22.7704508125
 30
0.0
 10
20.5458020117
 20
22.0579950727
 30
0.0
 10
20.2979934194
 20
21.188420122
 30
0.0
 10
19.9138930824
 20
20.1757553836
 30
0.0
 10
19.6301600666
 20
19.5116549862
 30
0.0
 10
19.4885423831
 20
19.1793017837
 30
0.0
  0
SPLINE
  5
2BF
100
AcDbEntity
  8
0
100
AcDbSpline
 62
7
  6
BYLAYER
 70
0
 71
3
 72
12
 73
8
 74
0
 42
0.0000001
 43
0.0000001
 44
0.0000000001
 40
0.0
 40
0.0
 40
0.0
 40
0.0
 40
0.2502328008
 40
0.500155397
 40
0.749883659
 40
0.8749007284
 40
1.0
 40
1.0
 40
1.0
 40
1.0
 10
35.4885423831
 20
19.1793017837
 30
0.0
 10
35.3469270256
 20
19.5116492503
 30
0.0
 10
35.0632042494
 20
20.1757270756
 30
0.0
 10
34.6791029799
 20
21.1883586796
 30
0.0
 10
34.4313201921
 20
22.057959945
 30
0.0
 10
34.3118041216
 20
22.7704262945
 30
0.0
 10
34.2884709944
 20
23.1317523968
 30
0.0
 10
34.2884973834
 20
23.3123583306
 30
0.0
  0
SPLINE
  5
2C0
100
AcDbEntity
  8
0
100
AcDbSpline
 62
7
  6
BYLAYER
 70
0
 71
3
 72
16
 73
12
 74
0
 42
0.0000001
 43
0.0000001
 44
0.0000000001
 40
0.0
 40
0.0
 40
0.0
 40
0.0
 40
0.2421484535
 40
0.3643211376
 40
0.4258261015
 40
0.4876969761
 40
0.5500004248
 40
0.6127687226
 40
0.7397472581
 40
0.8690523166
 40
1.0
 40
1.0
 40
1.0
 40
1.0
 10
22.9885423831
 20
26.3190023225
 30
0.0
 10
22.988546417
 20
26.3770719635
 30
0.0
 10
22.9999977485
 20
26.4650349755
 30
0.0
 10
23.0336749537
 20
26.5617566096
 30
0.0
 10
23.0595141319
 20
26.6147519788
 30
0.0
 10
23.0825951792
 20
26.6529024029
 30
0.0
 10
23.1092348616
 20
26.6890418242
 30
0.0
 10
23.1494492721
 20
26.7342547175
 30
0.0
 10
23.2091722165
 20
26.7832298297
 30
0.0
 10
23.2943356029
 20
26.8228929322
 30
0.0
 10
23.3571398078
 20
26.8322368099
 30
0.0
 10
23.3885423828
 20
26.8322354227
 30
0.0
  0
SPLINE
  5
2C1
100
AcDbEntity
  8
0
100
AcDbSpline
 62
7
  6
BYLAYER
 70
0
 71
3
 72
12
 73
8
 74
0
 42
0.0000001
 43
0.0000001
 44
0.0000000001
 40
0.0
 40
0.0
 40
0.0
 40
0.0
 40
0.3130485435
 40
0.5794692187
 40
0.8017292319
 40
0.902258905
 40
1.0
 40
1.0
 40
1.0
 40
1.0
 10
32.0403762954
 20
32.9864093974
 30
0.0
 10
32.0615073731
 20
32.9933032173
 30
0.0
 10
32.0999174468
 20
33.0086178531
 30
0.0
 10
32.1482649387
 20
33.0394850884
 30
0.0
 10
32.1760544938
 20
33.0722179667
 30
0.0
 10
32.1867883316
 20
33.1003564582
 30
0.0
 10
32.1885442278
 20
33.1144913379
 30
0.0
 10
32.1885423831
 20
33.1214311821
 30
0.0
  0
SPLINE
  5
2C2
100
AcDbEntity
  8
0
100
AcDbSpline
 62
7
  6
BYLAYER
 70
0
 71
3
 72
16
 73
12
 74
0
 42
0.0000001
 43
0.0000001
 44
0.0000000001
 40
0.0
 40
0.0
 40
0.0
 40
0.0
 40
0.0484939626
 40
0.0985145613
 40
0.1511184499
 40
0.2064772093
 40
0.324531065
 40
0.451648624
 40
0.5842392189
 40
0.7206526569
 40
1.0
 40
1.0
 40
1.0
 40
1.0
 10
31.5885423832
 20
20.1411790991
 30
0.0
 10
31.596768861
 20
20.1411794702
 30
0.0
 10
31.6135447594
 20
20.1388206728
 30
0.0
 10
31.6374958567
 20
20.129151774
 30
0.0
 10
31.6600003886
 20
20.1143293681
 30
0.0
 10
31.6882444202
 20
20.088188656
 30
0.0
 10
31.7177780099
 20
20.0459873383
 30
0.0
 10
31.744475113
 20
19.9875245552
 30
0.0
 10
31.7646313641
 20
19.9232618334
 30
0.0
 10
31.7831930198
 20
19.8320024894
 30
0.0
 10
31.7883805179
 20
19.761286572
 30
0.0
 10
31.7885370769
 20
19.7138985663
 30
0.0
  0
SPLINE
  5
2C3
100
AcDbEntity
  8
0
100
AcDbSpline
 62
7
  6
BYLAYER
 70
0
 71
3
 72
12
 73
8
 74
0
 42
0.0000001
 43
0.0000001
 44
0.0000000001
 40
0.0
 40
0.0
 40
0.0
 40
0.0
 40
0.0977400508
 40
0.1982694444
 40
0.4205283154
 40
0.68695153
 40
1.0
 40
1.0
 40
1.0
 40
1.0
 10
22.7885423831
 20
33.1214311821
 30
0.0
 10
22.788540322
 20
33.1144913811
 30
0.0
 10
22.7902957466
 20
33.1003564871
 30
0.0
 10
22.801028516
 20
33.0722176003
 30
0.0
 10
22.8288184391
 20
33.0394843264
 30
0.0
 10
22.8771671285
 20
33.0086183835
 30
0.0
 10
22.915577357
 20
32.9933034103
 30
0.0
 10
22.9367084708
 20
32.9864093973
 30
0.0
  0
SPLINE
  5
2C4
100
AcDbEntity
  8
0
100
AcDbSpline
 62
7
  6
BYLAYER
 70
0
 71
3
 72
9
 73
5
 74
0
 42
0.0000001
 43
0.0000001
 44
0.0000000001
 40
0.0
 40
0.0
 40
0.0
 40
0.0
 40
0.4804026853
 40
1.0
 40
1.0
 40
1.0
 40
1.0
 10
22.9842596274
 20
32.9828090333
 30
0.0
 10
22.9803631853
 20
32.9990362692
 30
0.0
 10
22.9665614893
 20
33.0316160853
 30
0.0
 10
22.9435659379
 20
33.0584526939
 30
0.0
 10
22.9299642312
 20
33.0703185164
 30
0.0
  0
SPLINE
  5
2C5
100
AcDbEntity
  8
0
100
AcDbSpline
 62
7
  6
BYLAYER
 70
0
 71
3
 72
9
 73
5
 74
0
 42
0.0000001
 43
0.0000001
 44
0.0000000001
 40
0.0
 40
0.0
 40
0.0
 40
0.0
 40
0.5111310971
 40
1.0
 40
1.0
 40
1.0
 40
1.0
 10
22.9299642312
 20
33.0703185164
 30
0.0
 10
22.9103489261
 20
33.0874304668
 30
0.0
 10
22.8646994613
 20
33.1131347337
 30
0.0
 10
22.8134389859
 20
33.1214299334
 30
0.0
 10
22.7885423832
 20
33.1214296282
 30
0.0
  0
SPLINE
  5
2C6
100
AcDbEntity
  8
0
100
AcDbSpline
 62
7
  6
BYLAYER
 70
0
 71
3
 72
9
 73
5
 74
0
 42
0.0000001
 43
0.0000001
 44
0.0000000001
 40
0.0
 40
0.0
 40
0.0
 40
0.0
 40
0.7472430556
 40
1.0
 40
1.0
 40
1.0
 40
1.0
 10
31.9756696434
 20
32.9943299584
 30
0.0
 10
31.9826828022
 20
32.9967310909
 30
0.0
 10
31.9927213918
 20
32.9983515055
 30
0.0
 10
32.0026306167
 20
32.9978001208
 30
0.0
 10
32.0051248493
 20
32.9975434479
 30
0.0
  0
SPLINE
  5
2C7
100
AcDbEntity
  8
0
100
AcDbSpline
 62
7
  6
BYLAYER
 70
0
 71
3
 72
9
 73
5
 74
0
 42
0.0000001
 43
0.0000001
 44
0.0000000001
 40
0.0
 40
0.0
 40
0.0
 40
0.0
 40
0.2441646598
 40
1.0
 40
1.0
 40
1.0
 40
1.0
 10
32.0051248493
 20
32.9975434479
 30
0.0
 10
32.0081277633
 20
32.9972344284
 30
0.0
 10
32.0203526071
 20
32.9952552206
 30
0.0
 10
32.032081752
 20
32.9907275842
 30
0.0
 10
32.0403675393
 20
32.9864063673
 30
0.0
  0
SPLINE
  5
2C8
100
AcDbEntity
  8
0
100
AcDbSpline
 62
7
  6
BYLAYER
 70
0
 71
3
 72
12
 73
8
 74
0
 42
0.0000001
 43
0.0000001
 44
0.0000000001
 40
0.0
 40
0.0
 40
0.0
 40
0.0
 40
0.2609061467
 40
0.5153851166
 40
0.6396328268
 40
0.7617511115
 40
1.0
 40
1.0
 40
1.0
 40
1.0
 10
22.7885423831
 20
32.1034637938
 30
0.0
 10
22.8144658631
 20
32.1034637938
 30
0.0
 10
22.8661306024
 20
32.0943498735
 30
0.0
 10
22.9220380518
 20
32.0609066586
 30
0.0
 10
22.9556882613
 20
32.0238122165
 30
0.0
 10
22.9804272346
 20
31.9822255876
 30
0.0
 10
22.9885423831
 20
31.9458745046
 30
0.0
 10
22.9885423831
 20
31.9222022364
 30
0.0
  0
SPLINE
  5
2C9
100
AcDbEntity
  8
0
100
AcDbSpline
 62
7
  6
BYLAYER
 70
0
 71
3
 72
16
 73
12
 74
0
 42
0.0000001
 43
0.0000001
 44
0.0000000001
 40
0.0
 40
0.0
 40
0.0
 40
0.0
 40
0.072725357
 40
0.1568010055
 40
0.2582547079
 40
0.3785655564
 40
0.4455375197
 40
0.5165998706
 40
0.6691997012
 40
0.8323055007
 40
1.0
 40
1.0
 40
1.0
 40
1.0
 10
22.9885423831
 20
31.9222022364
 30
0.0
 10
22.9885423831
 20
31.9278359205
 30
0.0
 10
22.9916859465
 20
31.9400612883
 30
0.0
 10
23.0040486583
 20
31.9562273358
 30
0.0
 10
23.0231019555
 20
31.9706241591
 30
0.0
 10
23.043189152
 20
31.9806722849
 30
0.0
 10
23.0619011868
 20
31.9877942114
 30
0.0
 10
23.0834084686
 20
31.9944951385
 30
0.0
 10
23.1127145981
 20
32.0009979491
 30
0.0
 10
23.1499139075
 20
32.0056559635
 30
0.0
 10
23.1755518955
 20
32.0067258887
 30
0.0
 10
23.188542383
 20
32.0067258887
 30
0.0
  0
SPLINE
  5
2CA
100
AcDbEntity
  8
0
100
AcDbSpline
 62
7
  6
BYLAYER
 70
0
 71
3
 72
11
 73
7
 74
0
 42
0.0000001
 43
0.0000001
 44
0.0000000001
 40
0.0
 40
0.0
 40
0.0
 40
0.0
 40
0.2514745559
 40
0.5010667227
 40
0.7503069573
 40
1.0
 40
1.0
 40
1.0
 40
1.0
 10
31.5885423831
 20
20.1411805181
 30
0.0
 10
31.6057114386
 20
20.1253572856
 30
0.0
 10
31.6359224816
 20
20.0894474267
 30
0.0
 10
31.6721479776
 20
20.0298763014
 30
0.0
 10
31.7053433078
 20
19.9688188173
 30
0.0
 10
31.7276343033
 20
19.9282041565
 30
0.0
 10
31.7392354157
 20
19.9081325669
 30
0.0
  0
SPLINE
  5
2CB
100
AcDbEntity
  8
0
100
AcDbSpline
 62
7
  6
BYLAYER
 70
0
 71
3
 72
14
 73
10
 74
0
 42
0.0000001
 43
0.0000001
 44
0.0000000001
 40
0.0
 40
0.0
 40
0.0
 40
0.0
 40
0.2543881084
 40
0.3805126772
 40
0.5058768831
 40
0.6304673888
 40
0.7542983104
 40
0.8774261705
 40
1.0
 40
1.0
 40
1.0
 40
1.0
 10
19.4885423831
 20
19.1793017837
 30
0.0
 10
19.6047129008
 20
19.514850781
 30
0.0
 10
19.7794561912
 20
20.016452822
 30
0.0
 10
19.99796737
 20
20.6879659377
 30
0.0
 10
20.148957116
 20
21.190806656
 30
0.0
 10
20.2821979553
 20
21.6953924779
 30
0.0
 10
20.3910972802
 20
22.2027362323
 30
0.0
 10
20.4671618335
 20
22.7133095926
 30
0.0
 10
20.4882583158
 20
23.0563633077
 30
0.0
 10
20.4885367373
 20
23.2274587692
 30
0.0
  0
SPLINE
  5
2CC
100
AcDbEntity
  8
0
100
AcDbSpline
 62
7
  6
BYLAYER
 70
0
 71
3
 72
12
 73
8
 74
0
 42
0.0000001
 43
0.0000001
 44
0.0000000001
 40
0.0
 40
0.0
 40
0.0
 40
0.0
 40
0.2382488913
 40
0.3603671744
 40
0.4846148819
 40
0.7390938496
 40
1.0
 40
1.0
 40
1.0
 40
1.0
 10
31.9885423831
 20
31.922202104
 30
0.0
 10
31.9885423641
 20
31.9458743828
 30
0.0
 10
31.9966574913
 20
31.982225489
 30
0.0
 10
32.0213964534
 20
32.0238121492
 30
0.0
 10
32.0550466625
 20
32.0609066208
 30
0.0
 10
32.1109541289
 20
32.0943498654
 30
0.0
 10
32.1626188915
 20
32.1034637938
 30
0.0
 10
32.1885423831
 20
32.1034637938
 30
0.0
  0
SPLINE
  5
2CD
100
AcDbEntity
  8
0
100
AcDbSpline
 62
7
  6
BYLAYER
 70
0
 71
3
 72
16
 73
12
 74
0
 42
0.0000001
 43
0.0000001
 44
0.0000000001
 40
0.0
 40
0.0
 40
0.0
 40
0.0
 40
0.1676944993
 40
0.3308002988
 40
0.4834001294
 40
0.5544624803
 40
0.6214344436
 40
0.7417452921
 40
0.8431989944
 40
0.927274643
 40
1.0
 40
1.0
 40
1.0
 40
1.0
 10
31.7885423833
 20
32.0067258887
 30
0.0
 10
31.8015328709
 20
32.0067258887
 30
0.0
 10
31.8271708588
 20
32.0056559635
 30
0.0
 10
31.8643701682
 20
32.0009979491
 30
0.0
 10
31.8936762977
 20
31.9944951385
 30
0.0
 10
31.9151835795
 20
31.9877942114
 30
0.0
 10
31.9338956143
 20
31.9806722848
 30
0.0
 10
31.9539828108
 20
31.970624159
 30
0.0
 10
31.973036108
 20
31.9562273358
 30
0.0
 10
31.9853988197
 20
31.9400612883
 30
0.0
 10
31.9885423831
 20
31.9278359205
 30
0.0
 10
31.9885423831
 20
31.9222022364
 30
0.0
  0
SPLINE
  5
2CE
100
AcDbEntity
  8
0
100
AcDbSpline
 62
7
  6
BYLAYER
 70
0
 71
3
 72
14
 73
10
 74
0
 42
0.0000001
 43
0.0000001
 44
0.0000000001
 40
0.0
 40
0.0
 40
0.0
 40
0.0
 40
0.0639557564
 40
0.1428380627
 40
0.2447031823
 40
0.3705286936
 40
0.5172772285
 40
0.6771024508
 40
1.0
 40
1.0
 40
1.0
 40
1.0
 10
20.4885687818
 20
23.2342167583
 30
0.0
 10
20.4885687824
 20
23.239090557
 30
0.0
 10
20.4914083352
 20
23.2500462479
 30
0.0
 10
20.5032240245
 20
23.2649384915
 30
0.0
 10
20.5224219897
 20
23.2785841245
 30
0.0
 10
20.5483657409
 20
23.2907274001
 30
0.0
 10
20.5799513215
 20
23.3004031957
 30
0.0
 10
20.6270392221
 20
23.3098175428
 30
0.0
 10
20.6639357212
 20
23.3123525775
 30
0.0
 10
20.6885423831
 20
23.3123534544
 30
0.0
  0
SPLINE
  5
2CF
100
AcDbEntity
  8
0
100
AcDbSpline
 62
7
  6
BYLAYER
 70
0
 71
3
 72
12
 73
8
 74
0
 42
0.0000001
 43
0.0000001
 44
0.0000000001
 40
0.0
 40
0.0
 40
0.0
 40
0.0
 40
0.2583199458
 40
0.5116726207
 40
0.6361742833
 40
0.7590777443
 40
1.0
 40
1.0
 40
1.0
 40
1.0
 10
20.6885423831
 20
28.544535593
 30
0.0
 10
20.6626015079
 20
28.544535593
 30
0.0
 10
20.6107408788
 20
28.5351486575
 30
0.0
 10
20.5549094184
 20
28.5008651138
 30
0.0
 10
20.5213513342
 20
28.4629880316
 30
0.0
 10
20.4966020468
 20
28.4203753412
 30
0.0
 10
20.4885423831
 20
28.3832925953
 30
0.0
 10
20.4885423831
 20
28.3590988221
 30
0.0
  0
SPLINE
  5
2D0
100
AcDbEntity
  8
0
100
AcDbSpline
 62
7
  6
BYLAYER
 70
0
 71
3
 72
14
 73
10
 74
0
 42
0.0000001
 43
0.0000001
 44
0.0000000001
 40
0.0
 40
0.0
 40
0.0
 40
0.0
 40
0.0686467563
 40
0.1498996533
 40
0.2501044014
 40
0.3705206337
 40
0.5096638086
 40
0.6642285846
 40
1.0
 40
1.0
 40
1.0
 40
1.0
 10
20.4885423831
 20
28.3590988221
 30
0.0
 10
20.4885423831
 20
28.3643303971
 30
0.0
 10
20.4917862176
 20
28.375817012
 30
0.0
 10
20.5042268377
 20
28.3907008526
 30
0.0
 10
20.5232445234
 20
28.4039450848
 30
0.0
 10
20.5482287998
 20
28.4154730722
 30
0.0
 10
20.5784169938
 20
28.4249144312
 30
0.0
 10
20.6254665469
 20
28.4345468157
 30
0.0
 10
20.6629532158
 20
28.4372450478
 30
0.0
 10
20.6885423831
 20
28.4372450478
 30
0.0
  0
SPLINE
  5
2D1
100
AcDbEntity
  8
0
100
AcDbSpline
 62
7
  6
BYLAYER
 70
0
 71
3
 72
15
 73
11
 74
0
 42
0.0000001
 43
0.0000001
 44
0.0000000001
 40
0.0
 40
0.0
 40
0.0
 40
0.0
 40
0.0859209086
 40
0.1791147752
 40
0.2845080574
 40
0.4043844728
 40
0.5385264982
 40
0.6848676131
 40
0.8401724709
 40
1.0
 40
1.0
 40
1.0
 40
1.0
 10
40.2885423831
 20
37.0087702493
 30
0.0
 10
40.2885423831
 20
37.0441783249
 30
0.0
 10
40.274673759
 20
37.1185135571
 30
0.0
 10
40.215513734
 20
37.2216998349
 30
0.0
 10
40.1217101288
 20
37.3151956837
 30
0.0
 10
39.9970075427
 20
37.3965934557
 30
0.0
 10
39.8454907984
 20
37.4633836942
 30
0.0
 10
39.6724513368
 20
37.5131823086
 30
0.0
 10
39.4843847115
 20
37.5439045139
 30
0.0
 10
39.3544074365
 20
37.550815611
 30
0.0
 10
39.2885423831
 20
37.550815611
 30
0.0
  0
SPLINE
  5
2D2
100
AcDbEntity
  8
0
100
AcDbSpline
 62
7
  6
BYLAYER
 70
0
 71
3
 72
15
 73
11
 74
0
 42
0.0000001
 43
0.0000001
 44
0.0000000001
 40
0.0
 40
0.0
 40
0.0
 40
0.0
 40
0.1598338014
 40
0.3151449212
 40
0.4614829007
 40
0.5956196915
 40
0.7154913943
 40
0.8208818997
 40
0.9140769551
 40
1.0
 40
1.0
 40
1.0
 40
1.0
 10
15.7885423831
 20
37.550815611
 30
0.0
 10
15.7226747535
 20
37.550815611
 30
0.0
 10
15.5926924596
 20
37.5439021938
 30
0.0
 10
15.4046218656
 20
37.5131804976
 30
0.0
 10
15.2315837303
 20
37.463380207
 30
0.0
 10
15.0800726293
 20
37.3965906536
 30
0.0
 10
14.9553749404
 20
37.3151954649
 30
0.0
 10
14.8615719424
 20
37.2217024479
 30
0.0
 10
14.802413262
 20
37.1185153896
 30
0.0
 10
14.7885423831
 20
37.0441792007
 30
0.0
 10
14.7885423831
 20
37.0087702493
 30
0.0
  0
ELLIPSE
  5
2D3
100
AcDbEntity
  8
0
100
AcDbEllipse
 62
7
  6
BYLAYER
 10
42.2885423831
 20
38.6413320529
 30
0.0
 11
2.0
 21
-0.0
 31
0.0
 40
0.6242774566
 41
1.5707963051
 42
3.1415926536
  0
ELLIPSE
  5
2D4
100
AcDbEntity
  8
0
100
AcDbEllipse
 62
7
  6
BYLAYER
 10
12.7885423831
 20
38.6413320529
 30
0.0
 11
2.0
 21
0.0
 31
0.0
 40
0.6242774566
 41
-0.0
 42
1.5707962983
  0
ENDSEC
  0
SECTION
  2
OBJECTS
  0
DICTIONARY
  5
C
100
AcDbDictionary
280
0
281
1
  3
ACAD_GROUP
350
D
  3
ACAD_MLINESTYLE
350
17
  3
ACAD_LAYOUT
350
1A
  3
ACAD_PLOTSETTINGS
350
19
  3
ACAD_PLOTSTYLENAME
350
E
  0
DICTIONARY
  5
D
102
{ACAD_REACTORS
330
C
102
}
100
AcDbDictionary
280
0
281
1
  0
ACDBDICTIONARYWDFLT
  5
E
102
{ACAD_REACTORS
330
C
102
}
100
AcDbDictionary
281
1
  3
Normal
350
F
100
AcDbDictionaryWithDefault
340
F
  0
DICTIONARY
  5
17
102
{ACAD_REACTORS
330
C
102
}
100
AcDbDictionary
280
0
281
1
  3
Standard
350
18
  0
DICTIONARY
  5
19
102
{ACAD_REACTORS
330
C
102
}
100
AcDbDictionary
281
1
  0
DICTIONARY
  5
1A
102
{ACAD_REACTORS
330
C
102
}
100
AcDbDictionary
281
1
  3
Model
350
2D5
  3
Layout1
350
2D6
  0
ACDBPLACEHOLDER
  5
F
102
{ACAD_REACTORS
330
E
102
}
  0
MLINESTYLE
  5
18
102
{ACAD_REACTORS
330
17
102
}
100
AcDbMlineStyle
  2
STANDARD
 70
0
  3

 62
256
 51
90.0
 52
90.0
 71
2
 49
0.5
 62
256
  6
BYLAYER
 49
-0.5
 62
256
  6
BYLAYER
  0
LAYOUT
  5
2D5
102
{ACAD_REACTORS
330
1A
102
}
100
AcDbPlotSettings
  1

  2
none_device
  4

  6

 40
0.0
 41
0.0
 42
0.0
 43
0.0
 44
210.0
 45
297.0
 46
0.0
 47
0.0
 48
0.0
 49
0.0
140
0.0
141
0.0
142
1.0
143
1.0
 70
1024
 72
1
 73
0
 74
0
  7

 75
0
147
1.0
148
0.0
149
0.0
100
AcDbLayout
  1
Model
 70
0
 71
0
 10
0.0
 20
0.0
 11
210.0
 21
297.0
 12
0.0
 22
0.0
 32
0.0
 14
0.0
 24
0.0
 34
0.0
 15
0.0
 25
0.0
 35
0.0
146
0.0
 13
0.0
 23
0.0
 33
0.0
 16
1.0
 26
0.0
 36
0.0
 17
0.0
 27
1.0
 37
0.0
 76
0
330
210
345
0
346
0
  0
LAYOUT
  5
2D6
102
{ACAD_REACTORS
330
1A
102
}
100
AcDbPlotSettings
  1

  2
none_device
  4

  6

 40
0.0
 41
0.0
 42
0.0
 43
0.0
 44
210.0
 45
297.0
 46
0.0
 47
0.0
 48
0.0
 49
0.0
140
0.0
141
0.0
142
1.0
143
1.0
 70
0
 72
1
 73
0
 74
0
  7

 75
0
147
1.0
148
0.0
149
0.0
100
AcDbLayout
  1
Layout1
 70
0
 71
1
 10
0.0
 20
0.0
 11
210.0
 21
297.0
 12
0.0
 22
0.0
 32
0.0
 14
0.0
 24
0.0
 34
0.0
 15
0.0
 25
0.0
 35
0.0
146
0.0
 13
0.0
 23
0.0
 33
0.0
 16
1.0
 26
0.0
 36
0.0
 17
0.0
 27
1.0
 37
0.0
 76
0
330
211
345
0
346
0
  0
ENDSEC
  0
EOF
