999
DXF file: C:\Users\sesa63760\Dev\_Creo\CAD\MCADID0004529_3D-CAD\drw0001_1.dxf
999
Pro/ENGINEER 2019471 by Parametric Technology Corporation
  0
SECTION
  2
HEADER
  9
$ACADVER
  1
AC1024
  9
$DWGCODEPAGE
  3
ANSI_1252
  9
$EXTMAX
 10
83.2308042031
 20
117.712137373
 30
0.0
  9
$EXTMIN
 10
0.0
 20
0.0
 30
0.0
  9
$LIMMIN
 10
0.0
 20
0.0
  9
$LIMMAX
 10
83.2308042031
 20
117.712137373
  9
$VIEWCTR
 10
41.6154021016
 20
58.8560686865
  9
$VIEWSIZE
 40
117.712137373
  9
$CLAYER
  8
0
  9
$LTSCALE
 40
7.6730874732
  9
$CELTYPE
  6
BYLAYER
  9
$DIMSCALE
 40
1.0
  9
$DIMASZ
 40
0.9908429072
  9
$DIMEXO
 40
1.0
  9
$DIMDLI
 40
5.3014058906
  9
$DIMEXE
 40
1.0
  9
$DIMCEN
 40
1.255596132
  9
$DIMLFAC
 40
1.0
  9
$DIMBLK
  1
_FILLED
  9
$DIMALT
 70
0
  9
$DIMALTF
 40
0.0393700787
  9
$DIMTXT
 40
1.3871800701
  9
$DIMTOL
 70
1
  9
$DIMLIM
 70
0
  9
$DIMTFAC
 40
1.0
  9
$DIMTP
 40
0.01
  9
$DIMTM
 40
0.01
  9
$DIMGAP
 40
0.625
  9
$DIMDSEP
 70
46
  9
$AUNITS
 70
0
  9
$PDMODE
 70
3
  9
$PDSIZE
 40
0.3125
  9
$HANDSEED
  5
28D
  9
$TILEMODE
 70
1
  9
$MEASUREMENT
 70
1
  9
$INSUNITS
 70
4
  0
ENDSEC
  0
SECTION
  2
CLASSES
  0
CLASS
  1
ACDBDICTIONARYWDFLT
  2
AcDbDictionaryWithDefault
  3
AutoCAD 2000
 90
0
 91
1
280
0
281
0
  0
CLASS
  1
ACDBPLACEHOLDER
  2
AcDbPlaceHolder
  3
AutoCAD 2000
 90
0
 91
1
280
0
281
0
  0
CLASS
  1
LAYOUT
  2
AcDbLayout
  3
AutoCAD 2000
 90
0
 91
0
280
0
281
0
  0
ENDSEC
  0
SECTION
  2
TABLES
  0
TABLE
  2
VPORT
  5
8
100
AcDbSymbolTable
 70
2
  0
VPORT
  5
1F4
100
AcDbSymbolTableRecord
100
AcDbViewportTableRecord
  2
*ACTIVE
 70
0
 10
0.0
 20
0.0
 11
1.0
 21
1.0
 12
41.6154021016
 22
58.8560686865
 13
0.0
 23
0.0
 14
1.0
 24
1.0
 15
0.0
 25
0.0
 16
0.0
 26
0.0
 36
1.0
 17
0.0
 27
0.0
 37
0.0
 40
117.712137373
 41
0.7070707071
 42
50.0
 43
0.0
 44
0.0
 50
0.0
 51
0.0
 71
0
 72
100
 73
1
 74
1
 75
0
 76
0
 77
0
 78
0
  0
ENDTAB
  0
TABLE
  2
LTYPE
  5
5
100
AcDbSymbolTable
 70
6
  0
LTYPE
  5
14
100
AcDbSymbolTableRecord
100
AcDbLinetypeTableRecord
  2
BYBLOCK
 70
0
  3

 72
65
 73
0
 40
0.0
  0
LTYPE
  5
15
100
AcDbSymbolTableRecord
100
AcDbLinetypeTableRecord
  2
BYLAYER
 70
0
  3

 72
65
 73
0
 40
0.0
  0
LTYPE
  5
16
100
AcDbSymbolTableRecord
100
AcDbLinetypeTableRecord
  2
CONTINUOUS
 70
64
  3
Solid line
 72
65
 73
0
 40
0.0
  0
LTYPE
  5
1F5
100
AcDbSymbolTableRecord
100
AcDbLinetypeTableRecord
  2
CENTER
 70
64
  3
____ _ ____ _ ____ _ ____ _ ____ _ ____ _ ____
 72
65
 73
4
 40
0.6
 49
0.375
 74
0
 49
-0.075
 74
0
 49
0.075
 74
0
 49
-0.075
 74
0
  0
LTYPE
  5
1F6
100
AcDbSymbolTableRecord
100
AcDbLinetypeTableRecord
  2
HIDDEN
 70
64
  3
- - - - - - - - - - - - - - - - - - - -
 72
65
 73
2
 40
0.2
 49
0.1
 74
0
 49
-0.1
 74
0
  0
LTYPE
  5
1F7
100
AcDbSymbolTableRecord
100
AcDbLinetypeTableRecord
  2
PHANTOM
 70
64
  3
_____ _ _ _____ _ _ _____ _ _ _____
 72
65
 73
6
 40
0.8
 49
0.45
 74
0
 49
-0.05
 74
0
 49
0.1
 74
0
 49
-0.05
 74
0
 49
0.1
 74
0
 49
-0.05
 74
0
  0
LTYPE
  5
1F8
100
AcDbSymbolTableRecord
100
AcDbLinetypeTableRecord
  2
DOT
 70
64
  3
. . . . . . . . . . . . . . . . . . . .
 72
65
 73
2
 40
0.2
 49
0.1
 74
0
 49
-0.1
 74
0
  0
LTYPE
  5
1F9
100
AcDbSymbolTableRecord
100
AcDbLinetypeTableRecord
  2
DASHED
 70
64
  3
- - - - - - - - - - - - - - - - - - - -
 72
65
 73
2
 40
0.2
 49
0.1
 74
0
 49
-0.1
 74
0
  0
ENDTAB
  0
TABLE
  2
LAYER
  5
2
100
AcDbSymbolTable
 70
36
  0
LAYER
  5
10
100
AcDbSymbolTableRecord
100
AcDbLayerTableRecord
  2
0
 70
0
 62
7
  6
CONTINUOUS
370
-3
390
F
  0
LAYER
  5
1FA
100
AcDbSymbolTableRecord
100
AcDbLayerTableRecord
  2
DEFAULT_1
 70
0
 62
7
  6
CENTER
370
-3
390
F
  0
LAYER
  5
1FB
100
AcDbSymbolTableRecord
100
AcDbLayerTableRecord
  2
DEFAULT_2
 70
0
 62
7
  6
HIDDEN
370
-3
390
F
  0
LAYER
  5
1FC
100
AcDbSymbolTableRecord
100
AcDbLayerTableRecord
  2
DEFAULT_3
 70
0
 62
7
  6
PHANTOM
370
-3
390
F
  0
LAYER
  5
1FD
100
AcDbSymbolTableRecord
100
AcDbLayerTableRecord
  2
00_COMPONENTS
 70
0
 62
7
  6
CONTINUOUS
370
-3
390
F
  0
LAYER
  5
1FE
100
AcDbSymbolTableRecord
100
AcDbLayerTableRecord
  2
01_1_DEFAULT_DATUMS
 70
0
 62
7
  6
CONTINUOUS
370
-3
390
F
  0
LAYER
  5
1FF
100
AcDbSymbolTableRecord
100
AcDbLayerTableRecord
  2
01_PLANES
 70
0
 62
7
  6
CONTINUOUS
370
-3
390
F
  0
LAYER
  5
200
100
AcDbSymbolTableRecord
100
AcDbLayerTableRecord
  2
02_COORD_SYS
 70
0
 62
7
  6
CONTINUOUS
370
-3
390
F
  0
LAYER
  5
201
100
AcDbSymbolTableRecord
100
AcDbLayerTableRecord
  2
03_AXES
 70
0
 62
7
  6
CONTINUOUS
370
-3
390
F
  0
LAYER
  5
202
100
AcDbSymbolTableRecord
100
AcDbLayerTableRecord
  2
04_POINTS
 70
0
 62
7
  6
CONTINUOUS
370
-3
390
F
  0
LAYER
  5
203
100
AcDbSymbolTableRecord
100
AcDbLayerTableRecord
  2
05_CURVES
 70
0
 62
7
  6
CONTINUOUS
370
-3
390
F
  0
LAYER
  5
204
100
AcDbSymbolTableRecord
100
AcDbLayerTableRecord
  2
06_SURFS
 70
0
 62
7
  6
CONTINUOUS
370
-3
390
F
  0
LAYER
  5
205
100
AcDbSymbolTableRecord
100
AcDbLayerTableRecord
  2
07_COSMETICS
 70
0
 62
7
  6
CONTINUOUS
370
-3
390
F
  0
LAYER
  5
206
100
AcDbSymbolTableRecord
100
AcDbLayerTableRecord
  2
10_NOTES
 70
0
 62
7
  6
CONTINUOUS
370
-3
390
F
  0
LAYER
  5
207
100
AcDbSymbolTableRecord
100
AcDbLayerTableRecord
  2
11_NOTES_PUB
 70
0
 62
7
  6
CONTINUOUS
370
-3
390
F
  0
LAYER
  5
208
100
AcDbSymbolTableRecord
100
AcDbLayerTableRecord
  2
13_REF_GTOL
 70
0
 62
7
  6
CONTINUOUS
370
-3
390
F
  0
LAYER
  5
209
100
AcDbSymbolTableRecord
100
AcDbLayerTableRecord
  2
16_MISC
 70
0
 62
7
  6
CONTINUOUS
370
-3
390
F
  0
LAYER
  5
20A
100
AcDbSymbolTableRecord
100
AcDbLayerTableRecord
  2
17_NO_PRINT
 70
0
 62
7
  6
CONTINUOUS
370
-3
390
F
  0
LAYER
  5
20B
100
AcDbSymbolTableRecord
100
AcDbLayerTableRecord
  2
18_DATUM_CAMS_JOINTS
 70
0
 62
7
  6
CONTINUOUS
370
-3
390
F
  0
LAYER
  5
20C
100
AcDbSymbolTableRecord
100
AcDbLayerTableRecord
  2
19_DATUM_FUNCTIONAL
 70
0
 62
7
  6
CONTINUOUS
370
-3
390
F
  0
LAYER
  5
20D
100
AcDbSymbolTableRecord
100
AcDbLayerTableRecord
  2
20_DATUM_KINEMATIC_SCHEME
 70
0
 62
7
  6
CONTINUOUS
370
-3
390
F
  0
ENDTAB
  0
TABLE
  2
STYLE
  5
3
100
AcDbSymbolTable
 70
1
  0
STYLE
  5
11
100
AcDbSymbolTableRecord
100
AcDbTextStyleTableRecord
  2
STANDARD
 70
0
 40
0.0
 41
1.0
 50
0.0
 71
0
 42
0.2
  3
ARIAL.TTF
  4

  0
STYLE
  5
20E
100
AcDbSymbolTableRecord
100
AcDbTextStyleTableRecord
  2
TEXTSTYLE_1
 70
0
 40
0.0
 41
0.8
 50
0.0
 71
0
 42
0.2
  3
gdt
  4

  0
ENDTAB
  0
TABLE
  2
VIEW
  5
6
100
AcDbSymbolTable
 70
0
  0
ENDTAB
  0
TABLE
  2
UCS
  5
7
100
AcDbSymbolTable
 70
0
  0
ENDTAB
  0
TABLE
  2
APPID
  5
9
100
AcDbSymbolTable
 70
1
  0
APPID
  5
20F
100
AcDbSymbolTableRecord
100
AcDbRegAppTableRecord
  2
ACAD
 70
0
  0
ENDTAB
  0
TABLE
  2
BLOCK_RECORD
  5
1
100
AcDbSymbolTable
 70
0
  0
BLOCK_RECORD
  5
210
100
AcDbSymbolTableRecord
100
AcDbBlockTableRecord
  2
*Model_Space
  0
BLOCK_RECORD
  5
211
100
AcDbSymbolTableRecord
100
AcDbBlockTableRecord
  2
*Paper_Space
  0
BLOCK_RECORD
  5
212
100
AcDbSymbolTableRecord
100
AcDbBlockTableRecord
  2
_FILLED
  0
ENDTAB
  0
TABLE
  2
DIMSTYLE
  5
A
100
AcDbSymbolTable
 70
1
100
AcDbDimStyleTable
 71
0
  0
DIMSTYLE
105
213
100
AcDbSymbolTableRecord
100
AcDbDimStyleTableRecord
  2
STANDARD
 70
0
  3

  4

 40
1.0
 41
0.9908429072
 42
1.0
 43
0.38
 44
1.0
 45
0.0
 46
0.0
 47
0.01
 48
0.01
140
1.3871800701
141
0.09
142
0.0
143
25.4
144
1.0
145
0.0
146
1.0
147
0.625
 71
1
 72
0
 73
0
 74
0
 75
0
 76
0
 77
1
 78
8
 79
2
170
0
171
1
172
0
173
0
174
0
175
0
176
0
177
0
178
0
270
2
179
2
271
2
272
2
273
2
274
2
275
0
280
0
281
0
282
0
283
1
284
8
285
0
286
0
287
3
288
0
340
11
278
46
341
212
342
212
343
212
344
212
  0
ENDTAB
  0
ENDSEC
  0
SECTION
  2
BLOCKS
  0
BLOCK
  5
20
100
AcDbEntity
  8
0
100
AcDbBlockBegin
  2
*Model_Space
 70
0
 10
0.0
 20
0.0
 30
0.0
  3
*Model_Space
  1

  0
ENDBLK
  5
21
100
AcDbEntity
  8
0
100
AcDbBlockEnd
  0
BLOCK
  5
1C
100
AcDbEntity
  8
0
100
AcDbBlockBegin
  2
*Paper_Space
 70
0
 10
0.0
 20
0.0
 30
0.0
  3
*Paper_Space
  1

  0
ENDBLK
  5
1D
100
AcDbEntity
  8
0
100
AcDbBlockEnd
  0
BLOCK
  5
214
100
AcDbEntity
  8
0
100
AcDbBlockBegin
  2
_FILLED
 70
64
 10
0.0
 20
0.0
  3
_FILLED
  1

  0
SOLID
  5
215
100
AcDbEntity
  8
0
  6
BYBLOCK
 62
0
100
AcDbTrace
 10
0.0
 20
0.0
 11
-1.0
 21
0.25
 12
-1.0
 22
-0.25
 13
-1.0
 23
-0.25
  0
ENDBLK
  5
216
100
AcDbEntity
  8
0
  6
BYBLOCK
 62
0
100
AcDbBlockEnd
  0
ENDSEC
  0
SECTION
  2
ENTITIES
  0
LINE
  5
217
100
AcDbEntity
  8
0
100
AcDbLine
 62
7
  6
BYLAYER
 10
28.1128260381
 20
102.1199153689
 11
30.2341375498
 21
103.3446478305
  0
LINE
  5
218
100
AcDbEntity
  8
0
100
AcDbLine
 62
7
  6
BYLAYER
 10
29.5580514036
 20
102.002145587
 11
31.6793629152
 21
103.2268780487
  0
LINE
  5
219
100
AcDbEntity
  8
0
100
AcDbLine
 62
7
  6
BYLAYER
 10
29.7895967541
 20
96.1529489209
 11
31.7200731306
 21
97.2675033236
  0
LINE
  5
21A
100
AcDbEntity
  8
0
100
AcDbLine
 62
7
  6
BYLAYER
 10
9.6416201259
 20
42.3656106475
 11
9.6416201259
 21
39.9161033961
  0
LINE
  5
21B
100
AcDbEntity
  8
0
100
AcDbLine
 62
7
  6
BYLAYER
 10
10.4662477988
 20
38.7233987362
 11
51.5881476958
 21
14.9821958589
  0
LINE
  5
21C
100
AcDbEntity
  8
0
100
AcDbLine
 62
7
  6
BYLAYER
 10
10.4662477988
 20
38.7233987362
 11
10.4662477988
 21
41.1729059876
  0
LINE
  5
21D
100
AcDbEntity
  8
0
100
AcDbLine
 62
7
  6
BYLAYER
 10
10.4662477988
 20
41.1729059876
 11
51.5881476958
 21
17.4317031103
  0
LINE
  5
21E
100
AcDbEntity
  8
0
100
AcDbLine
 62
7
  6
BYLAYER
 10
16.5667579422
 20
41.569903013
 11
16.5667579422
 21
44.0194102643
  0
LINE
  5
21F
100
AcDbEntity
  8
0
100
AcDbLine
 62
7
  6
BYLAYER
 10
31.9109082657
 20
82.6806378742
 11
29.7895967541
 21
81.4559054126
  0
LINE
  5
220
100
AcDbEntity
  8
0
100
AcDbLine
 62
7
  6
BYLAYER
 10
38.4871491178
 20
32.7927954639
 11
55.4577825214
 21
22.9950173554
  0
LINE
  5
221
100
AcDbEntity
  8
0
100
AcDbLine
 62
7
  6
BYLAYER
 10
43.0833240597
 20
32.9968752127
 11
60.0539574633
 21
23.1990971042
  0
LINE
  5
222
100
AcDbEntity
  8
0
100
AcDbLine
 62
7
  6
BYLAYER
 10
23.6377963143
 20
48.1018518031
 11
23.6377963143
 21
45.6523445517
  0
LINE
  5
223
100
AcDbEntity
  8
0
100
AcDbLine
 62
7
  6
BYLAYER
 10
60.0539574633
 20
25.6486043556
 11
43.0833240597
 21
35.4463824641
  0
LINE
  5
224
100
AcDbEntity
  8
0
100
AcDbLine
 62
7
  6
BYLAYER
 10
25.0520746439
 20
36.6710139587
 11
25.0520746439
 21
39.1205212101
  0
LINE
  5
225
100
AcDbEntity
  8
0
100
AcDbLine
 62
7
  6
BYLAYER
 10
27.4914901474
 20
55.8381080995
 11
27.4914901474
 21
100.7465575441
  0
LINE
  5
226
100
AcDbEntity
  8
0
100
AcDbLine
 62
7
  6
BYLAYER
 10
25.3701786357
 20
52.1638683865
 11
70.6252010451
 21
26.0364600972
  0
LINE
  5
227
100
AcDbEntity
  8
0
100
AcDbLine
 62
7
  6
BYLAYER
 10
29.7895967541
 20
96.1529489209
 11
29.7895967541
 21
81.4559054126
  0
LINE
  5
228
100
AcDbEntity
  8
0
100
AcDbLine
 62
7
  6
BYLAYER
 10
31.7341484983
 20
69.1063351021
 11
33.8554600099
 21
70.3310675638
  0
LINE
  5
229
100
AcDbEntity
  8
0
100
AcDbLine
 62
7
  6
BYLAYER
 10
31.9109082657
 20
82.6806378742
 11
31.9109082657
 21
97.15817773
  0
LINE
  5
22A
100
AcDbEntity
  8
0
100
AcDbLine
 62
7
  6
BYLAYER
 10
32.1231130161
 20
43.2029627488
 11
32.1231130161
 21
40.7534554974
  0
LINE
  5
22B
100
AcDbEntity
  8
0
100
AcDbLine
 62
7
  6
BYLAYER
 10
33.6787002424
 20
79.2105812627
 11
33.6787002424
 21
93.9076247711
  0
LINE
  5
22C
100
AcDbEntity
  8
0
100
AcDbLine
 62
7
  6
BYLAYER
 10
40.749814295
 20
66.1466180285
 11
38.8052457497
 21
65.0239275569
  0
LINE
  5
22D
100
AcDbEntity
  8
0
100
AcDbLine
 62
7
  6
BYLAYER
 10
72.7465125568
 20
29.7106998102
 11
27.4914901474
 21
55.8381080995
  0
LINE
  5
22E
100
AcDbEntity
  8
0
100
AcDbLine
 62
7
  6
BYLAYER
 10
10.5202909504
 20
43.5903329111
 11
25.3701786357
 21
52.1638683865
  0
LINE
  5
22F
100
AcDbEntity
  8
0
100
AcDbLine
 62
7
  6
BYLAYER
 10
72.8012628122
 20
79.4856751713
 11
70.6799513006
 21
78.2609427097
  0
LINE
  5
230
100
AcDbEntity
  8
0
100
AcDbLine
 62
7
  6
BYLAYER
 10
23.6377963143
 20
48.1018518031
 11
16.5667579422
 21
44.0194102643
  0
LINE
  5
231
100
AcDbEntity
  8
0
100
AcDbLine
 62
7
  6
BYLAYER
 10
43.0833240597
 20
32.9968752127
 11
43.0833240597
 21
35.4463824641
  0
LINE
  5
232
100
AcDbEntity
  8
0
100
AcDbLine
 62
7
  6
BYLAYER
 10
61.4327569544
 20
68.2902717549
 11
63.5540684661
 21
69.5150042165
  0
LINE
  5
233
100
AcDbEntity
  8
0
100
AcDbLine
 62
7
  6
BYLAYER
 10
72.7465125568
 20
74.6191492548
 11
74.8678240684
 21
75.8438817164
  0
LINE
  5
234
100
AcDbEntity
  8
0
100
AcDbLine
 62
7
  6
BYLAYER
 10
16.5667579422
 20
41.569903013
 11
23.6377963143
 21
45.6523445517
  0
LINE
  5
235
100
AcDbEntity
  8
0
100
AcDbLine
 62
7
  6
BYLAYER
 10
31.7341484983
 20
69.1063351021
 11
38.8052457497
 21
65.0239275569
  0
LINE
  5
236
100
AcDbEntity
  8
0
100
AcDbLine
 62
7
  6
BYLAYER
 10
21.1629711556
 20
41.36584536
 11
28.2340095278
 21
45.4482868987
  0
LINE
  5
237
100
AcDbEntity
  8
0
100
AcDbLine
 62
7
  6
BYLAYER
 10
40.7297862284
 20
66.3622632574
 11
33.8554600099
 21
70.3310675638
  0
LINE
  5
238
100
AcDbEntity
  8
0
100
AcDbLine
 62
7
  6
BYLAYER
 10
38.8052457497
 20
69.5146908511
 11
31.7341484983
 21
73.5970983963
  0
LINE
  5
239
100
AcDbEntity
  8
0
100
AcDbLine
 62
7
  6
BYLAYER
 10
51.5881476958
 20
17.4317031103
 11
51.5881476958
 21
14.9821958589
  0
LINE
  5
23A
100
AcDbEntity
  8
0
100
AcDbLine
 62
7
  6
BYLAYER
 10
70.4484227512
 20
65.3305546812
 11
68.5038542059
 21
64.2078642097
  0
LINE
  5
23B
100
AcDbEntity
  8
0
100
AcDbLine
 62
7
  6
BYLAYER
 10
32.1231130161
 20
43.2029627488
 11
25.0520746439
 21
39.1205212101
  0
LINE
  5
23C
100
AcDbEntity
  8
0
100
AcDbLine
 62
7
  6
BYLAYER
 10
25.0520746439
 20
36.6710139587
 11
32.1231130161
 21
40.7534554974
  0
LINE
  5
23D
100
AcDbEntity
  8
0
100
AcDbLine
 62
7
  6
BYLAYER
 10
55.7753133598
 20
15.0134173704
 11
55.7753133598
 21
17.4629246218
  0
LINE
  5
23E
100
AcDbEntity
  8
0
100
AcDbLine
 62
7
  6
BYLAYER
 10
66.5593024618
 20
58.5943813433
 11
68.4897788382
 21
59.7089357459
  0
LINE
  5
23F
100
AcDbEntity
  8
0
100
AcDbLine
 62
7
  6
BYLAYER
 10
29.6482878574
 20
36.4669563057
 11
36.7193262295
 21
40.5493978444
  0
LINE
  5
240
100
AcDbEntity
  8
0
100
AcDbLine
 62
7
  6
BYLAYER
 10
60.0539574633
 20
25.6486043556
 11
60.0539574633
 21
23.1990971042
  0
LINE
  5
241
100
AcDbEntity
  8
0
100
AcDbLine
 62
7
  6
BYLAYER
 10
61.4327569544
 20
68.2902717549
 11
68.5038542059
 21
64.2078642097
  0
LINE
  5
242
100
AcDbEntity
  8
0
100
AcDbLine
 62
7
  6
BYLAYER
 10
70.4283946846
 20
65.5461999101
 11
63.5540684661
 21
69.5150042165
  0
LINE
  5
243
100
AcDbEntity
  8
0
100
AcDbLine
 62
7
  6
BYLAYER
 10
68.5038542059
 20
68.6986275039
 11
61.4327569544
 21
72.7810350491
  0
LINE
  5
244
100
AcDbEntity
  8
0
100
AcDbLine
 62
7
  6
BYLAYER
 10
66.5593024618
 20
58.5943813433
 11
66.5593024618
 21
43.897337835
  0
LINE
  5
245
100
AcDbEntity
  8
0
100
AcDbLine
 62
7
  6
BYLAYER
 10
68.6806139734
 20
45.1220702966
 11
66.5593024618
 21
43.897337835
  0
LINE
  5
246
100
AcDbEntity
  8
0
100
AcDbLine
 62
7
  6
BYLAYER
 10
68.6806139734
 20
45.1220702966
 11
68.6806139734
 21
59.5996101524
  0
LINE
  5
247
100
AcDbEntity
  8
0
100
AcDbLine
 62
7
  6
BYLAYER
 10
70.4484059501
 20
41.6520136851
 11
70.4484059501
 21
56.3490571934
  0
LINE
  5
248
100
AcDbEntity
  8
0
100
AcDbLine
 62
7
  6
BYLAYER
 10
72.7465125568
 20
74.6191492548
 11
72.7465125568
 21
29.7106998102
  0
LINE
  5
249
100
AcDbEntity
  8
0
100
AcDbLine
 62
7
  6
BYLAYER
 10
74.8678240684
 20
75.8438817164
 11
74.8678240684
 21
30.9354322718
  0
LINE
  5
24A
100
AcDbEntity
  8
0
100
AcDbLine
 62
7
  6
BYLAYER
 10
29.5580514036
 20
102.002145587
 11
70.6799513006
 21
78.2609427097
  0
LINE
  5
24B
100
AcDbEntity
  8
0
100
AcDbLine
 62
7
  6
BYLAYER
 10
31.6793629152
 20
103.2268780487
 11
72.8012628122
 21
79.4856751713
  0
LINE
  5
24C
100
AcDbEntity
  8
0
100
AcDbLine
 62
7
  6
BYLAYER
 10
70.6252010451
 20
26.0364600972
 11
55.7753133598
 21
17.4629246218
  0
LINE
  5
24D
100
AcDbEntity
  8
0
100
AcDbLine
 62
7
  6
BYLAYER
 10
55.7753133598
 20
15.0134173704
 11
70.6252010451
 21
23.5869528458
  0
ARC
  5
24E
100
AcDbEntity
  8
0
100
AcDbCircle
 62
7
  6
BYLAYER
 10
26.5308492399
 20
34.1090161398
 40
2.9581425135
100
AcDbArc
 50
119.9933653421
 51
122.4203600581
  0
ARC
  5
24F
100
AcDbEntity
  8
0
100
AcDbCircle
 62
7
  6
BYLAYER
 10
18.0455325381
 20
39.007905194
 40
2.9581425135
100
AcDbArc
 50
119.9933653421
 51
122.4203600581
  0
ARC
  5
250
100
AcDbEntity
  8
0
100
AcDbCircle
 62
7
  6
BYLAYER
 10
26.7718849294
 20
43.1178322837
 40
2.9260144946
100
AcDbArc
 50
57.5661388011
 51
60.0203879603
  0
ARC
  5
251
100
AcDbEntity
  8
0
100
AcDbCircle
 62
7
  6
BYLAYER
 10
35.2572016311
 20
38.2189432294
 40
2.9260144946
100
AcDbArc
 50
57.5661388011
 51
60.0203879603
  0
ARC
  5
252
100
AcDbEntity
  8
0
100
AcDbCircle
 62
7
  6
BYLAYER
 10
58.6211539064
 20
20.7129311505
 40
2.8694855256
100
AcDbArc
 50
56.3707990919
 51
60.0447006803
  0
SPLINE
  5
253
100
AcDbEntity
  8
0
100
AcDbSpline
 62
7
  6
BYLAYER
 70
0
 71
3
 72
20
 73
16
 74
0
 42
0.0000001
 43
0.0000001
 44
0.0000000001
 40
0.0
 40
0.0
 40
0.0
 40
0.0
 40
0.0428303335
 40
0.0874301415
 40
0.1352307968
 40
0.1871626307
 40
0.2436313971
 40
0.3046122949
 40
0.3697374583
 40
0.4383719318
 40
0.5826219291
 40
0.7296878451
 40
0.8711869866
 40
0.9376077114
 40
1.0
 40
1.0
 40
1.0
 40
1.0
 10
30.3591624658
 20
97.4118467316
 30
0.0
 10
30.4269634242
 20
97.4509762994
 30
0.0
 10
30.5763932135
 20
97.5131236944
 30
0.0
 10
30.8230914885
 20
97.5492242989
 30
0.0
 10
31.0880019901
 20
97.5297837468
 30
0.0
 10
31.3652435157
 20
97.4560932204
 30
0.0
 10
31.6493806861
 20
97.330527334
 30
0.0
 10
31.934763041
 20
97.155965139
 30
0.0
 10
32.2155737314
 20
96.9360993579
 30
0.0
 10
32.5820653665
 20
96.5831215365
 30
0.0
 10
32.9893100955
 20
96.0615571002
 30
0.0
 10
33.3673586035
 20
95.3629356092
 30
0.0
 10
33.5766235504
 20
94.7444243739
 30
0.0
 10
33.6631883456
 20
94.2572613232
 30
0.0
 10
33.6787002424
 20
94.021660813
 30
0.0
 10
33.6787002424
 20
93.9076247711
 30
0.0
  0
SPLINE
  5
254
100
AcDbEntity
  8
0
100
AcDbSpline
 62
7
  6
BYLAYER
 70
0
 71
3
 72
15
 73
11
 74
0
 42
0.0000001
 43
0.0000001
 44
0.0000000001
 40
0.0
 40
0.0
 40
0.0
 40
0.0
 40
0.1151363825
 40
0.2389012186
 40
0.3687190458
 40
0.5015919615
 40
0.6342443127
 40
0.7634173934
 40
0.8861640628
 40
1.0
 40
1.0
 40
1.0
 40
1.0
 10
72.8012628122
 20
79.4856751713
 30
0.0
 10
72.9437484217
 20
79.3991637522
 30
0.0
 10
73.2245139901
 20
79.1945467167
 30
0.0
 10
73.610251384
 20
78.8236210506
 30
0.0
 10
73.9646360507
 20
78.3889906586
 30
0.0
 10
74.2748169678
 20
77.9065642088
 30
0.0
 10
74.5295280751
 20
77.3937235361
 30
0.0
 10
74.7196408658
 20
76.8690135547
 30
0.0
 10
74.8381366072
 20
76.3515237683
 30
0.0
 10
74.8678240684
 20
76.0086914092
 30
0.0
 10
74.8678240684
 20
75.8438817164
 30
0.0
  0
SPLINE
  5
255
100
AcDbEntity
  8
0
100
AcDbSpline
 62
7
  6
BYLAYER
 70
0
 71
3
 72
15
 73
11
 74
0
 42
0.0000001
 43
0.0000001
 44
0.0000000001
 40
0.0
 40
0.0
 40
0.0
 40
0.0
 40
0.1176402486
 40
0.2427619546
 40
0.3729855734
 40
0.5054590898
 40
0.6371885061
 40
0.7652126699
 40
0.8869031228
 40
1.0
 40
1.0
 40
1.0
 40
1.0
 10
61.6176906258
 20
72.6730091667
 30
0.0
 10
61.6290907958
 20
72.5232601159
 30
0.0
 10
61.6759228863
 20
72.2157510124
 30
0.0
 10
61.8063027747
 20
71.7567186989
 30
0.0
 10
61.9948568773
 20
71.297834282
 30
0.0
 10
62.235374585
 20
70.854385671
 30
0.0
 10
62.5198458758
 20
70.4411587352
 30
0.0
 10
62.8388037029
 20
70.0717790509
 30
0.0
 10
63.1816529378
 20
69.7587168759
 30
0.0
 10
63.4290291181
 20
69.5871940845
 30
0.0
 10
63.5540684661
 20
69.5150042165
 30
0.0
  0
SPLINE
  5
256
100
AcDbEntity
  8
0
100
AcDbSpline
 62
7
  6
BYLAYER
 70
0
 71
3
 72
20
 73
16
 74
0
 42
0.0000001
 43
0.0000001
 44
0.0000000001
 40
0.0
 40
0.0
 40
0.0
 40
0.0
 40
0.0428303335
 40
0.0874301415
 40
0.1352307968
 40
0.1871626307
 40
0.2436313971
 40
0.3046122949
 40
0.3697374583
 40
0.4383719318
 40
0.5826219291
 40
0.7296878451
 40
0.8711869866
 40
0.9376077114
 40
1.0
 40
1.0
 40
1.0
 40
1.0
 10
67.1288681734
 20
59.853279154
 30
0.0
 10
67.1966691319
 20
59.8924087217
 30
0.0
 10
67.3460989211
 20
59.9545561168
 30
0.0
 10
67.5927971961
 20
59.9906567212
 30
0.0
 10
67.8577076977
 20
59.9712161692
 30
0.0
 10
68.1349492234
 20
59.8975256428
 30
0.0
 10
68.4190863937
 20
59.7719597564
 30
0.0
 10
68.7044687487
 20
59.5973975613
 30
0.0
 10
68.985279439
 20
59.3775317802
 30
0.0
 10
69.3517710741
 20
59.0245539588
 30
0.0
 10
69.7590158031
 20
58.5029895226
 30
0.0
 10
70.1370643111
 20
57.8043680315
 30
0.0
 10
70.346329258
 20
57.1858567963
 30
0.0
 10
70.4328940532
 20
56.6986937456
 30
0.0
 10
70.4484059501
 20
56.4630932354
 30
0.0
 10
70.4484059501
 20
56.3490571934
 30
0.0
  0
SPLINE
  5
257
100
AcDbEntity
  8
0
100
AcDbSpline
 62
7
  6
BYLAYER
 70
0
 71
3
 72
15
 73
11
 74
0
 42
0.0000001
 43
0.0000001
 44
0.0000000001
 40
0.0
 40
0.0
 40
0.0
 40
0.0
 40
0.1130973709
 40
0.2348171933
 40
0.3628493287
 40
0.4945925749
 40
0.6270704202
 40
0.7572933668
 40
0.8824240434
 40
1.0
 40
1.0
 40
1.0
 40
1.0
 10
68.6806139734
 20
45.1220702966
 30
0.0
 10
68.6806139734
 20
44.9776668657
 30
0.0
 10
68.7055015366
 20
44.677592818
 30
0.0
 10
68.8052165842
 20
44.2240325497
 30
0.0
 10
68.9657175678
 20
43.7630034356
 30
0.0
 10
69.1814225973
 20
43.3099500908
 30
0.0
 10
69.4453057585
 20
42.8798842799
 30
0.0
 10
69.7485485821
 20
42.4871236291
 30
0.0
 10
70.0809760912
 20
42.1447892504
 30
0.0
 10
70.3238328882
 20
41.95046736
 30
0.0
 10
70.4478003801
 20
41.8657998285
 30
0.0
  0
SPLINE
  5
258
100
AcDbEntity
  8
0
100
AcDbSpline
 62
7
  6
BYLAYER
 70
0
 71
3
 72
15
 73
11
 74
0
 42
0.0000001
 43
0.0000001
 44
0.0000000001
 40
0.0
 40
0.0
 40
0.0
 40
0.0
 40
0.1176402486
 40
0.2427619546
 40
0.3729855734
 40
0.5054590898
 40
0.6371885061
 40
0.7652126699
 40
0.8869031228
 40
1.0
 40
1.0
 40
1.0
 40
1.0
 10
31.9190821696
 20
73.489072514
 30
0.0
 10
31.9304823396
 20
73.3393234632
 30
0.0
 10
31.9773144302
 20
73.0318143597
 30
0.0
 10
32.1076943185
 20
72.5727820462
 30
0.0
 10
32.2962484211
 20
72.1138976292
 30
0.0
 10
32.5367661288
 20
71.6704490183
 30
0.0
 10
32.8212374196
 20
71.2572220825
 30
0.0
 10
33.1401952468
 20
70.8878423982
 30
0.0
 10
33.4830444816
 20
70.5747802232
 30
0.0
 10
33.7304206619
 20
70.4032574318
 30
0.0
 10
33.8554600099
 20
70.3310675638
 30
0.0
  0
SPLINE
  5
259
100
AcDbEntity
  8
0
100
AcDbSpline
 62
7
  6
BYLAYER
 70
0
 71
3
 72
15
 73
11
 74
0
 42
0.0000001
 43
0.0000001
 44
0.0000000001
 40
0.0
 40
0.0
 40
0.0
 40
0.0
 40
0.1130973709
 40
0.2348171933
 40
0.3628493287
 40
0.4945925749
 40
0.6270704202
 40
0.7572933668
 40
0.8824240434
 40
1.0
 40
1.0
 40
1.0
 40
1.0
 10
31.9109082657
 20
82.6806378742
 30
0.0
 10
31.9109082657
 20
82.5362344434
 30
0.0
 10
31.935795829
 20
82.2361603957
 30
0.0
 10
32.0355108765
 20
81.7826001274
 30
0.0
 10
32.1960118602
 20
81.3215710132
 30
0.0
 10
32.4117168896
 20
80.8685176685
 30
0.0
 10
32.6756000508
 20
80.4384518576
 30
0.0
 10
32.9788428745
 20
80.0456912068
 30
0.0
 10
33.3112703836
 20
79.7033568281
 30
0.0
 10
33.5541271806
 20
79.5090349376
 30
0.0
 10
33.6780946725
 20
79.4243674061
 30
0.0
  0
SPLINE
  5
25A
100
AcDbEntity
  8
0
100
AcDbSpline
 62
7
  6
BYLAYER
 70
0
 71
3
 72
12
 73
8
 74
0
 42
0.0000001
 43
0.0000001
 44
0.0000000001
 40
0.0
 40
0.0
 40
0.0
 40
0.0
 40
0.1081614689
 40
0.2183687405
 40
0.4513480154
 40
0.7104447573
 40
1.0
 40
1.0
 40
1.0
 40
1.0
 10
60.0577732174
 20
72.9172093099
 30
0.0
 10
60.1028589744
 20
72.9432394301
 30
0.0
 10
60.1985888649
 20
72.9880849302
 30
0.0
 10
60.4088091248
 20
73.046220008
 30
0.0
 10
60.7032485132
 20
73.0541156058
 30
0.0
 10
61.0719749396
 20
72.964913033
 30
0.0
 10
61.3120589649
 20
72.8507184894
 30
0.0
 10
61.4327569544
 20
72.7810350491
 30
0.0
  0
SPLINE
  5
25B
100
AcDbEntity
  8
0
100
AcDbSpline
 62
7
  6
BYLAYER
 70
0
 71
3
 72
12
 73
8
 74
0
 42
0.0000001
 43
0.0000001
 44
0.0000000001
 40
0.0
 40
0.0
 40
0.0
 40
0.0
 40
0.289556229
 40
0.5486533222
 40
0.7816321932
 40
0.8918390364
 40
1.0
 40
1.0
 40
1.0
 40
1.0
 10
70.4484059501
 20
65.3305837818
 30
0.0
 10
70.4484059501
 20
65.191210332
 30
0.0
 10
70.427261215
 20
64.9261862371
 30
0.0
 10
70.3201496844
 20
64.5622473972
 30
0.0
 10
70.166089415
 20
64.3111957668
 30
0.0
 10
70.0106291515
 20
64.1582035023
 30
0.0
 10
69.9239246958
 20
64.0977206439
 30
0.0
 10
69.8788379429
 20
64.0716899488
 30
0.0
  0
SPLINE
  5
25C
100
AcDbEntity
  8
0
100
AcDbSpline
 62
7
  6
BYLAYER
 70
0
 71
3
 72
15
 73
11
 74
0
 42
0.0000001
 43
0.0000001
 44
0.0000000001
 40
0.0
 40
0.0
 40
0.0
 40
0.0
 40
0.1141465952
 40
0.2373352439
 40
0.366975646
 40
0.4999989181
 40
0.6330223406
 40
0.7626631822
 40
0.8858525235
 40
1.0
 40
1.0
 40
1.0
 40
1.0
 10
68.5038542059
 20
68.6986275039
 30
0.0
 10
68.6369646749
 20
68.6217778773
 30
0.0
 10
68.8998996619
 20
68.4374439532
 30
0.0
 10
69.2617058158
 20
68.098989557
 30
0.0
 10
69.5950880802
 20
67.6988533445
 30
0.0
 10
69.8875683134
 20
67.2521560592
 30
0.0
 10
70.1281819193
 20
66.7755127203
 30
0.0
 10
70.3080220714
 20
66.2867264402
 30
0.0
 10
70.4202327724
 20
65.8041640119
 30
0.0
 10
70.4484059501
 20
65.4842868295
 30
0.0
 10
70.4484059501
 20
65.3305837818
 30
0.0
  0
SPLINE
  5
25D
100
AcDbEntity
  8
0
100
AcDbSpline
 62
7
  6
BYLAYER
 70
0
 71
3
 72
12
 73
8
 74
0
 42
0.0000001
 43
0.0000001
 44
0.0000000001
 40
0.0
 40
0.0
 40
0.0
 40
0.0
 40
0.2895282256
 40
0.5486656424
 40
0.7816301204
 40
0.8918390955
 40
1.0
 40
1.0
 40
1.0
 40
1.0
 10
70.4484059501
 20
41.6520136851
 30
0.0
 10
70.4484059501
 20
41.5126542839
 30
0.0
 10
70.4272403773
 20
41.2476289882
 30
0.0
 10
70.3201627226
 20
40.8836831461
 30
0.0
 10
70.1660810824
 20
40.6326240016
 30
0.0
 10
70.0106173869
 20
40.4796510295
 30
0.0
 10
69.9239311309
 20
40.4191389155
 30
0.0
 10
69.8788402384
 20
40.3931158744
 30
0.0
  0
SPLINE
  5
25E
100
AcDbEntity
  8
0
100
AcDbSpline
 62
7
  6
BYLAYER
 70
0
 71
3
 72
12
 73
8
 74
0
 42
0.0000001
 43
0.0000001
 44
0.0000000001
 40
0.0
 40
0.0
 40
0.0
 40
0.0
 40
0.289556229
 40
0.5486533222
 40
0.7816321932
 40
0.8918390364
 40
1.0
 40
1.0
 40
1.0
 40
1.0
 10
40.7497974939
 20
66.1466471291
 30
0.0
 10
40.7497974939
 20
66.0072736792
 30
0.0
 10
40.7286527588
 20
65.7422495844
 30
0.0
 10
40.6215412282
 20
65.3783107444
 30
0.0
 10
40.4674809588
 20
65.1272591141
 30
0.0
 10
40.3120206953
 20
64.9742668496
 30
0.0
 10
40.2253162396
 20
64.9137839912
 30
0.0
 10
40.1802294867
 20
64.8877532961
 30
0.0
  0
SPLINE
  5
25F
100
AcDbEntity
  8
0
100
AcDbSpline
 62
7
  6
BYLAYER
 70
0
 71
3
 72
15
 73
11
 74
0
 42
0.0000001
 43
0.0000001
 44
0.0000000001
 40
0.0
 40
0.0
 40
0.0
 40
0.0
 40
0.1141465952
 40
0.2373352439
 40
0.366975646
 40
0.4999989181
 40
0.6330223406
 40
0.7626631822
 40
0.8858525235
 40
1.0
 40
1.0
 40
1.0
 40
1.0
 10
38.8052457497
 20
69.5146908511
 30
0.0
 10
38.9383562187
 20
69.4378412246
 30
0.0
 10
39.2012912057
 20
69.2535073005
 30
0.0
 10
39.5630973597
 20
68.9150529042
 30
0.0
 10
39.896479624
 20
68.5149166918
 30
0.0
 10
40.1889598572
 20
68.0682194065
 30
0.0
 10
40.4295734631
 20
67.5915760675
 30
0.0
 10
40.6094136152
 20
67.1027897874
 30
0.0
 10
40.7216243162
 20
66.6202273591
 30
0.0
 10
40.7497974939
 20
66.3003501767
 30
0.0
 10
40.7497974939
 20
66.1466471291
 30
0.0
  0
SPLINE
  5
260
100
AcDbEntity
  8
0
100
AcDbSpline
 62
7
  6
BYLAYER
 70
0
 71
3
 72
12
 73
8
 74
0
 42
0.0000001
 43
0.0000001
 44
0.0000000001
 40
0.0
 40
0.0
 40
0.0
 40
0.0
 40
0.2895282256
 40
0.5486656424
 40
0.7816301204
 40
0.8918390955
 40
1.0
 40
1.0
 40
1.0
 40
1.0
 10
33.6787002424
 20
79.2105812627
 30
0.0
 10
33.6787002424
 20
79.0712218616
 30
0.0
 10
33.6575346696
 20
78.8061965659
 30
0.0
 10
33.5504570149
 20
78.4422507237
 30
0.0
 10
33.3963753748
 20
78.1911915793
 30
0.0
 10
33.2409116793
 20
78.0382186071
 30
0.0
 10
33.1542254232
 20
77.9777064932
 30
0.0
 10
33.1091345307
 20
77.951683452
 30
0.0
  0
SPLINE
  5
261
100
AcDbEntity
  8
0
100
AcDbSpline
 62
7
  6
BYLAYER
 70
0
 71
3
 72
15
 73
11
 74
0
 42
0.0000001
 43
0.0000001
 44
0.0000000001
 40
0.0
 40
0.0
 40
0.0
 40
0.0
 40
0.1141543519
 40
0.237325601
 40
0.366974755
 40
0.4999984147
 40
0.6330222943
 40
0.7626720931
 40
0.8858443543
 40
1.0
 40
1.0
 40
1.0
 40
1.0
 10
70.6252010451
 20
23.5869528458
 30
0.0
 10
70.9156427775
 20
23.7546384572
 30
0.0
 10
71.4893172002
 20
24.1567801717
 30
0.0
 10
72.2786618817
 20
24.8952761752
 30
0.0
 10
73.0060856626
 20
25.7682335555
 30
0.0
 10
73.6441897392
 20
26.7429048871
 30
0.0
 10
74.169223557
 20
27.7828591636
 30
0.0
 10
74.5615123651
 20
28.8493121016
 30
0.0
 10
74.8063956007
 20
29.9021616537
 30
0.0
 10
74.8678240684
 20
30.6000557466
 30
0.0
 10
74.8678240684
 20
30.9354322718
 30
0.0
  0
SPLINE
  5
262
100
AcDbEntity
  8
0
100
AcDbSpline
 62
7
  6
BYLAYER
 70
0
 71
3
 72
12
 73
8
 74
0
 42
0.0000001
 43
0.0000001
 44
0.0000000001
 40
0.0
 40
0.0
 40
0.0
 40
0.0
 40
0.2880662072
 40
0.5466358625
 40
0.7802326891
 40
0.8910816187
 40
1.0
 40
1.0
 40
1.0
 40
1.0
 10
10.4662477988
 20
38.7233987362
 30
0.0
 10
10.3421356922
 20
38.7988525435
 30
0.0
 10
10.1171974324
 20
38.961281547
 30
0.0
 10
9.849544434
 20
39.2539745219
 30
0.0
 10
9.7066157863
 20
39.5275901076
 30
0.0
 10
9.6508393069
 20
39.7501537491
 30
0.0
 10
9.6416382481
 20
39.8611846917
 30
0.0
 10
9.6416403216
 20
39.9161033808
 30
0.0
  0
SPLINE
  5
263
100
AcDbEntity
  8
0
100
AcDbSpline
 62
7
  6
BYLAYER
 70
0
 71
3
 72
15
 73
11
 74
0
 42
0.0000001
 43
0.0000001
 44
0.0000000001
 40
0.0
 40
0.0
 40
0.0
 40
0.0
 40
0.1138349603
 40
0.236581064
 40
0.365753949
 40
0.4984064108
 40
0.631279662
 40
0.7610979516
 40
0.8848632623
 40
1.0
 40
1.0
 40
1.0
 40
1.0
 10
55.7753133598
 20
15.0134173704
 30
0.0
 10
55.6325852579
 20
14.9310137542
 30
0.0
 10
55.3208422302
 20
14.7853097404
 30
0.0
 10
54.8134382506
 20
14.6291868931
 30
0.0
 10
54.2639717553
 20
14.5314743865
 30
0.0
 10
53.6924840272
 20
14.4956385845
 30
0.0
 10
53.1195996623
 20
14.5230464926
 30
0.0
 10
52.5660048324
 20
14.6126324523
 30
0.0
 10
52.0519024246
 20
14.7612216513
 30
0.0
 10
51.7343132889
 20
14.9020580937
 30
0.0
 10
51.5881476958
 20
14.9821958589
 30
0.0
  0
SPLINE
  5
264
100
AcDbEntity
  8
0
100
AcDbSpline
 62
7
  6
BYLAYER
 70
0
 71
3
 72
15
 73
11
 74
0
 42
0.0000001
 43
0.0000001
 44
0.0000000001
 40
0.0
 40
0.0
 40
0.0
 40
0.0
 40
0.1146800006
 40
0.238632951
 40
0.3690604219
 40
0.5027043027
 40
0.6359641794
 40
0.7653022247
 40
0.8874962401
 40
1.0
 40
1.0
 40
1.0
 40
1.0
 10
43.0833240597
 20
32.9968752127
 30
0.0
 10
42.9216291117
 20
33.0902277226
 30
0.0
 10
42.5672470859
 20
33.2541804528
 30
0.0
 10
41.9898576172
 20
33.4262816492
 30
0.0
 10
41.3649194807
 20
33.5290416894
 30
0.0
 10
40.7172711179
 20
33.5585521166
 30
0.0
 10
40.0722768724
 20
33.513562395
 30
0.0
 10
39.4552990029
 20
33.3958481528
 30
0.0
 10
38.8906966347
 20
33.2100826817
 30
0.0
 10
38.5475836651
 20
33.0372451666
 30
0.0
 10
38.3924700693
 20
32.939832518
 30
0.0
  0
SPLINE
  5
265
100
AcDbEntity
  8
0
100
AcDbSpline
 62
7
  6
BYLAYER
 70
0
 71
3
 72
12
 73
8
 74
0
 42
0.0000001
 43
0.0000001
 44
0.0000000001
 40
0.0
 40
0.0
 40
0.0
 40
0.0
 40
0.1081603296
 40
0.2183666174
 40
0.4513448629
 40
0.7104422948
 40
1.0
 40
1.0
 40
1.0
 40
1.0
 10
29.185879031
 20
46.7750693509
 30
0.0
 10
29.1858790318
 20
46.7135445518
 30
0.0
 10
29.1752102264
 20
46.5890691822
 30
0.0
 10
29.1104892393
 20
46.3395637495
 30
0.0
 10
28.9445815535
 20
46.0335492318
 30
0.0
 10
28.6353976092
 20
45.7088805865
 30
0.0
 10
28.376651918
 20
45.5306410295
 30
0.0
 10
28.2340095278
 20
45.4482868987
 30
0.0
  0
SPLINE
  5
266
100
AcDbEntity
  8
0
100
AcDbSpline
 62
7
  6
BYLAYER
 70
0
 71
3
 72
15
 73
11
 74
0
 42
0.0000001
 43
0.0000001
 44
0.0000000001
 40
0.0
 40
0.0
 40
0.0
 40
0.0
 40
0.1141469224
 40
0.2373360366
 40
0.366976904
 40
0.5000005214
 40
0.6330240662
 40
0.7626647219
 40
0.8858535023
 40
1.0
 40
1.0
 40
1.0
 40
1.0
 10
36.7193070937
 20
40.7534665453
 30
0.0
 10
36.5619945599
 20
40.8442889244
 30
0.0
 10
36.2179577521
 20
41.0044684584
 30
0.0
 10
35.6577573082
 20
41.1747685461
 30
0.0
 10
35.0512236595
 20
41.2795304043
 30
0.0
 10
34.4212061793
 20
41.314918024
 30
0.0
 10
33.7911892028
 20
41.2795274141
 30
0.0
 10
33.184657042
 20
41.174762676
 30
0.0
 10
32.6244590099
 20
41.0044599253
 30
0.0
 10
32.2804243097
 20
40.844278673
 30
0.0
 10
32.1231130161
 20
40.7534554974
 30
0.0
  0
SPLINE
  5
267
100
AcDbEntity
  8
0
100
AcDbSpline
 62
7
  6
BYLAYER
 70
0
 71
3
 72
15
 73
11
 74
0
 42
0.0000001
 43
0.0000001
 44
0.0000000001
 40
0.0
 40
0.0
 40
0.0
 40
0.0
 40
0.1141469224
 40
0.2373360366
 40
0.366976904
 40
0.5000005214
 40
0.6330240662
 40
0.7626647219
 40
0.8858535023
 40
1.0
 40
1.0
 40
1.0
 40
1.0
 10
28.233990392
 20
45.6523555996
 30
0.0
 10
28.0766778581
 20
45.7431779787
 30
0.0
 10
27.7326410504
 20
45.9033575126
 30
0.0
 10
27.1724406065
 20
46.0736576003
 30
0.0
 10
26.5659069577
 20
46.1784194586
 30
0.0
 10
25.9358894776
 20
46.2138070782
 30
0.0
 10
25.3058725011
 20
46.1784164684
 30
0.0
 10
24.6993403402
 20
46.0736517302
 30
0.0
 10
24.1391423081
 20
45.9033489795
 30
0.0
 10
23.795107608
 20
45.7431677273
 30
0.0
 10
23.6377963143
 20
45.6523445517
 30
0.0
  0
SPLINE
  5
268
100
AcDbEntity
  8
0
100
AcDbSpline
 62
7
  6
BYLAYER
 70
0
 71
3
 72
12
 73
8
 74
0
 42
0.0000001
 43
0.0000001
 44
0.0000000001
 40
0.0
 40
0.0
 40
0.0
 40
0.0
 40
0.1081603296
 40
0.2183666174
 40
0.4513448629
 40
0.7104422948
 40
1.0
 40
1.0
 40
1.0
 40
1.0
 10
37.6711957327
 20
41.8761802966
 30
0.0
 10
37.6711957335
 20
41.8146554976
 30
0.0
 10
37.6605269281
 20
41.690180128
 30
0.0
 10
37.5958059411
 20
41.4406746952
 30
0.0
 10
37.4298982553
 20
41.1346601776
 30
0.0
 10
37.1207143109
 20
40.8099915322
 30
0.0
 10
36.8619686197
 20
40.6317519752
 30
0.0
 10
36.7193262295
 20
40.5493978444
 30
0.0
  0
SPLINE
  5
269
100
AcDbEntity
  8
0
100
AcDbSpline
 62
7
  6
BYLAYER
 70
0
 71
3
 72
12
 73
8
 74
0
 42
0.0000001
 43
0.0000001
 44
0.0000000001
 40
0.0
 40
0.0
 40
0.0
 40
0.0
 40
0.2895623907
 40
0.5486525338
 40
0.7816344051
 40
0.8918395903
 40
1.0
 40
1.0
 40
1.0
 40
1.0
 10
10.5202909504
 20
43.5903329111
 30
0.0
 10
10.388618781
 20
43.5143124024
 30
0.0
 10
10.1497740281
 20
43.3497874984
 30
0.0
 10
9.8643806948
 20
43.0500875028
 30
0.0
 10
9.7112243006
 20
42.7676194803
 30
0.0
 10
9.6514926464
 20
42.5373020068
 30
0.0
 10
9.6416424659
 20
42.4224028569
 30
0.0
 10
9.6416403216
 20
42.3656106322
 30
0.0
  0
SPLINE
  5
26A
100
AcDbEntity
  8
0
100
AcDbSpline
 62
7
  6
BYLAYER
 70
0
 71
3
 72
12
 73
8
 74
0
 42
0.0000001
 43
0.0000001
 44
0.0000000001
 40
0.0
 40
0.0
 40
0.0
 40
0.0
 40
0.2895278362
 40
0.5486637958
 40
0.7816295189
 40
0.8918385157
 40
1.0
 40
1.0
 40
1.0
 40
1.0
 10
38.4871491178
 20
32.7927954639
 30
0.0
 10
38.3445195494
 20
32.8751408207
 30
0.0
 10
38.085780366
 20
33.0533996443
 30
0.0
 10
37.7765653972
 20
33.378040878
 30
0.0
 10
37.6106564671
 20
33.6840836482
 30
0.0
 10
37.5459530582
 20
33.9335860494
 30
0.0
 10
37.5352450008
 20
34.0580629488
 30
0.0
 10
37.5352555182
 20
34.1195889639
 30
0.0
  0
SPLINE
  5
26B
100
AcDbEntity
  8
0
100
AcDbSpline
 62
7
  6
BYLAYER
 70
0
 71
3
 72
12
 73
8
 74
0
 42
0.0000001
 43
0.0000001
 44
0.0000000001
 40
0.0
 40
0.0
 40
0.0
 40
0.0
 40
0.2895581804
 40
0.5486557816
 40
0.7816338325
 40
0.891839914
 40
1.0
 40
1.0
 40
1.0
 40
1.0
 10
25.0520937797
 20
36.4669452578
 30
0.0
 10
24.909448722
 20
36.5492995572
 30
0.0
 10
24.6506981205
 20
36.7275397977
 30
0.0
 10
24.3415078958
 20
37.0522108394
 30
0.0
 10
24.1755965724
 20
37.3582284363
 30
0.0
 10
24.1108741779
 20
37.607736581
 30
0.0
 10
24.1002051415
 20
37.732213304
 30
0.0
 10
24.1002051407
 20
37.7937387579
 30
0.0
  0
SPLINE
  5
26C
100
AcDbEntity
  8
0
100
AcDbSpline
 62
7
  6
BYLAYER
 70
0
 71
3
 72
15
 73
11
 74
0
 42
0.0000001
 43
0.0000001
 44
0.0000000001
 40
0.0
 40
0.0
 40
0.0
 40
0.0
 40
0.1141464977
 40
0.2373352781
 40
0.3669759338
 40
0.4999994786
 40
0.633023096
 40
0.7626639634
 40
0.8858530776
 40
1.0
 40
1.0
 40
1.0
 40
1.0
 10
29.6482878574
 20
36.4669563057
 30
0.0
 10
29.4909765637
 20
36.3761331301
 30
0.0
 10
29.1469418636
 20
36.2159518779
 30
0.0
 10
28.5867438315
 20
36.0456491271
 30
0.0
 10
27.9802116706
 20
35.940884389
 30
0.0
 10
27.3501946941
 20
35.9054937791
 30
0.0
 10
26.720177214
 20
35.9408813988
 30
0.0
 10
26.1136435652
 20
36.0456432571
 30
0.0
 10
25.5534431213
 20
36.2159433448
 30
0.0
 10
25.2094063136
 20
36.3761228787
 30
0.0
 10
25.0520937797
 20
36.4669452578
 30
0.0
  0
SPLINE
  5
26D
100
AcDbEntity
  8
0
100
AcDbSpline
 62
7
  6
BYLAYER
 70
0
 71
3
 72
12
 73
8
 74
0
 42
0.0000001
 43
0.0000001
 44
0.0000000001
 40
0.0
 40
0.0
 40
0.0
 40
0.0
 40
0.2895581804
 40
0.5486557816
 40
0.7816338325
 40
0.891839914
 40
1.0
 40
1.0
 40
1.0
 40
1.0
 10
16.566777078
 20
41.3658343121
 30
0.0
 10
16.4241320203
 20
41.4481886114
 30
0.0
 10
16.1653814188
 20
41.6264288519
 30
0.0
 10
15.856191194
 20
41.9510998936
 30
0.0
 10
15.6902798707
 20
42.2571174906
 30
0.0
 10
15.6255574761
 20
42.5066256352
 30
0.0
 10
15.6148884397
 20
42.6311023583
 30
0.0
 10
15.614888439
 20
42.6926278122
 30
0.0
  0
SPLINE
  5
26E
100
AcDbEntity
  8
0
100
AcDbSpline
 62
7
  6
BYLAYER
 70
0
 71
3
 72
15
 73
11
 74
0
 42
0.0000001
 43
0.0000001
 44
0.0000000001
 40
0.0
 40
0.0
 40
0.0
 40
0.0
 40
0.1141464977
 40
0.2373352781
 40
0.3669759338
 40
0.4999994786
 40
0.633023096
 40
0.7626639634
 40
0.8858530776
 40
1.0
 40
1.0
 40
1.0
 40
1.0
 10
21.1629711556
 20
41.36584536
 30
0.0
 10
21.005659862
 20
41.2750221844
 30
0.0
 10
20.6616251618
 20
41.1148409321
 30
0.0
 10
20.1014271297
 20
40.9445381814
 30
0.0
 10
19.4948949689
 20
40.8397734433
 30
0.0
 10
18.8648779924
 20
40.8043828334
 30
0.0
 10
18.2348605122
 20
40.8397704531
 30
0.0
 10
17.6283268635
 20
40.9445323113
 30
0.0
 10
17.0681264196
 20
41.114832399
 30
0.0
 10
16.7240896118
 20
41.275011933
 30
0.0
 10
16.566777078
 20
41.3658343121
 30
0.0
  0
SPLINE
  5
26F
100
AcDbEntity
  8
0
100
AcDbSpline
 62
7
  6
BYLAYER
 70
0
 71
3
 72
20
 73
16
 74
0
 42
0.0000001
 43
0.0000001
 44
0.0000000001
 40
0.0
 40
0.0
 40
0.0
 40
0.0
 40
0.042830198
 40
0.0874300641
 40
0.1352307783
 40
0.1871625993
 40
0.2436312369
 40
0.3046121258
 40
0.3697374274
 40
0.4383723652
 40
0.5826242404
 40
0.7296907765
 40
0.8711893246
 40
0.9376086741
 40
1.0
 40
1.0
 40
1.0
 40
1.0
 10
61.0058510629
 20
24.3218108556
 30
0.0
 10
61.0058352484
 20
24.2292962443
 30
0.0
 10
60.9811434852
 20
24.0396343009
 30
0.0
 10
60.8723110339
 20
23.7658130285
 30
0.0
 10
60.695872667
 20
23.5061721975
 30
0.0
 10
60.4566225562
 20
23.265970606
 30
0.0
 10
60.1602069882
 20
23.0493638696
 30
0.0
 10
59.8129083635
 20
22.8604363452
 30
0.0
 10
59.421944182
 20
22.7029560813
 30
0.0
 10
58.8441091352
 20
22.5364395477
 30
0.0
 10
58.069647416
 20
22.4278331549
 30
0.0
 10
57.1312261854
 20
22.4537286919
 30
0.0
 10
56.3745394252
 20
22.6050334402
 30
0.0
 10
55.8247894481
 20
22.8042957691
 30
0.0
 10
55.5744950706
 20
22.9276348581
 30
0.0
 10
55.4577825214
 20
22.9950173554
 30
0.0
  0
SPLINE
  5
270
100
AcDbEntity
  8
0
100
AcDbSpline
 62
7
  6
BYLAYER
 70
0
 71
3
 72
15
 73
11
 74
0
 42
0.0000001
 43
0.0000001
 44
0.0000000001
 40
0.0
 40
0.0
 40
0.0
 40
0.0
 40
0.1141462769
 40
0.2373347432
 40
0.3669750849
 40
0.4999983967
 40
0.6330219315
 40
0.7626629244
 40
0.8858524171
 40
1.0
 40
1.0
 40
1.0
 40
1.0
 10
25.3701786357
 20
52.1638683865
 30
0.0
 10
25.5153889601
 20
52.2477051059
 30
0.0
 10
25.8022248893
 20
52.4487981916
 30
0.0
 10
26.1969191538
 20
52.818023055
 30
0.0
 10
26.5606058069
 20
53.2545370074
 30
0.0
 10
26.8796724441
 20
53.7418446313
 30
0.0
 10
27.1421577861
 20
54.261820393
 30
0.0
 10
27.3383453766
 20
54.7950426638
 30
0.0
 10
27.4607560121
 20
55.3214749028
 30
0.0
 10
27.4914901474
 20
55.6704319916
 30
0.0
 10
27.4914901474
 20
55.8381080995
 30
0.0
  0
SPLINE
  5
271
100
AcDbEntity
  8
0
100
AcDbSpline
 62
7
  6
BYLAYER
 70
0
 71
3
 72
12
 73
8
 74
0
 42
0.0000001
 43
0.0000001
 44
0.0000000001
 40
0.0
 40
0.0
 40
0.0
 40
0.0
 40
0.1089197329
 40
0.2197698288
 40
0.453367872
 40
0.7119367013
 40
1.0
 40
1.0
 40
1.0
 40
1.0
 10
30.2341476604
 20
103.3446303488
 30
0.0
 10
30.2817080787
 20
103.3720916018
 30
0.0
 10
30.3824648978
 20
103.4196391571
 30
0.0
 10
30.6030993057
 20
103.4826190839
 30
0.0
 10
30.9115207981
 20
103.4956520777
 30
0.0
 10
31.2988258483
 20
103.4102130236
 30
0.0
 10
31.5519623235
 20
103.2966318376
 30
0.0
 10
31.6793629152
 20
103.2268780487
 30
0.0
  0
SPLINE
  5
272
100
AcDbEntity
  8
0
100
AcDbSpline
 62
7
  6
BYLAYER
 70
0
 71
3
 72
12
 73
8
 74
0
 42
0.0000001
 43
0.0000001
 44
0.0000000001
 40
0.0
 40
0.0
 40
0.0
 40
0.0
 40
0.1081610438
 40
0.2183667844
 40
0.4513492811
 40
0.7104390858
 40
1.0
 40
1.0
 40
1.0
 40
1.0
 10
28.1128361488
 20
102.1198978872
 30
0.0
 10
28.0636515838
 20
102.0914988565
 30
0.0
 10
27.9690669646
 20
102.025516372
 30
0.0
 10
27.7994644217
 20
101.858622689
 30
0.0
 10
27.6314100844
 20
101.5847422534
 30
0.0
 10
27.5145524498
 20
101.1877213964
 30
0.0
 10
27.4914901474
 20
100.8986039296
 30
0.0
 10
27.4914901474
 20
100.7465575441
 30
0.0
  0
SPLINE
  5
273
100
AcDbEntity
  8
0
100
AcDbSpline
 62
7
  6
BYLAYER
 70
0
 71
3
 72
12
 73
8
 74
0
 42
0.0000001
 43
0.0000001
 44
0.0000000001
 40
0.0
 40
0.0
 40
0.0
 40
0.0
 40
0.1081614689
 40
0.2183687405
 40
0.4513480154
 40
0.7104447573
 40
1.0
 40
1.0
 40
1.0
 40
1.0
 10
30.3591647613
 20
73.7332726572
 30
0.0
 10
30.4042505182
 20
73.7593027773
 30
0.0
 10
30.4999804087
 20
73.8041482775
 30
0.0
 10
30.7102006687
 20
73.8622833552
 30
0.0
 10
31.0046400571
 20
73.8701789531
 30
0.0
 10
31.3733664834
 20
73.7809763803
 30
0.0
 10
31.6134505087
 20
73.6667818367
 30
0.0
 10
31.7341484983
 20
73.5970983963
 30
0.0
  0
SPLINE
  5
274
100
AcDbEntity
  8
0
100
AcDbSpline
 62
7
  6
BYLAYER
 70
0
 71
3
 72
12
 73
8
 74
0
 42
0.0000001
 43
0.0000001
 44
0.0000000001
 40
0.0
 40
0.0
 40
0.0
 40
0.0
 40
0.2895282256
 40
0.5486656424
 40
0.7816301204
 40
0.8918390955
 40
1.0
 40
1.0
 40
1.0
 40
1.0
 10
29.7895967541
 20
96.1529489209
 30
0.0
 10
29.7895967541
 20
96.2923083221
 30
0.0
 10
29.8107623269
 20
96.5573336178
 30
0.0
 10
29.9178399816
 20
96.9212794599
 30
0.0
 10
30.0719216218
 20
97.1723386044
 30
0.0
 10
30.2273853172
 20
97.3253115765
 30
0.0
 10
30.3140715733
 20
97.3858236905
 30
0.0
 10
30.3591624658
 20
97.4118467316
 30
0.0
  0
SPLINE
  5
275
100
AcDbEntity
  8
0
100
AcDbSpline
 62
7
  6
BYLAYER
 70
0
 71
3
 72
12
 73
8
 74
0
 42
0.0000001
 43
0.0000001
 44
0.0000000001
 40
0.0
 40
0.0
 40
0.0
 40
0.0
 40
0.2895581804
 40
0.5486557816
 40
0.7816338325
 40
0.891839914
 40
1.0
 40
1.0
 40
1.0
 40
1.0
 10
28.233990392
 20
48.1018628509
 30
0.0
 10
28.3766354497
 20
48.0195085516
 30
0.0
 10
28.6353860512
 20
47.8412683111
 30
0.0
 10
28.9445762759
 20
47.5165972694
 30
0.0
 10
29.1104875993
 20
47.2105796725
 30
0.0
 10
29.1752099938
 20
46.9610715278
 30
0.0
 10
29.1858790302
 20
46.8365948048
 30
0.0
 10
29.185879031
 20
46.7750693509
 30
0.0
  0
SPLINE
  5
276
100
AcDbEntity
  8
0
100
AcDbSpline
 62
7
  6
BYLAYER
 70
0
 71
3
 72
15
 73
11
 74
0
 42
0.0000001
 43
0.0000001
 44
0.0000000001
 40
0.0
 40
0.0
 40
0.0
 40
0.0
 40
0.1141464977
 40
0.2373352781
 40
0.3669759338
 40
0.4999994786
 40
0.633023096
 40
0.7626639634
 40
0.8858530776
 40
1.0
 40
1.0
 40
1.0
 40
1.0
 10
23.6377963143
 20
48.1018518031
 30
0.0
 10
23.795107608
 20
48.1926749787
 30
0.0
 10
24.1391423081
 20
48.3528562309
 30
0.0
 10
24.6993403402
 20
48.5231589816
 30
0.0
 10
25.3058725011
 20
48.6279237198
 30
0.0
 10
25.9358894776
 20
48.6633143296
 30
0.0
 10
26.5659069577
 20
48.62792671
 30
0.0
 10
27.1724406065
 20
48.5231648517
 30
0.0
 10
27.7326410504
 20
48.352864764
 30
0.0
 10
28.0766778581
 20
48.19268523
 30
0.0
 10
28.233990392
 20
48.1018628509
 30
0.0
  0
SPLINE
  5
277
100
AcDbEntity
  8
0
100
AcDbSpline
 62
7
  6
BYLAYER
 70
0
 71
3
 72
15
 73
11
 74
0
 42
0.0000001
 43
0.0000001
 44
0.0000000001
 40
0.0
 40
0.0
 40
0.0
 40
0.0
 40
0.1141475829
 40
0.2373370756
 40
0.3669780685
 40
0.5000016033
 40
0.6330249151
 40
0.7626652568
 40
0.8858537231
 40
1.0
 40
1.0
 40
1.0
 40
1.0
 10
72.7465125568
 20
29.7106998102
 30
0.0
 10
72.7465125568
 20
29.5430237023
 30
0.0
 10
72.7157784215
 20
29.1940666135
 30
0.0
 10
72.5933677861
 20
28.6676343745
 30
0.0
 10
72.3971801955
 20
28.1344121037
 30
0.0
 10
72.1346948536
 20
27.614436342
 30
0.0
 10
71.8156282164
 20
27.1271287181
 30
0.0
 10
71.4519415632
 20
26.6906147657
 30
0.0
 10
71.0572472987
 20
26.3213899023
 30
0.0
 10
70.7704113695
 20
26.1202968166
 30
0.0
 10
70.6252010451
 20
26.0364600972
 30
0.0
  0
SPLINE
  5
278
100
AcDbEntity
  8
0
100
AcDbSpline
 62
7
  6
BYLAYER
 70
0
 71
3
 72
12
 73
8
 74
0
 42
0.0000001
 43
0.0000001
 44
0.0000000001
 40
0.0
 40
0.0
 40
0.0
 40
0.0
 40
0.1081603296
 40
0.2183666174
 40
0.4513448629
 40
0.7104422948
 40
1.0
 40
1.0
 40
1.0
 40
1.0
 10
24.1002051407
 20
37.7937387579
 30
0.0
 10
24.1002051399
 20
37.8552635569
 30
0.0
 10
24.1108739453
 20
37.9797389265
 30
0.0
 10
24.1755949324
 20
38.2292443593
 30
0.0
 10
24.3415026182
 20
38.535258877
 30
0.0
 10
24.6506865625
 20
38.8599275223
 30
0.0
 10
24.9094322537
 20
39.0381670793
 30
0.0
 10
25.0520746439
 20
39.1205212101
 30
0.0
  0
SPLINE
  5
279
100
AcDbEntity
  8
0
100
AcDbSpline
 62
7
  6
BYLAYER
 70
0
 71
3
 72
20
 73
16
 74
0
 42
0.0000001
 43
0.0000001
 44
0.0000000001
 40
0.0
 40
0.0
 40
0.0
 40
0.0
 40
0.042830198
 40
0.0874300641
 40
0.1352307783
 40
0.1871625993
 40
0.2436312369
 40
0.3046121258
 40
0.3697374274
 40
0.4383723652
 40
0.5826242404
 40
0.7296907765
 40
0.8711893246
 40
0.9376086741
 40
1.0
 40
1.0
 40
1.0
 40
1.0
 10
37.5352555182
 20
34.1195889639
 30
0.0
 10
37.5352713328
 20
34.2121035752
 30
0.0
 10
37.5599630959
 20
34.4017655185
 30
0.0
 10
37.6687955472
 20
34.6755867909
 30
0.0
 10
37.8452339141
 20
34.935227622
 30
0.0
 10
38.0844840249
 20
35.1754292135
 30
0.0
 10
38.3808995929
 20
35.3920359499
 30
0.0
 10
38.7281982177
 20
35.5809634742
 30
0.0
 10
39.1191623991
 20
35.7384437382
 30
0.0
 10
39.6969974459
 20
35.9049602717
 30
0.0
 10
40.4714591652
 20
36.0135666646
 30
0.0
 10
41.4098803957
 20
35.9876711276
 30
0.0
 10
42.166567156
 20
35.8363663793
 30
0.0
 10
42.716317133
 20
35.6371040504
 30
0.0
 10
42.9666115105
 20
35.5137649614
 30
0.0
 10
43.0833240597
 20
35.4463824641
 30
0.0
  0
SPLINE
  5
27A
100
AcDbEntity
  8
0
100
AcDbSpline
 62
7
  6
BYLAYER
 70
0
 71
3
 72
12
 73
8
 74
0
 42
0.0000001
 43
0.0000001
 44
0.0000000001
 40
0.0
 40
0.0
 40
0.0
 40
0.0
 40
0.1089183813
 40
0.2197673109
 40
0.4533641375
 40
0.7119337928
 40
1.0
 40
1.0
 40
1.0
 40
1.0
 10
9.6416403216
 20
42.3656106322
 30
0.0
 10
9.6416382481
 20
42.3106919431
 30
0.0
 10
9.6508393069
 20
42.1996610004
 30
0.0
 10
9.7066157863
 20
41.977097359
 30
0.0
 10
9.849544434
 20
41.7034817732
 30
0.0
 10
10.1171974324
 20
41.4107887984
 30
0.0
 10
10.3421356922
 20
41.2483597949
 30
0.0
 10
10.4662477988
 20
41.1729059876
 30
0.0
  0
SPLINE
  5
27B
100
AcDbEntity
  8
0
100
AcDbSpline
 62
7
  6
BYLAYER
 70
0
 71
3
 72
12
 73
8
 74
0
 42
0.0000001
 43
0.0000001
 44
0.0000000001
 40
0.0
 40
0.0
 40
0.0
 40
0.0
 40
0.2880632987
 40
0.546632128
 40
0.7802301712
 40
0.8910802671
 40
1.0
 40
1.0
 40
1.0
 40
1.0
 10
29.5580514036
 20
102.002145587
 30
0.0
 10
29.4306508119
 20
102.071899376
 30
0.0
 10
29.1775143366
 20
102.185480562
 30
0.0
 10
28.7902092865
 20
102.2709196161
 30
0.0
 10
28.4817877941
 20
102.2578866223
 30
0.0
 10
28.2611533861
 20
102.1949066955
 30
0.0
 10
28.1603965671
 20
102.1473591402
 30
0.0
 10
28.1128361488
 20
102.1198978872
 30
0.0
  0
SPLINE
  5
27C
100
AcDbEntity
  8
0
100
AcDbSpline
 62
7
  6
BYLAYER
 70
0
 71
3
 72
15
 73
11
 74
0
 42
0.0000001
 43
0.0000001
 44
0.0000000001
 40
0.0
 40
0.0
 40
0.0
 40
0.0
 40
0.1138359372
 40
0.2365826066
 40
0.3657556873
 40
0.4984080385
 40
0.6312809542
 40
0.7610987814
 40
0.8848636175
 40
1.0
 40
1.0
 40
1.0
 40
1.0
 10
72.7465125568
 20
74.6191492548
 30
0.0
 10
72.7465125568
 20
74.7839589476
 30
0.0
 10
72.7168250955
 20
75.1267913067
 30
0.0
 10
72.5983293542
 20
75.6442810931
 30
0.0
 10
72.4082165634
 20
76.1689910745
 30
0.0
 10
72.1535054562
 20
76.6818317472
 30
0.0
 10
71.8433245391
 20
77.164258197
 30
0.0
 10
71.4889398724
 20
77.598888589
 30
0.0
 10
71.1032024784
 20
77.9698142551
 30
0.0
 10
70.8224369101
 20
78.1744312906
 30
0.0
 10
70.6799513006
 20
78.2609427097
 30
0.0
  0
SPLINE
  5
27D
100
AcDbEntity
  8
0
100
AcDbSpline
 62
7
  6
BYLAYER
 70
0
 71
3
 72
12
 73
8
 74
0
 42
0.0000001
 43
0.0000001
 44
0.0000000001
 40
0.0
 40
0.0
 40
0.0
 40
0.0
 40
0.289556229
 40
0.5486533222
 40
0.7816321932
 40
0.8918390364
 40
1.0
 40
1.0
 40
1.0
 40
1.0
 10
59.4882052103
 20
71.6583154769
 30
0.0
 10
59.4882052103
 20
71.7976889268
 30
0.0
 10
59.5093499453
 20
72.0627130216
 30
0.0
 10
59.6164614759
 20
72.4266518616
 30
0.0
 10
59.7705217454
 20
72.6777034919
 30
0.0
 10
59.9259820088
 20
72.8306957564
 30
0.0
 10
60.0126864646
 20
72.8911786148
 30
0.0
 10
60.0577732174
 20
72.9172093099
 30
0.0
  0
SPLINE
  5
27E
100
AcDbEntity
  8
0
100
AcDbSpline
 62
7
  6
BYLAYER
 70
0
 71
3
 72
15
 73
11
 74
0
 42
0.0000001
 43
0.0000001
 44
0.0000000001
 40
0.0
 40
0.0
 40
0.0
 40
0.0
 40
0.1141465952
 40
0.2373352439
 40
0.366975646
 40
0.4999989181
 40
0.6330223406
 40
0.7626631822
 40
0.8858525235
 40
1.0
 40
1.0
 40
1.0
 40
1.0
 10
61.4327569544
 20
68.2902717549
 30
0.0
 10
61.2996464854
 20
68.3671213814
 30
0.0
 10
61.0367114985
 20
68.5514553055
 30
0.0
 10
60.6749053445
 20
68.8899097018
 30
0.0
 10
60.3415230802
 20
69.2900459142
 30
0.0
 10
60.049042847
 20
69.7367431995
 30
0.0
 10
59.808429241
 20
70.2133865385
 30
0.0
 10
59.628589089
 20
70.7021728186
 30
0.0
 10
59.5163783879
 20
71.1847352469
 30
0.0
 10
59.4882052103
 20
71.5046124293
 30
0.0
 10
59.4882052103
 20
71.6583154769
 30
0.0
  0
SPLINE
  5
27F
100
AcDbEntity
  8
0
100
AcDbSpline
 62
7
  6
BYLAYER
 70
0
 71
3
 72
12
 73
8
 74
0
 42
0.0000001
 43
0.0000001
 44
0.0000000001
 40
0.0
 40
0.0
 40
0.0
 40
0.0
 40
0.1081614689
 40
0.2183687405
 40
0.4513480154
 40
0.7104447573
 40
1.0
 40
1.0
 40
1.0
 40
1.0
 10
40.1802294867
 20
64.8877532961
 30
0.0
 10
40.1351437298
 20
64.8617231759
 30
0.0
 10
40.0394138393
 20
64.8168776758
 30
0.0
 10
39.8291935793
 20
64.7587425981
 30
0.0
 10
39.5347541909
 20
64.7508470002
 30
0.0
 10
39.1660277646
 20
64.840049573
 30
0.0
 10
38.9259437393
 20
64.9542441166
 30
0.0
 10
38.8052457497
 20
65.0239275569
 30
0.0
  0
SPLINE
  5
280
100
AcDbEntity
  8
0
100
AcDbSpline
 62
7
  6
BYLAYER
 70
0
 71
3
 72
20
 73
16
 74
0
 42
0.0000001
 43
0.0000001
 44
0.0000000001
 40
0.0
 40
0.0
 40
0.0
 40
0.0
 40
0.0428303335
 40
0.0874301415
 40
0.1352307968
 40
0.1871626307
 40
0.2436313971
 40
0.3046122949
 40
0.3697374583
 40
0.4383719318
 40
0.5826219291
 40
0.7296878451
 40
0.8711869866
 40
0.9376077114
 40
1.0
 40
1.0
 40
1.0
 40
1.0
 10
33.1091345307
 20
77.951683452
 30
0.0
 10
33.0413335723
 20
77.9125538843
 30
0.0
 10
32.8919037831
 20
77.8504064893
 30
0.0
 10
32.6452055081
 20
77.8143058848
 30
0.0
 10
32.3802950065
 20
77.8337464368
 30
0.0
 10
32.1030534808
 20
77.9074369633
 30
0.0
 10
31.8189163104
 20
78.0330028497
 30
0.0
 10
31.5335339555
 20
78.2075650447
 30
0.0
 10
31.2527232651
 20
78.4274308258
 30
0.0
 10
30.88623163
 20
78.7804086472
 30
0.0
 10
30.478986901
 20
79.3019730835
 30
0.0
 10
30.100938393
 20
80.0005945745
 30
0.0
 10
29.8916734462
 20
80.6191058098
 30
0.0
 10
29.8051086509
 20
81.1062688604
 30
0.0
 10
29.7895967541
 20
81.3418693706
 30
0.0
 10
29.7895967541
 20
81.4559054126
 30
0.0
  0
SPLINE
  5
281
100
AcDbEntity
  8
0
100
AcDbSpline
 62
7
  6
BYLAYER
 70
0
 71
3
 72
12
 73
8
 74
0
 42
0.0000001
 43
0.0000001
 44
0.0000000001
 40
0.0
 40
0.0
 40
0.0
 40
0.0
 40
0.1081603296
 40
0.2183666174
 40
0.4513448629
 40
0.7104422948
 40
1.0
 40
1.0
 40
1.0
 40
1.0
 10
15.614888439
 20
42.6926278122
 30
0.0
 10
15.6148884382
 20
42.7541526112
 30
0.0
 10
15.6255572436
 20
42.8786279808
 30
0.0
 10
15.6902782306
 20
43.1281334136
 30
0.0
 10
15.8561859164
 20
43.4341479312
 30
0.0
 10
16.1653698608
 20
43.7588165765
 30
0.0
 10
16.424115552
 20
43.9370561336
 30
0.0
 10
16.5667579422
 20
44.0194102643
 30
0.0
  0
SPLINE
  5
282
100
AcDbEntity
  8
0
100
AcDbSpline
 62
7
  6
BYLAYER
 70
0
 71
3
 72
20
 73
16
 74
0
 42
0.0000001
 43
0.0000001
 44
0.0000000001
 40
0.0
 40
0.0
 40
0.0
 40
0.0
 40
0.0428303335
 40
0.0874301415
 40
0.1352307968
 40
0.1871626307
 40
0.2436313971
 40
0.3046122949
 40
0.3697374583
 40
0.4383719318
 40
0.5826219291
 40
0.7296878451
 40
0.8711869866
 40
0.9376077114
 40
1.0
 40
1.0
 40
1.0
 40
1.0
 10
69.8788402384
 20
40.3931158744
 30
0.0
 10
69.8110392799
 20
40.3539863067
 30
0.0
 10
69.6616094907
 20
40.2918389116
 30
0.0
 10
69.4149112157
 20
40.2557383072
 30
0.0
 10
69.1500007141
 20
40.2751788592
 30
0.0
 10
68.8727591884
 20
40.3488693856
 30
0.0
 10
68.5886220181
 20
40.474435272
 30
0.0
 10
68.3032396631
 20
40.648997467
 30
0.0
 10
68.0224289728
 20
40.8688632481
 30
0.0
 10
67.6559373377
 20
41.2218410695
 30
0.0
 10
67.2486926087
 20
41.7434055058
 30
0.0
 10
66.8706441007
 20
42.4420269969
 30
0.0
 10
66.6613791538
 20
43.0605382321
 30
0.0
 10
66.5748143586
 20
43.5477012828
 30
0.0
 10
66.5593024618
 20
43.783301793
 30
0.0
 10
66.5593024618
 20
43.897337835
 30
0.0
  0
SPLINE
  5
283
100
AcDbEntity
  8
0
100
AcDbSpline
 62
7
  6
BYLAYER
 70
0
 71
3
 72
12
 73
8
 74
0
 42
0.0000001
 43
0.0000001
 44
0.0000000001
 40
0.0
 40
0.0
 40
0.0
 40
0.0
 40
0.2895282256
 40
0.5486656424
 40
0.7816301204
 40
0.8918390955
 40
1.0
 40
1.0
 40
1.0
 40
1.0
 10
66.5593024618
 20
58.5943813433
 30
0.0
 10
66.5593024618
 20
58.7337407444
 30
0.0
 10
66.5804680345
 20
58.9987660401
 30
0.0
 10
66.6875456892
 20
59.3627118823
 30
0.0
 10
66.8416273294
 20
59.6137710268
 30
0.0
 10
66.9970910249
 20
59.7667439989
 30
0.0
 10
67.083777281
 20
59.8272561129
 30
0.0
 10
67.1288681734
 20
59.853279154
 30
0.0
  0
SPLINE
  5
284
100
AcDbEntity
  8
0
100
AcDbSpline
 62
7
  6
BYLAYER
 70
0
 71
3
 72
12
 73
8
 74
0
 42
0.0000001
 43
0.0000001
 44
0.0000000001
 40
0.0
 40
0.0
 40
0.0
 40
0.0
 40
0.289556229
 40
0.5486533222
 40
0.7816321932
 40
0.8918390364
 40
1.0
 40
1.0
 40
1.0
 40
1.0
 10
29.7895967541
 20
72.4743788242
 30
0.0
 10
29.7895967541
 20
72.6137522741
 30
0.0
 10
29.8107414892
 20
72.8787763689
 30
0.0
 10
29.9178530197
 20
73.2427152088
 30
0.0
 10
30.0719132892
 20
73.4937668392
 30
0.0
 10
30.2273735527
 20
73.6467591037
 30
0.0
 10
30.3140780084
 20
73.7072419621
 30
0.0
 10
30.3591647613
 20
73.7332726572
 30
0.0
  0
SPLINE
  5
285
100
AcDbEntity
  8
0
100
AcDbSpline
 62
7
  6
BYLAYER
 70
0
 71
3
 72
15
 73
11
 74
0
 42
0.0000001
 43
0.0000001
 44
0.0000000001
 40
0.0
 40
0.0
 40
0.0
 40
0.0
 40
0.1141465952
 40
0.2373352439
 40
0.366975646
 40
0.4999989181
 40
0.6330223406
 40
0.7626631822
 40
0.8858525235
 40
1.0
 40
1.0
 40
1.0
 40
1.0
 10
31.7341484983
 20
69.1063351021
 30
0.0
 10
31.6010380293
 20
69.1831847287
 30
0.0
 10
31.3381030423
 20
69.3675186528
 30
0.0
 10
30.9762968883
 20
69.7059730491
 30
0.0
 10
30.642914624
 20
70.1061092615
 30
0.0
 10
30.3504343908
 20
70.5528065468
 30
0.0
 10
30.1098207849
 20
71.0294498858
 30
0.0
 10
29.9299806328
 20
71.5182361659
 30
0.0
 10
29.8177699318
 20
72.0007985941
 30
0.0
 10
29.7895967541
 20
72.3206757765
 30
0.0
 10
29.7895967541
 20
72.4743788242
 30
0.0
  0
SPLINE
  5
286
100
AcDbEntity
  8
0
100
AcDbSpline
 62
7
  6
BYLAYER
 70
0
 71
3
 72
12
 73
8
 74
0
 42
0.0000001
 43
0.0000001
 44
0.0000000001
 40
0.0
 40
0.0
 40
0.0
 40
0.0
 40
0.1081614689
 40
0.2183687405
 40
0.4513480154
 40
0.7104447573
 40
1.0
 40
1.0
 40
1.0
 40
1.0
 10
69.8788379429
 20
64.0716899488
 30
0.0
 10
69.8337521859
 20
64.0456598287
 30
0.0
 10
69.7380222955
 20
64.0008143286
 30
0.0
 10
69.5278020355
 20
63.9426792508
 30
0.0
 10
69.2333626471
 20
63.9347836529
 30
0.0
 10
68.8646362207
 20
64.0239862257
 30
0.0
 10
68.6245521955
 20
64.1381807694
 30
0.0
 10
68.5038542059
 20
64.2078642097
 30
0.0
  0
SPLINE
  5
287
100
AcDbEntity
  8
0
100
AcDbSpline
 62
7
  6
BYLAYER
 70
0
 71
3
 72
15
 73
11
 74
0
 42
0.0000001
 43
0.0000001
 44
0.0000000001
 40
0.0
 40
0.0
 40
0.0
 40
0.0
 40
0.1151367377
 40
0.2389020484
 40
0.368720338
 40
0.5015935892
 40
0.634246051
 40
0.763418936
 40
0.8861650397
 40
1.0
 40
1.0
 40
1.0
 40
1.0
 10
51.5881476958
 20
17.4317031103
 30
0.0
 10
51.7343132889
 20
17.351565345
 30
0.0
 10
52.0519024246
 20
17.2107289027
 30
0.0
 10
52.5660048324
 20
17.0621397036
 30
0.0
 10
53.1195996623
 20
16.972553744
 30
0.0
 10
53.6924840272
 20
16.9451458359
 30
0.0
 10
54.2639717553
 20
16.9809816379
 30
0.0
 10
54.8134382506
 20
17.0786941445
 30
0.0
 10
55.3208422302
 20
17.2348169918
 30
0.0
 10
55.6325852579
 20
17.3805210056
 30
0.0
 10
55.7753133598
 20
17.4629246218
 30
0.0
  0
SPLINE
  5
288
100
AcDbEntity
  8
0
100
AcDbSpline
 62
7
  6
BYLAYER
 70
0
 71
3
 72
12
 73
8
 74
0
 42
0.0000001
 43
0.0000001
 44
0.0000000001
 40
0.0
 40
0.0
 40
0.0
 40
0.0
 40
0.2895278362
 40
0.5486637958
 40
0.7816295189
 40
0.8918385157
 40
1.0
 40
1.0
 40
1.0
 40
1.0
 10
60.0539574633
 20
25.6486043556
 30
0.0
 10
60.1965870317
 20
25.5662589987
 30
0.0
 10
60.4553262151
 20
25.3880001752
 30
0.0
 10
60.764541184
 20
25.0633589415
 30
0.0
 10
60.930450114
 20
24.7573161713
 30
0.0
 10
60.9951535229
 20
24.50781377
 30
0.0
 10
61.0058615803
 20
24.3833368707
 30
0.0
 10
61.0058510629
 20
24.3218108556
 30
0.0
  0
SPLINE
  5
289
100
AcDbEntity
  8
0
100
AcDbSpline
 62
7
  6
BYLAYER
 70
0
 71
3
 72
12
 73
8
 74
0
 42
0.0000001
 43
0.0000001
 44
0.0000000001
 40
0.0
 40
0.0
 40
0.0
 40
0.0
 40
0.2895581804
 40
0.5486557816
 40
0.7816338325
 40
0.891839914
 40
1.0
 40
1.0
 40
1.0
 40
1.0
 10
36.7193070937
 20
43.2029737967
 30
0.0
 10
36.8619521514
 20
43.1206194974
 30
0.0
 10
37.1207027529
 20
42.9423792569
 30
0.0
 10
37.4298929777
 20
42.6177082152
 30
0.0
 10
37.595804301
 20
42.3116906182
 30
0.0
 10
37.6605266956
 20
42.0621824735
 30
0.0
 10
37.671195732
 20
41.9377057505
 30
0.0
 10
37.6711957327
 20
41.8761802966
 30
0.0
  0
SPLINE
  5
28A
100
AcDbEntity
  8
0
100
AcDbSpline
 62
7
  6
BYLAYER
 70
0
 71
3
 72
15
 73
11
 74
0
 42
0.0000001
 43
0.0000001
 44
0.0000000001
 40
0.0
 40
0.0
 40
0.0
 40
0.0
 40
0.1141464977
 40
0.2373352781
 40
0.3669759338
 40
0.4999994786
 40
0.633023096
 40
0.7626639634
 40
0.8858530776
 40
1.0
 40
1.0
 40
1.0
 40
1.0
 10
32.1231130161
 20
43.2029627488
 30
0.0
 10
32.2804243097
 20
43.2937859244
 30
0.0
 10
32.6244590099
 20
43.4539671767
 30
0.0
 10
33.184657042
 20
43.6242699274
 30
0.0
 10
33.7911892028
 20
43.7290346655
 30
0.0
 10
34.4212061793
 20
43.7644252754
 30
0.0
 10
35.0512236595
 20
43.7290376557
 30
0.0
 10
35.6577573082
 20
43.6242757975
 30
0.0
 10
36.2179577521
 20
43.4539757098
 30
0.0
 10
36.5619945599
 20
43.2937961758
 30
0.0
 10
36.7193070937
 20
43.2029737967
 30
0.0
  0
ENDSEC
  0
SECTION
  2
OBJECTS
  0
DICTIONARY
  5
C
100
AcDbDictionary
280
0
281
1
  3
ACAD_GROUP
350
D
  3
ACAD_MLINESTYLE
350
17
  3
ACAD_LAYOUT
350
1A
  3
ACAD_PLOTSETTINGS
350
19
  3
ACAD_PLOTSTYLENAME
350
E
  0
DICTIONARY
  5
D
102
{ACAD_REACTORS
330
C
102
}
100
AcDbDictionary
280
0
281
1
  0
ACDBDICTIONARYWDFLT
  5
E
102
{ACAD_REACTORS
330
C
102
}
100
AcDbDictionary
281
1
  3
Normal
350
F
100
AcDbDictionaryWithDefault
340
F
  0
DICTIONARY
  5
17
102
{ACAD_REACTORS
330
C
102
}
100
AcDbDictionary
280
0
281
1
  3
Standard
350
18
  0
DICTIONARY
  5
19
102
{ACAD_REACTORS
330
C
102
}
100
AcDbDictionary
281
1
  0
DICTIONARY
  5
1A
102
{ACAD_REACTORS
330
C
102
}
100
AcDbDictionary
281
1
  3
Model
350
28B
  3
Layout1
350
28C
  0
ACDBPLACEHOLDER
  5
F
102
{ACAD_REACTORS
330
E
102
}
  0
MLINESTYLE
  5
18
102
{ACAD_REACTORS
330
17
102
}
100
AcDbMlineStyle
  2
STANDARD
 70
0
  3

 62
256
 51
90.0
 52
90.0
 71
2
 49
0.5
 62
256
  6
BYLAYER
 49
-0.5
 62
256
  6
BYLAYER
  0
LAYOUT
  5
28B
102
{ACAD_REACTORS
330
1A
102
}
100
AcDbPlotSettings
  1

  2
none_device
  4

  6

 40
0.0
 41
0.0
 42
0.0
 43
0.0
 44
210.0
 45
297.0
 46
0.0
 47
0.0
 48
0.0
 49
0.0
140
0.0
141
0.0
142
1.0
143
1.0
 70
1024
 72
1
 73
0
 74
0
  7

 75
0
147
1.0
148
0.0
149
0.0
100
AcDbLayout
  1
Model
 70
0
 71
0
 10
0.0
 20
0.0
 11
210.0
 21
297.0
 12
0.0
 22
0.0
 32
0.0
 14
0.0
 24
0.0
 34
0.0
 15
0.0
 25
0.0
 35
0.0
146
0.0
 13
0.0
 23
0.0
 33
0.0
 16
1.0
 26
0.0
 36
0.0
 17
0.0
 27
1.0
 37
0.0
 76
0
330
210
345
0
346
0
  0
LAYOUT
  5
28C
102
{ACAD_REACTORS
330
1A
102
}
100
AcDbPlotSettings
  1

  2
none_device
  4

  6

 40
0.0
 41
0.0
 42
0.0
 43
0.0
 44
210.0
 45
297.0
 46
0.0
 47
0.0
 48
0.0
 49
0.0
140
0.0
141
0.0
142
1.0
143
1.0
 70
0
 72
1
 73
0
 74
0
  7

 75
0
147
1.0
148
0.0
149
0.0
100
AcDbLayout
  1
Layout1
 70
0
 71
1
 10
0.0
 20
0.0
 11
210.0
 21
297.0
 12
0.0
 22
0.0
 32
0.0
 14
0.0
 24
0.0
 34
0.0
 15
0.0
 25
0.0
 35
0.0
146
0.0
 13
0.0
 23
0.0
 33
0.0
 16
1.0
 26
0.0
 36
0.0
 17
0.0
 27
1.0
 37
0.0
 76
0
330
211
345
0
346
0
  0
ENDSEC
  0
EOF
