999
DXF file: C:\Users\sesa63760\Dev\_Creo\CAD\MCADID0004482_3D-CAD\drw0001_1.dxf
999
Pro/ENGINEER 2019471 by Parametric Technology Corporation
  0
SECTION
  2
HEADER
  9
$ACADVER
  1
AC1024
  9
$DWGCODEPAGE
  3
ANSI_1252
  9
$EXTMAX
 10
69.7359680319
 20
98.6265833594
 30
0.0
  9
$EXTMIN
 10
0.0
 20
0.0
 30
0.0
  9
$LIMMIN
 10
0.0
 20
0.0
  9
$LIMMAX
 10
69.7359680319
 20
98.6265833594
  9
$VIEWCTR
 10
34.867984016
 20
49.3132916797
  9
$VIEWSIZE
 40
98.6265833594
  9
$CLAYER
  8
0
  9
$LTSCALE
 40
6.4289921005
  9
$CELTYPE
  6
BYLAYER
  9
$DIMSCALE
 40
1.0
  9
$DIMASZ
 40
0.8301900956
  9
$DIMEXO
 40
1.0
  9
$DIMDLI
 40
4.4418490876
  9
$DIMEXE
 40
1.0
  9
$DIMCEN
 40
1.0520168892
  9
$DIMLFAC
 40
1.0
  9
$DIMBLK
  1
_FILLED
  9
$DIMALT
 70
0
  9
$DIMALTF
 40
0.0393700787
  9
$DIMTXT
 40
1.1622661339
  9
$DIMTOL
 70
1
  9
$DIMLIM
 70
0
  9
$DIMTFAC
 40
1.0
  9
$DIMTP
 40
0.01
  9
$DIMTM
 40
0.01
  9
$DIMGAP
 40
0.625
  9
$DIMDSEP
 70
46
  9
$AUNITS
 70
0
  9
$PDMODE
 70
3
  9
$PDSIZE
 40
0.3125
  9
$HANDSEED
  5
295
  9
$TILEMODE
 70
1
  9
$MEASUREMENT
 70
1
  9
$INSUNITS
 70
4
  0
ENDSEC
  0
SECTION
  2
CLASSES
  0
CLASS
  1
ACDBDICTIONARYWDFLT
  2
AcDbDictionaryWithDefault
  3
AutoCAD 2000
 90
0
 91
1
280
0
281
0
  0
CLASS
  1
ACDBPLACEHOLDER
  2
AcDbPlaceHolder
  3
AutoCAD 2000
 90
0
 91
1
280
0
281
0
  0
CLASS
  1
LAYOUT
  2
AcDbLayout
  3
AutoCAD 2000
 90
0
 91
0
280
0
281
0
  0
ENDSEC
  0
SECTION
  2
TABLES
  0
TABLE
  2
VPORT
  5
8
100
AcDbSymbolTable
 70
2
  0
VPORT
  5
1F4
100
AcDbSymbolTableRecord
100
AcDbViewportTableRecord
  2
*ACTIVE
 70
0
 10
0.0
 20
0.0
 11
1.0
 21
1.0
 12
34.867984016
 22
49.3132916797
 13
0.0
 23
0.0
 14
1.0
 24
1.0
 15
0.0
 25
0.0
 16
0.0
 26
0.0
 36
1.0
 17
0.0
 27
0.0
 37
0.0
 40
98.6265833594
 41
0.7070707071
 42
50.0
 43
0.0
 44
0.0
 50
0.0
 51
0.0
 71
0
 72
100
 73
1
 74
1
 75
0
 76
0
 77
0
 78
0
  0
ENDTAB
  0
TABLE
  2
LTYPE
  5
5
100
AcDbSymbolTable
 70
6
  0
LTYPE
  5
14
100
AcDbSymbolTableRecord
100
AcDbLinetypeTableRecord
  2
BYBLOCK
 70
0
  3

 72
65
 73
0
 40
0.0
  0
LTYPE
  5
15
100
AcDbSymbolTableRecord
100
AcDbLinetypeTableRecord
  2
BYLAYER
 70
0
  3

 72
65
 73
0
 40
0.0
  0
LTYPE
  5
16
100
AcDbSymbolTableRecord
100
AcDbLinetypeTableRecord
  2
CONTINUOUS
 70
64
  3
Solid line
 72
65
 73
0
 40
0.0
  0
LTYPE
  5
1F5
100
AcDbSymbolTableRecord
100
AcDbLinetypeTableRecord
  2
CENTER
 70
64
  3
____ _ ____ _ ____ _ ____ _ ____ _ ____ _ ____
 72
65
 73
4
 40
0.6
 49
0.375
 74
0
 49
-0.075
 74
0
 49
0.075
 74
0
 49
-0.075
 74
0
  0
LTYPE
  5
1F6
100
AcDbSymbolTableRecord
100
AcDbLinetypeTableRecord
  2
HIDDEN
 70
64
  3
- - - - - - - - - - - - - - - - - - - -
 72
65
 73
2
 40
0.2
 49
0.1
 74
0
 49
-0.1
 74
0
  0
LTYPE
  5
1F7
100
AcDbSymbolTableRecord
100
AcDbLinetypeTableRecord
  2
PHANTOM
 70
64
  3
_____ _ _ _____ _ _ _____ _ _ _____
 72
65
 73
6
 40
0.8
 49
0.45
 74
0
 49
-0.05
 74
0
 49
0.1
 74
0
 49
-0.05
 74
0
 49
0.1
 74
0
 49
-0.05
 74
0
  0
LTYPE
  5
1F8
100
AcDbSymbolTableRecord
100
AcDbLinetypeTableRecord
  2
DOT
 70
64
  3
. . . . . . . . . . . . . . . . . . . .
 72
65
 73
2
 40
0.2
 49
0.1
 74
0
 49
-0.1
 74
0
  0
LTYPE
  5
1F9
100
AcDbSymbolTableRecord
100
AcDbLinetypeTableRecord
  2
DASHED
 70
64
  3
- - - - - - - - - - - - - - - - - - - -
 72
65
 73
2
 40
0.2
 49
0.1
 74
0
 49
-0.1
 74
0
  0
ENDTAB
  0
TABLE
  2
LAYER
  5
2
100
AcDbSymbolTable
 70
36
  0
LAYER
  5
10
100
AcDbSymbolTableRecord
100
AcDbLayerTableRecord
  2
0
 70
0
 62
7
  6
CONTINUOUS
370
-3
390
F
  0
LAYER
  5
1FA
100
AcDbSymbolTableRecord
100
AcDbLayerTableRecord
  2
DEFAULT_1
 70
0
 62
7
  6
CENTER
370
-3
390
F
  0
LAYER
  5
1FB
100
AcDbSymbolTableRecord
100
AcDbLayerTableRecord
  2
DEFAULT_2
 70
0
 62
7
  6
HIDDEN
370
-3
390
F
  0
LAYER
  5
1FC
100
AcDbSymbolTableRecord
100
AcDbLayerTableRecord
  2
DEFAULT_3
 70
0
 62
7
  6
PHANTOM
370
-3
390
F
  0
LAYER
  5
1FD
100
AcDbSymbolTableRecord
100
AcDbLayerTableRecord
  2
00_COMPONENTS
 70
0
 62
7
  6
CONTINUOUS
370
-3
390
F
  0
LAYER
  5
1FE
100
AcDbSymbolTableRecord
100
AcDbLayerTableRecord
  2
01_1_DEFAULT_DATUMS
 70
0
 62
7
  6
CONTINUOUS
370
-3
390
F
  0
LAYER
  5
1FF
100
AcDbSymbolTableRecord
100
AcDbLayerTableRecord
  2
01_PLANES
 70
0
 62
7
  6
CONTINUOUS
370
-3
390
F
  0
LAYER
  5
200
100
AcDbSymbolTableRecord
100
AcDbLayerTableRecord
  2
02_COORD_SYS
 70
0
 62
7
  6
CONTINUOUS
370
-3
390
F
  0
LAYER
  5
201
100
AcDbSymbolTableRecord
100
AcDbLayerTableRecord
  2
03_AXES
 70
0
 62
7
  6
CONTINUOUS
370
-3
390
F
  0
LAYER
  5
202
100
AcDbSymbolTableRecord
100
AcDbLayerTableRecord
  2
04_POINTS
 70
0
 62
7
  6
CONTINUOUS
370
-3
390
F
  0
LAYER
  5
203
100
AcDbSymbolTableRecord
100
AcDbLayerTableRecord
  2
05_CURVES
 70
0
 62
7
  6
CONTINUOUS
370
-3
390
F
  0
LAYER
  5
204
100
AcDbSymbolTableRecord
100
AcDbLayerTableRecord
  2
06_SURFS
 70
0
 62
7
  6
CONTINUOUS
370
-3
390
F
  0
LAYER
  5
205
100
AcDbSymbolTableRecord
100
AcDbLayerTableRecord
  2
07_COSMETICS
 70
0
 62
7
  6
CONTINUOUS
370
-3
390
F
  0
LAYER
  5
206
100
AcDbSymbolTableRecord
100
AcDbLayerTableRecord
  2
10_NOTES
 70
0
 62
7
  6
CONTINUOUS
370
-3
390
F
  0
LAYER
  5
207
100
AcDbSymbolTableRecord
100
AcDbLayerTableRecord
  2
11_NOTES_PUB
 70
0
 62
7
  6
CONTINUOUS
370
-3
390
F
  0
LAYER
  5
208
100
AcDbSymbolTableRecord
100
AcDbLayerTableRecord
  2
13_REF_GTOL
 70
0
 62
7
  6
CONTINUOUS
370
-3
390
F
  0
LAYER
  5
209
100
AcDbSymbolTableRecord
100
AcDbLayerTableRecord
  2
16_MISC
 70
0
 62
7
  6
CONTINUOUS
370
-3
390
F
  0
LAYER
  5
20A
100
AcDbSymbolTableRecord
100
AcDbLayerTableRecord
  2
17_NO_PRINT
 70
0
 62
7
  6
CONTINUOUS
370
-3
390
F
  0
LAYER
  5
20B
100
AcDbSymbolTableRecord
100
AcDbLayerTableRecord
  2
18_DATUM_CAMS_JOINTS
 70
0
 62
7
  6
CONTINUOUS
370
-3
390
F
  0
LAYER
  5
20C
100
AcDbSymbolTableRecord
100
AcDbLayerTableRecord
  2
19_DATUM_FUNCTIONAL
 70
0
 62
7
  6
CONTINUOUS
370
-3
390
F
  0
LAYER
  5
20D
100
AcDbSymbolTableRecord
100
AcDbLayerTableRecord
  2
20_DATUM_KINEMATIC_SCHEME
 70
0
 62
7
  6
CONTINUOUS
370
-3
390
F
  0
ENDTAB
  0
TABLE
  2
STYLE
  5
3
100
AcDbSymbolTable
 70
1
  0
STYLE
  5
11
100
AcDbSymbolTableRecord
100
AcDbTextStyleTableRecord
  2
STANDARD
 70
0
 40
0.0
 41
1.0
 50
0.0
 71
0
 42
0.2
  3
ARIAL.TTF
  4

  0
STYLE
  5
20E
100
AcDbSymbolTableRecord
100
AcDbTextStyleTableRecord
  2
TEXTSTYLE_1
 70
0
 40
0.0
 41
0.8
 50
0.0
 71
0
 42
0.2
  3
gdt
  4

  0
ENDTAB
  0
TABLE
  2
VIEW
  5
6
100
AcDbSymbolTable
 70
0
  0
ENDTAB
  0
TABLE
  2
UCS
  5
7
100
AcDbSymbolTable
 70
0
  0
ENDTAB
  0
TABLE
  2
APPID
  5
9
100
AcDbSymbolTable
 70
1
  0
APPID
  5
20F
100
AcDbSymbolTableRecord
100
AcDbRegAppTableRecord
  2
ACAD
 70
0
  0
ENDTAB
  0
TABLE
  2
BLOCK_RECORD
  5
1
100
AcDbSymbolTable
 70
0
  0
BLOCK_RECORD
  5
210
100
AcDbSymbolTableRecord
100
AcDbBlockTableRecord
  2
*Model_Space
  0
BLOCK_RECORD
  5
211
100
AcDbSymbolTableRecord
100
AcDbBlockTableRecord
  2
*Paper_Space
  0
BLOCK_RECORD
  5
212
100
AcDbSymbolTableRecord
100
AcDbBlockTableRecord
  2
_FILLED
  0
ENDTAB
  0
TABLE
  2
DIMSTYLE
  5
A
100
AcDbSymbolTable
 70
1
100
AcDbDimStyleTable
 71
0
  0
DIMSTYLE
105
213
100
AcDbSymbolTableRecord
100
AcDbDimStyleTableRecord
  2
STANDARD
 70
0
  3

  4

 40
1.0
 41
0.8301900956
 42
1.0
 43
0.38
 44
1.0
 45
0.0
 46
0.0
 47
0.01
 48
0.01
140
1.1622661339
141
0.09
142
0.0
143
25.4
144
1.0
145
0.0
146
1.0
147
0.625
 71
1
 72
0
 73
0
 74
0
 75
0
 76
0
 77
1
 78
8
 79
2
170
0
171
1
172
0
173
0
174
0
175
0
176
0
177
0
178
0
270
2
179
2
271
2
272
2
273
2
274
2
275
0
280
0
281
0
282
0
283
1
284
8
285
0
286
0
287
3
288
0
340
11
278
46
341
212
342
212
343
212
344
212
  0
ENDTAB
  0
ENDSEC
  0
SECTION
  2
BLOCKS
  0
BLOCK
  5
20
100
AcDbEntity
  8
0
100
AcDbBlockBegin
  2
*Model_Space
 70
0
 10
0.0
 20
0.0
 30
0.0
  3
*Model_Space
  1

  0
ENDBLK
  5
21
100
AcDbEntity
  8
0
100
AcDbBlockEnd
  0
BLOCK
  5
1C
100
AcDbEntity
  8
0
100
AcDbBlockBegin
  2
*Paper_Space
 70
0
 10
0.0
 20
0.0
 30
0.0
  3
*Paper_Space
  1

  0
ENDBLK
  5
1D
100
AcDbEntity
  8
0
100
AcDbBlockEnd
  0
BLOCK
  5
214
100
AcDbEntity
  8
0
100
AcDbBlockBegin
  2
_FILLED
 70
64
 10
0.0
 20
0.0
  3
_FILLED
  1

  0
SOLID
  5
215
100
AcDbEntity
  8
0
  6
BYBLOCK
 62
0
100
AcDbTrace
 10
0.0
 20
0.0
 11
-1.0
 21
0.25
 12
-1.0
 22
-0.25
 13
-1.0
 23
-0.25
  0
ENDBLK
  5
216
100
AcDbEntity
  8
0
  6
BYBLOCK
 62
0
100
AcDbBlockEnd
  0
ENDSEC
  0
SECTION
  2
ENTITIES
  0
LINE
  5
217
100
AcDbEntity
  8
0
100
AcDbLine
 62
7
  6
BYLAYER
 10
15.1612129952
 20
77.8898668212
 11
14.9083381886
 21
77.743870355
  0
LINE
  5
218
100
AcDbEntity
  8
0
100
AcDbLine
 62
7
  6
BYLAYER
 10
11.1612424349
 20
75.5804965265
 11
8.0901746231
 21
73.8074252825
  0
LINE
  5
219
100
AcDbEntity
  8
0
100
AcDbLine
 62
7
  6
BYLAYER
 10
8.0901746231
 20
42.7803334316
 11
8.0901746231
 21
73.8074252825
  0
LINE
  5
21A
100
AcDbEntity
  8
0
100
AcDbLine
 62
7
  6
BYLAYER
 10
17.4858029769
 20
69.3732955534
 11
16.6956746089
 21
68.8391499466
  0
LINE
  5
21B
100
AcDbEntity
  8
0
100
AcDbLine
 62
7
  6
BYLAYER
 10
11.1612424349
 20
73.8074422792
 11
11.1612424349
 21
76.2569495306
  0
LINE
  5
21C
100
AcDbEntity
  8
0
100
AcDbLine
 62
7
  6
BYLAYER
 10
17.4857370573
 20
69.373409703
 11
24.5567754294
 21
73.4558512417
  0
LINE
  5
21D
100
AcDbEntity
  8
0
100
AcDbLine
 62
7
  6
BYLAYER
 10
18.9007456628
 20
62.8467463472
 11
18.8985474476
 21
62.8437201123
  0
LINE
  5
21E
100
AcDbEntity
  8
0
100
AcDbLine
 62
7
  6
BYLAYER
 10
18.9010226491
 20
62.8463973354
 11
18.8985452045
 21
62.8437229372
  0
LINE
  5
21F
100
AcDbEntity
  8
0
100
AcDbLine
 62
7
  6
BYLAYER
 10
14.5612589001
 20
73.1572058074
 11
14.5612259697
 21
78.5401879523
  0
LINE
  5
220
100
AcDbEntity
  8
0
100
AcDbLine
 62
7
  6
BYLAYER
 10
15.7612259697
 20
78.5401908367
 11
15.7612589
 21
73.1572086918
  0
LWPOLYLINE
  5
221
100
AcDbEntity
  8
0
100
AcDbPolyline
 62
7
  6
BYLAYER
 90
3
 70
0
 10
17.5043807176
 20
57.7577223969
 10
17.9972854609
 20
61.0594202836
 10
18.2325213952
 20
61.525049955
  0
LINE
  5
222
100
AcDbEntity
  8
0
100
AcDbLine
 62
7
  6
BYLAYER
 10
46.9812095062
 20
20.327091933
 11
8.0901746231
 21
42.7803334316
  0
LINE
  5
223
100
AcDbEntity
  8
0
100
AcDbLine
 62
7
  6
BYLAYER
 10
19.1612424349
 20
73.8074422792
 11
19.1612424349
 21
76.2569495306
  0
LINE
  5
224
100
AcDbEntity
  8
0
100
AcDbLine
 62
7
  6
BYLAYER
 10
22.7768934107
 20
44.5597178975
 11
22.9618087869
 21
44.2978718826
  0
LWPOLYLINE
  5
225
100
AcDbEntity
  8
0
100
AcDbPolyline
 62
7
  6
BYLAYER
 90
3
 70
0
 10
17.8350526593
 20
54.6687686902
 10
18.7405890888
 20
51.4734689692
 10
18.8043569855
 20
51.338735353
  0
LINE
  5
226
100
AcDbEntity
  8
0
100
AcDbLine
 62
7
  6
BYLAYER
 10
27.4823173128
 20
40.4140504409
 11
27.5065364713
 21
40.4043462166
  0
LINE
  5
227
100
AcDbEntity
  8
0
100
AcDbLine
 62
7
  6
BYLAYER
 10
27.4823173128
 20
40.4140504409
 11
27.5065254385
 21
40.3999593358
  0
LINE
  5
228
100
AcDbEntity
  8
0
100
AcDbLine
 62
7
  6
BYLAYER
 10
22.9618087869
 20
44.2978718826
 11
25.5107503484
 21
41.8602231264
  0
LINE
  5
229
100
AcDbEntity
  8
0
100
AcDbLine
 62
7
  6
BYLAYER
 10
55.4664555527
 20
29.3085338651
 11
54.0522297716
 21
30.1250190291
  0
LINE
  5
22A
100
AcDbEntity
  8
0
100
AcDbLine
 62
7
  6
BYLAYER
 10
38.3757095203
 20
56.3224591198
 11
45.4467478925
 21
60.4049006585
  0
LINE
  5
22B
100
AcDbEntity
  8
0
100
AcDbLine
 62
7
  6
BYLAYER
 10
54.0522478783
 20
34.8196727123
 11
56.1196091813
 21
33.6261081095
  0
LINE
  5
22C
100
AcDbEntity
  8
0
100
AcDbLine
 62
7
  6
BYLAYER
 10
57.7644988642
 20
36.7589641781
 11
54.0522478783
 21
38.9021847979
  0
LINE
  5
22D
100
AcDbEntity
  8
0
100
AcDbLine
 62
7
  6
BYLAYER
 10
33.6624187709
 20
50.673991808
 11
30.7589648465
 21
52.3502637905
  0
LINE
  5
22E
100
AcDbEntity
  8
0
100
AcDbLine
 62
7
  6
BYLAYER
 10
37.5670034116
 20
46.1748238241
 11
37.4735467933
 21
47.8062289011
  0
LINE
  5
22F
100
AcDbEntity
  8
0
100
AcDbLine
 62
7
  6
BYLAYER
 10
36.7356014342
 20
51.2720300836
 11
35.4720115172
 21
54.4004612926
  0
LINE
  5
230
100
AcDbEntity
  8
0
100
AcDbLine
 62
7
  6
BYLAYER
 10
37.4735467933
 20
47.8062289011
 11
36.7356014342
 21
51.2720300836
  0
LWPOLYLINE
  5
231
100
AcDbEntity
  8
0
100
AcDbPolyline
 62
7
  6
BYLAYER
 90
3
 70
0
 10
35.5813699881
 20
40.4185540605
 10
35.5459205284
 20
40.3689494652
 10
34.718541682
 20
39.7335904318
  0
LINE
  5
232
100
AcDbEntity
  8
0
100
AcDbLine
 62
7
  6
BYLAYER
 10
54.0522478783
 20
55.4366253226
 11
46.9812095062
 21
51.3541837839
  0
LWPOLYLINE
  5
233
100
AcDbEntity
  8
0
100
AcDbPolyline
 62
7
  6
BYLAYER
 90
3
 70
0
 10
31.7717007187
 20
55.0507518265
 10
30.5603808284
 20
55.5402492929
 10
29.0048183904
 20
55.7806700883
  0
LINE
  5
234
100
AcDbEntity
  8
0
100
AcDbLine
 62
7
  6
BYLAYER
 10
60.4161353098
 20
38.6981222093
 11
54.0522478783
 21
42.3722312115
  0
LINE
  5
235
100
AcDbEntity
  8
0
100
AcDbLine
 62
7
  6
BYLAYER
 10
42.9811800665
 20
55.4366083258
 11
42.9811800665
 21
57.0696131601
  0
LINE
  5
236
100
AcDbEntity
  8
0
100
AcDbLine
 62
7
  6
BYLAYER
 10
43.0264335818
 20
58.2325112805
 11
43.0264385779
 21
56.7231984448
  0
LINE
  5
237
100
AcDbEntity
  8
0
100
AcDbLine
 62
7
  6
BYLAYER
 10
50.9359265511
 20
57.539719874
 11
43.0264385779
 21
57.5397008619
  0
LINE
  5
238
100
AcDbEntity
  8
0
100
AcDbLine
 62
7
  6
BYLAYER
 10
27.3879461927
 20
63.6076919699
 11
26.8489164616
 21
63.9187856873
  0
LINE
  5
239
100
AcDbEntity
  8
0
100
AcDbLine
 62
7
  6
BYLAYER
 10
8.0901746231
 20
73.8074252825
 11
16.6956746089
 21
68.8391499466
  0
LINE
  5
23A
100
AcDbEntity
  8
0
100
AcDbLine
 62
7
  6
BYLAYER
 10
38.3757095203
 20
56.3224591198
 11
46.9812095062
 21
51.3541837839
  0
LWPOLYLINE
  5
23B
100
AcDbEntity
  8
0
100
AcDbPolyline
 62
7
  6
BYLAYER
 90
3
 70
0
 10
30.7540122262
 20
61.0559703039
 10
28.2189879584
 20
63.1280674571
 10
27.6831146157
 20
63.4373395076
  0
LINE
  5
23C
100
AcDbEntity
  8
0
100
AcDbLine
 62
7
  6
BYLAYER
 10
34.718541682
 20
39.7335904318
 11
32.636384542
 21
39.0474414091
  0
LINE
  5
23D
100
AcDbEntity
  8
0
100
AcDbLine
 62
7
  6
BYLAYER
 10
43.0264335818
 20
58.2325112805
 11
50.9359215551
 21
58.2325302925
  0
LINE
  5
23E
100
AcDbEntity
  8
0
100
AcDbLine
 62
7
  6
BYLAYER
 10
26.8489164616
 20
63.9187856873
 11
24.3178560951
 21
64.7720879205
  0
LINE
  5
23F
100
AcDbEntity
  8
0
100
AcDbLine
 62
7
  6
BYLAYER
 10
46.9812095062
 20
51.3541837839
 11
46.9812095062
 21
20.327091933
  0
LINE
  5
240
100
AcDbEntity
  8
0
100
AcDbLine
 62
7
  6
BYLAYER
 10
21.3550514762
 20
70.313280642
 11
33.7163326531
 21
63.1766530791
  0
LINE
  5
241
100
AcDbEntity
  8
0
100
AcDbLine
 62
7
  6
BYLAYER
 10
50.9359265511
 20
56.7232174569
 11
50.9359215551
 21
58.2325302925
  0
LINE
  5
242
100
AcDbEntity
  8
0
100
AcDbLine
 62
7
  6
BYLAYER
 10
50.9811800665
 20
55.4366083258
 11
50.9811800665
 21
57.0696131601
  0
LINE
  5
243
100
AcDbEntity
  8
0
100
AcDbLine
 62
7
  6
BYLAYER
 10
54.0522478783
 20
55.4366253226
 11
50.9708858263
 21
57.2156102868
  0
LINE
  5
244
100
AcDbEntity
  8
0
100
AcDbLine
 62
7
  6
BYLAYER
 10
46.0170941584
 20
60.0756185377
 11
45.4467478925
 21
60.4049006585
  0
LINE
  5
245
100
AcDbEntity
  8
0
100
AcDbLine
 62
7
  6
BYLAYER
 10
23.6990583587
 20
72.960651016
 11
19.1612424349
 21
75.5805009923
  0
LINE
  5
246
100
AcDbEntity
  8
0
100
AcDbLine
 62
7
  6
BYLAYER
 10
15.4140872696
 20
77.7438730936
 11
15.1612129952
 21
77.8898668212
  0
LINE
  5
247
100
AcDbEntity
  8
0
100
AcDbLine
 62
7
  6
BYLAYER
 10
54.0522478783
 20
30.1250503916
 11
54.0522478783
 21
55.4366253226
  0
LINE
  5
248
100
AcDbEntity
  8
0
100
AcDbLine
 62
7
  6
BYLAYER
 10
30.7862647895
 20
73.7095303672
 11
37.5987468011
 21
69.7764310226
  0
LINE
  5
249
100
AcDbEntity
  8
0
100
AcDbLine
 62
7
  6
BYLAYER
 10
57.7644988642
 20
36.7589641781
 11
57.7644988642
 21
34.1053882258
  0
LINE
  5
24A
100
AcDbEntity
  8
0
100
AcDbLine
 62
7
  6
BYLAYER
 10
60.4161824132
 20
32.1662429422
 11
60.4161824132
 21
28.0837308565
  0
LINE
  5
24B
100
AcDbEntity
  8
0
100
AcDbLine
 62
7
  6
BYLAYER
 10
62.759304612
 20
35.4321689783
 11
62.759304612
 21
31.3496568927
  0
LINE
  5
24C
100
AcDbEntity
  8
0
100
AcDbLine
 62
7
  6
BYLAYER
 10
60.4161824132
 20
32.1662429422
 11
55.4664555527
 21
29.3085338651
  0
LINE
  5
24D
100
AcDbEntity
  8
0
100
AcDbLine
 62
7
  6
BYLAYER
 10
60.4161824132
 20
28.0837308565
 11
46.9812095062
 21
20.327091933
  0
ARC
  5
24E
100
AcDbEntity
  8
0
100
AcDbCircle
 62
7
  6
BYLAYER
 10
41.6879301647
 20
60.1370342299
 40
24.5322005035
100
AcDbArc
 50
210.0425959165
 51
210.4864279901
  0
ARC
  5
24F
100
AcDbEntity
  8
0
100
AcDbCircle
 62
7
  6
BYLAYER
 10
13.4028006009
 20
43.8071501746
 40
24.5095913761
100
AcDbArc
 50
25.6307290379
 51
33.4615878418
  0
ARC
  5
250
100
AcDbEntity
  8
0
100
AcDbCircle
 62
7
  6
BYLAYER
 10
13.6864104093
 20
43.9928049379
 40
24.1706224167
100
AcDbArc
 50
33.4651260482
 51
35.4250518906
  0
ARC
  5
251
100
AcDbEntity
  8
0
100
AcDbCircle
 62
7
  6
BYLAYER
 10
41.2536725041
 20
59.9066653381
 40
24.0409578596
100
AcDbArc
 50
200.8809184035
 51
210.0854677017
  0
ARC
  5
252
100
AcDbEntity
  8
0
100
AcDbCircle
 62
7
  6
BYLAYER
 10
41.1827133647
 20
59.8151853245
 40
23.9335545242
100
AcDbArc
 50
210.4360609049
 51
219.6741228016
  0
ARC
  5
253
100
AcDbEntity
  8
0
100
AcDbCircle
 62
7
  6
BYLAYER
 10
20.7617143786
 20
51.8170507256
 40
13.5475461841
100
AcDbArc
 50
59.2747907724
 51
60.0562996014
  0
ARC
  5
254
100
AcDbEntity
  8
0
100
AcDbCircle
 62
7
  6
BYLAYER
 10
34.2241322726
 20
51.9683360357
 40
13.3773532901
100
AcDbArc
 50
239.85681849
 51
240.0175510434
  0
ARC
  5
255
100
AcDbEntity
  8
0
100
AcDbCircle
 62
7
  6
BYLAYER
 10
20.9115771283
 20
52.0764085053
 40
13.2480046382
100
AcDbArc
 50
60.0580312421
 51
60.7362040605
  0
ARC
  5
256
100
AcDbEntity
  8
0
100
AcDbCircle
 62
7
  6
BYLAYER
 10
29.5222524283
 20
45.420521712
 40
7.9698426012
100
AcDbArc
 50
338.7985034853
 51
343.5875381027
  0
ARC
  5
257
100
AcDbEntity
  8
0
100
AcDbCircle
 62
7
  6
BYLAYER
 10
15.161242483
 20
70.8537356656
 40
6.8961025969
100
AcDbArc
 50
85.0087692691
 51
94.9915061751
  0
ARC
  5
258
100
AcDbEntity
  8
0
100
AcDbCircle
 62
7
  6
BYLAYER
 10
15.1612423867
 20
80.0271585614
 40
6.8961025969
100
AcDbArc
 50
265.0087692691
 51
274.9915061751
  0
ARC
  5
259
100
AcDbEntity
  8
0
100
AcDbCircle
 62
7
  6
BYLAYER
 10
32.0483867878
 20
44.6715493681
 40
5.6547328163
100
AcDbArc
 50
275.6784133317
 51
275.9713157274
  0
ARC
  5
25A
100
AcDbEntity
  8
0
100
AcDbCircle
 62
7
  6
BYLAYER
 10
32.0139750202
 20
44.066637938
 40
5.113483296
100
AcDbArc
 50
314.3385989188
 51
317.2332408821
  0
ARC
  5
25B
100
AcDbEntity
  8
0
100
AcDbCircle
 62
7
  6
BYLAYER
 10
22.9060746824
 20
59.8998360414
 40
5.0045116886
100
AcDbArc
 50
104.0537602769
 51
109.7324489025
  0
SPLINE
  5
25C
100
AcDbEntity
  8
0
100
AcDbSpline
 62
7
  6
BYLAYER
 70
0
 71
3
 72
26
 73
22
 74
0
 42
0.0000001
 43
0.0000001
 44
0.0000000001
 40
0.0
 40
0.0
 40
0.0
 40
0.0
 40
0.0213315268
 40
0.0428913323
 40
0.0648961079
 40
0.0875401022
 40
0.1353135226
 40
0.1607355335
 40
0.1872594624
 40
0.2436937072
 40
0.3046382434
 40
0.3697227208
 40
0.4383165362
 40
0.5095992484
 40
0.5826196371
 40
0.6563473445
 40
0.7297206983
 40
0.801693614
 40
0.871283096
 40
0.9376193406
 40
1.0
 40
1.0
 40
1.0
 40
1.0
 10
22.9857174336
 20
59.8471073541
 30
0.0
 10
23.0975228672
 20
59.911650772
 30
0.0
 10
23.3309117097
 20
60.0271638951
 30
0.0
 10
23.703023394
 20
60.1557944704
 30
0.0
 10
24.0958816006
 20
60.239576021
 30
0.0
 10
24.6538063522
 20
60.2919432732
 30
0.0
 10
25.2370284525
 20
60.249145251
 30
0.0
 10
25.8276576192
 20
60.1229538559
 30
0.0
 10
26.4557744723
 20
59.931371368
 30
0.0
 10
27.2554331403
 20
59.5779337998
 30
0.0
 10
28.199652224
 20
59.0002533493
 30
0.0
 10
29.1289393135
 20
58.272741307
 30
0.0
 10
30.0237902733
 20
57.410919347
 30
0.0
 10
30.8654317727
 20
56.4330267699
 30
0.0
 10
31.6359915016
 20
55.3598608412
 30
0.0
 10
32.3190600022
 20
54.2142890104
 30
0.0
 10
32.9000667541
 20
53.0207439461
 30
0.0
 10
33.3666184452
 20
51.804690469
 30
0.0
 10
33.7087849209
 20
50.5919036205
 30
0.0
 10
33.9192446529
 20
49.4083216723
 30
0.0
 10
33.9703905634
 20
48.6288089849
 30
0.0
 10
33.9703905634
 20
48.2512822444
 30
0.0
  0
SPLINE
  5
25D
100
AcDbEntity
  8
0
100
AcDbSpline
 62
7
  6
BYLAYER
 70
0
 71
3
 72
15
 73
11
 74
0
 42
0.0000001
 43
0.0000001
 44
0.0000000001
 40
0.0
 40
0.0
 40
0.0
 40
0.0
 40
0.1169015997
 40
0.2405388768
 40
0.3689250908
 40
0.4997750558
 40
0.63065555
 40
0.7591344139
 40
0.8829175846
 40
1.0
 40
1.0
 40
1.0
 40
1.0
 10
28.2126064741
 20
58.9073262972
 30
0.0
 10
28.2542969818
 20
58.4563414389
 30
0.0
 10
28.402507572
 20
57.5334898213
 30
0.0
 10
28.788417029
 20
56.1545968937
 30
0.0
 10
29.3346054113
 20
54.7727230318
 30
0.0
 10
30.0260259767
 20
53.4260982131
 30
0.0
 10
30.8436350745
 20
52.1517122324
 30
0.0
 10
31.7649929059
 20
50.9846316932
 30
0.0
 10
32.7645430515
 20
49.9571059814
 30
0.0
 10
33.4888396426
 20
49.3643575124
 30
0.0
 10
33.8582506489
 20
49.101116199
 30
0.0
  0
SPLINE
  5
25E
100
AcDbEntity
  8
0
100
AcDbSpline
 62
7
  6
BYLAYER
 70
0
 71
3
 72
23
 73
19
 74
0
 42
0.0000001
 43
0.0000001
 44
0.0000000001
 40
0.0
 40
0.0
 40
0.0
 40
0.0
 40
0.0558344607
 40
0.1141822317
 40
0.1747833253
 40
0.2373542656
 40
0.30154987
 40
0.3669936081
 40
0.4332837018
 40
0.500001077
 40
0.5667184145
 40
0.6330083961
 40
0.6984519496
 40
0.7626473008
 40
0.8252179246
 40
0.8858186452
 40
0.9441659963
 40
1.0
 40
1.0
 40
1.0
 40
1.0
 10
17.5043807176
 20
57.7577223969
 30
0.0
 10
17.5043807176
 20
57.3696710473
 30
0.0
 10
17.5388569285
 20
56.5758115066
 30
0.0
 10
17.6850372546
 20
55.3688490061
 30
0.0
 10
17.9255501074
 20
54.1293910785
 30
0.0
 10
18.2579661508
 20
52.8693999155
 30
0.0
 10
18.6791819416
 20
51.6007982226
 30
0.0
 10
19.1851349166
 20
50.3357205667
 30
0.0
 10
19.7709825629
 20
49.0862487278
 30
0.0
 10
20.4311298727
 20
47.8643354522
 30
0.0
 10
21.1592694086
 20
46.6816786221
 30
0.0
 10
21.9484241784
 20
45.5495895414
 30
0.0
 10
22.7910402623
 20
44.4788899443
 30
0.0
 10
23.6790757593
 20
43.4798143887
 30
0.0
 10
24.6040530912
 20
42.5619483566
 30
0.0
 10
25.5571986125
 20
41.7339407607
 30
0.0
 10
26.5293674307
 20
41.0038764587
 30
0.0
 10
27.1996305878
 20
40.5770987228
 30
0.0
 10
27.5356920646
 20
40.383077928
 30
0.0
  0
SPLINE
  5
25F
100
AcDbEntity
  8
0
100
AcDbSpline
 62
7
  6
BYLAYER
 70
0
 71
3
 72
15
 73
11
 74
0
 42
0.0000001
 43
0.0000001
 44
0.0000000001
 40
0.0
 40
0.0
 40
0.0
 40
0.0
 40
0.1485786445
 40
0.289506591
 40
0.4227217292
 40
0.5486389266
 40
0.6679990013
 40
0.7819360663
 40
0.8919855473
 40
1.0
 40
1.0
 40
1.0
 40
1.0
 10
33.9703905634
 20
48.2512822444
 30
0.0
 10
33.9703905634
 20
48.0142987673
 30
0.0
 10
33.9512730376
 20
47.5522169595
 30
0.0
 10
33.8603312828
 20
46.883064921
 30
0.0
 10
33.7083844862
 20
46.2619671998
 30
0.0
 10
33.4966332302
 20
45.6949696431
 30
0.0
 10
33.2267408013
 20
45.1875041295
 30
0.0
 10
32.9007673053
 20
44.7447651538
 30
0.0
 10
32.5217188586
 20
44.371761492
 30
0.0
 10
32.2348728567
 20
44.1715731029
 30
0.0
 10
32.0856666956
 20
44.0854388669
 30
0.0
  0
SPLINE
  5
260
100
AcDbEntity
  8
0
100
AcDbSpline
 62
7
  6
BYLAYER
 70
0
 71
3
 72
13
 73
9
 74
0
 42
0.0000001
 43
0.0000001
 44
0.0000000001
 40
0.0
 40
0.0
 40
0.0
 40
0.0
 40
0.1097314391
 40
0.2231565897
 40
0.3407618831
 40
0.462900598
 40
0.7215325963
 40
1.0
 40
1.0
 40
1.0
 40
1.0
 10
18.8985474476
 20
62.8437201123
 30
0.0
 10
18.783453149
 20
62.6851615973
 30
0.0
 10
18.5660937939
 20
62.3502798449
 30
0.0
 10
18.2852275363
 20
61.809616559
 30
0.0
 10
18.045765159
 20
61.2253789135
 30
0.0
 10
17.7778552113
 20
60.3758844258
 30
0.0
 10
17.5575714351
 20
59.2151125732
 30
0.0
 10
17.5043807176
 20
58.2549305102
 30
0.0
 10
17.5043807176
 20
57.7577223969
 30
0.0
  0
SPLINE
  5
261
100
AcDbEntity
  8
0
100
AcDbSpline
 62
7
  6
BYLAYER
 70
0
 71
3
 72
12
 73
8
 74
0
 42
0.0000001
 43
0.0000001
 44
0.0000000001
 40
0.0
 40
0.0
 40
0.0
 40
0.0
 40
0.2229666577
 40
0.3406075591
 40
0.4627832751
 40
0.7214758671
 40
1.0
 40
1.0
 40
1.0
 40
1.0
 10
32.6363826292
 20
39.0474462537
 30
0.0
 10
32.2406072378
 20
39.0060795895
 30
0.0
 10
31.6277927081
 20
39.0072050994
 30
0.0
 10
30.8088208113
 20
39.1183019315
 30
0.0
 10
29.9392101059
 20
39.3110525367
 30
0.0
 10
28.8241413039
 20
39.7006109526
 30
0.0
 10
27.9661831407
 20
40.1345394121
 30
0.0
 10
27.5356920646
 20
40.383077928
 30
0.0
  0
SPLINE
  5
262
100
AcDbEntity
  8
0
100
AcDbSpline
 62
7
  6
BYLAYER
 70
0
 71
3
 72
15
 73
11
 74
0
 42
0.0000001
 43
0.0000001
 44
0.0000000001
 40
0.0
 40
0.0
 40
0.0
 40
0.0
 40
0.1485786445
 40
0.289506591
 40
0.4227217292
 40
0.5486389266
 40
0.6679990013
 40
0.7819360663
 40
0.8919855473
 40
1.0
 40
1.0
 40
1.0
 40
1.0
 10
21.1009935658
 20
55.6812639766
 30
0.0
 10
21.1009935658
 20
55.9182474537
 30
0.0
 10
21.1201110916
 20
56.3803292615
 30
0.0
 10
21.2110528464
 20
57.0494813
 30
0.0
 10
21.362999643
 20
57.6705790212
 30
0.0
 10
21.574750899
 20
58.2375765779
 30
0.0
 10
21.8446433279
 20
58.7450420915
 30
0.0
 10
22.1706168239
 20
59.1877810672
 30
0.0
 10
22.5496652707
 20
59.560784729
 30
0.0
 10
22.8365112725
 20
59.7609731181
 30
0.0
 10
22.9857174336
 20
59.8471073541
 30
0.0
  0
SPLINE
  5
263
100
AcDbEntity
  8
0
100
AcDbSpline
 62
7
  6
BYLAYER
 70
0
 71
3
 72
26
 73
22
 74
0
 42
0.0000001
 43
0.0000001
 44
0.0000000001
 40
0.0
 40
0.0
 40
0.0
 40
0.0
 40
0.0213315268
 40
0.0428913323
 40
0.0648961079
 40
0.0875401022
 40
0.1353135226
 40
0.1607355335
 40
0.1872594624
 40
0.2436937072
 40
0.3046382434
 40
0.3697227208
 40
0.4383165362
 40
0.5095992484
 40
0.5826196371
 40
0.6563473445
 40
0.7297206983
 40
0.801693614
 40
0.871283096
 40
0.9376193406
 40
1.0
 40
1.0
 40
1.0
 40
1.0
 10
32.0856666956
 20
44.0854388669
 30
0.0
 10
31.973861262
 20
44.020895449
 30
0.0
 10
31.7404724195
 20
43.9053823259
 30
0.0
 10
31.3683607352
 20
43.7767517506
 30
0.0
 10
30.9755025286
 20
43.6929702
 30
0.0
 10
30.417577777
 20
43.6406029478
 30
0.0
 10
29.8343556767
 20
43.68340097
 30
0.0
 10
29.2437265101
 20
43.8095923651
 30
0.0
 10
28.6156096569
 20
44.001174853
 30
0.0
 10
27.8159509889
 20
44.3546124212
 30
0.0
 10
26.8717319052
 20
44.9322928717
 30
0.0
 10
25.9424448157
 20
45.659804914
 30
0.0
 10
25.047593856
 20
46.521626874
 30
0.0
 10
24.2059523565
 20
47.4995194511
 30
0.0
 10
23.4353926276
 20
48.5726853798
 30
0.0
 10
22.752324127
 20
49.7182572106
 30
0.0
 10
22.1713173751
 20
50.9118022749
 30
0.0
 10
21.704765684
 20
52.127855752
 30
0.0
 10
21.3625992084
 20
53.3406426005
 30
0.0
 10
21.1521394763
 20
54.5242245487
 30
0.0
 10
21.1009935658
 20
55.3037372361
 30
0.0
 10
21.1009935658
 20
55.6812639766
 30
0.0
  0
SPLINE
  5
264
100
AcDbEntity
  8
0
100
AcDbSpline
 62
7
  6
BYLAYER
 70
0
 71
3
 72
9
 73
5
 74
0
 42
0.0000001
 43
0.0000001
 44
0.0000000001
 40
0.0
 40
0.0
 40
0.0
 40
0.0
 40
0.5076278496
 40
1.0
 40
1.0
 40
1.0
 40
1.0
 10
33.3824326728
 20
58.0030046155
 30
0.0
 10
32.9859668575
 20
58.5602779004
 30
0.0
 10
32.1576141307
 20
59.6252448695
 30
0.0
 10
31.2364332556
 20
60.6114922001
 30
0.0
 10
30.7601070591
 20
61.0731854292
 30
0.0
  0
SPLINE
  5
265
100
AcDbEntity
  8
0
100
AcDbSpline
 62
7
  6
BYLAYER
 70
0
 71
3
 72
11
 73
7
 74
0
 42
0.0000001
 43
0.0000001
 44
0.0000000001
 40
0.0
 40
0.0
 40
0.0
 40
0.0
 40
0.2500695945
 40
0.4988471204
 40
0.7482067423
 40
1.0
 40
1.0
 40
1.0
 40
1.0
 10
21.2164094235
 20
64.6104802175
 30
0.0
 10
21.057634815
 20
64.5534339201
 30
0.0
 10
20.7465520362
 20
64.423088682
 30
0.0
 10
20.3035685609
 20
64.1791412303
 30
0.0
 10
19.8881067307
 20
63.8887844387
 30
0.0
 10
19.6323718343
 20
63.6665185041
 30
0.0
 10
19.5099903672
 20
63.5487043709
 30
0.0
  0
SPLINE
  5
266
100
AcDbEntity
  8
0
100
AcDbSpline
 62
7
  6
BYLAYER
 70
0
 71
3
 72
9
 73
5
 74
0
 42
0.0000001
 43
0.0000001
 44
0.0000000001
 40
0.0
 40
0.0
 40
0.0
 40
0.0
 40
0.2466258641
 40
1.0
 40
1.0
 40
1.0
 40
1.0
 10
19.5099903672
 20
63.5487043709
 30
0.0
 10
19.4549019139
 20
63.4956718445
 30
0.0
 10
19.2364595527
 20
63.2755607758
 30
0.0
 10
19.0380870935
 20
63.035689294
 30
0.0
 10
18.9007456628
 20
62.8467463472
 30
0.0
  0
SPLINE
  5
267
100
AcDbEntity
  8
0
100
AcDbSpline
 62
7
  6
BYLAYER
 70
0
 71
3
 72
17
 73
13
 74
0
 42
0.0000001
 43
0.0000001
 44
0.0000000001
 40
0.0
 40
0.0
 40
0.0
 40
0.0
 40
0.046245551
 40
0.0932076539
 40
0.1415470668
 40
0.1918305145
 40
0.2997220793
 40
0.4191741842
 40
0.5504768193
 40
0.6925152979
 40
0.8433091507
 40
1.0
 40
1.0
 40
1.0
 40
1.0
 10
19.1612120234
 20
76.2569495441
 30
0.0
 10
19.1612139381
 20
76.3253894923
 30
0.0
 10
19.1505421175
 20
76.4635629761
 30
0.0
 10
19.1026275058
 20
76.6682473043
 30
0.0
 10
19.023468077
 20
76.8694150193
 30
0.0
 10
18.8737798824
 20
77.1367922956
 30
0.0
 10
18.606553439
 20
77.4540088617
 30
0.0
 10
18.1881509254
 20
77.7849773074
 30
0.0
 10
17.6775926848
 20
78.0674839554
 30
0.0
 10
17.090259727
 20
78.2937234926
 30
0.0
 10
16.4439170178
 20
78.4569890515
 30
0.0
 10
15.9922322337
 20
78.5199570297
 30
0.0
 10
15.7612259697
 20
78.5401908367
 30
0.0
  0
SPLINE
  5
268
100
AcDbEntity
  8
0
100
AcDbSpline
 62
7
  6
BYLAYER
 70
0
 71
3
 72
11
 73
7
 74
0
 42
0.0000001
 43
0.0000001
 44
0.0000000001
 40
0.0
 40
0.0
 40
0.0
 40
0.0
 40
0.2457878807
 40
0.4955986101
 40
0.7476236399
 40
1.0
 40
1.0
 40
1.0
 40
1.0
 10
40.7873710252
 20
67.2590946178
 30
0.0
 10
41.2373165971
 20
66.7484254012
 30
0.0
 10
42.1110291097
 20
65.6887018331
 30
0.0
 10
43.3269199348
 20
64.0115899398
 30
0.0
 10
44.4484127152
 20
62.2483031064
 30
0.0
 10
45.1264181992
 20
61.0260208507
 30
0.0
 10
45.4467478925
 20
60.4049006585
 30
0.0
  0
SPLINE
  5
269
100
AcDbEntity
  8
0
100
AcDbSpline
 62
7
  6
BYLAYER
 70
0
 71
3
 72
15
 73
11
 74
0
 42
0.0000001
 43
0.0000001
 44
0.0000000001
 40
0.0
 40
0.0
 40
0.0
 40
0.0
 40
0.1112998697
 40
0.2300541419
 40
0.3546923113
 40
0.4835315829
 40
0.6145696097
 40
0.7457124121
 40
0.8748630484
 40
1.0
 40
1.0
 40
1.0
 40
1.0
 10
57.7645179999
 20
34.1053882258
 30
0.0
 10
57.6410048024
 20
34.0340782736
 30
0.0
 10
57.3752705805
 20
33.9043440209
 30
0.0
 10
56.9458113322
 20
33.7530458285
 30
0.0
 10
56.4811767357
 20
33.641736799
 30
0.0
 10
55.99256951
 20
33.5729798383
 30
0.0
 10
55.4914462445
 20
33.5483787671
 30
0.0
 10
54.9897132408
 20
33.5685335565
 30
0.0
 10
54.4993770336
 20
33.6329547173
 30
0.0
 10
54.1811554373
 20
33.705913826
 30
0.0
 10
54.0269523239
 20
33.7498910955
 30
0.0
  0
SPLINE
  5
26A
100
AcDbEntity
  8
0
100
AcDbSpline
 62
7
  6
BYLAYER
 70
0
 71
3
 72
9
 73
5
 74
0
 42
0.0000001
 43
0.0000001
 44
0.0000000001
 40
0.0
 40
0.0
 40
0.0
 40
0.0
 40
0.2485121398
 40
1.0
 40
1.0
 40
1.0
 40
1.0
 10
50.9811807932
 20
57.0696131601
 30
0.0
 10
50.9811807933
 20
57.098598456
 30
0.0
 10
50.9773933471
 20
57.2152114717
 30
0.0
 10
50.9581988807
 20
57.3312561254
 30
0.0
 10
50.9359215551
 20
57.4160278754
 30
0.0
  0
SPLINE
  5
26B
100
AcDbEntity
  8
0
100
AcDbSpline
 62
7
  6
BYLAYER
 70
0
 71
3
 72
11
 73
7
 74
0
 42
0.0000001
 43
0.0000001
 44
0.0000000001
 40
0.0
 40
0.0
 40
0.0
 40
0.0
 40
0.2614917132
 40
0.5105379848
 40
0.7548409515
 40
1.0
 40
1.0
 40
1.0
 40
1.0
 10
28.4260898483
 20
74.3957221807
 30
0.0
 10
28.642512158
 20
74.3914550556
 30
0.0
 10
29.0651627054
 20
74.3540452002
 30
0.0
 10
29.675530704
 20
74.211879358
 30
0.0
 10
30.249312158
 20
73.9965463661
 30
0.0
 10
30.6105107834
 20
73.8109983453
 30
0.0
 10
30.786269337
 20
73.7095328965
 30
0.0
  0
SPLINE
  5
26C
100
AcDbEntity
  8
0
100
AcDbSpline
 62
7
  6
BYLAYER
 70
0
 71
3
 72
19
 73
15
 74
0
 42
0.0000001
 43
0.0000001
 44
0.0000000001
 40
0.0
 40
0.0
 40
0.0
 40
0.0
 40
0.0558400333
 40
0.1142089922
 40
0.1748236337
 40
0.2374061059
 40
0.3670164225
 40
0.4999989199
 40
0.6329815678
 40
0.7625923239
 40
0.8251751134
 40
0.8857901287
 40
0.944159509
 40
1.0
 40
1.0
 40
1.0
 40
1.0
 10
27.5356920646
 20
63.549468293
 30
0.0
 10
27.8717139864
 20
63.3554703348
 30
0.0
 10
28.5419694643
 20
62.9286545827
 30
0.0
 10
29.5141747725
 20
62.1986296067
 30
0.0
 10
30.4673844393
 20
61.3705791504
 30
0.0
 10
31.714945246
 20
60.1324330637
 30
0.0
 10
33.1651458052
 20
58.3919844661
 30
0.0
 10
34.6738370237
 20
56.0875990448
 30
0.0
 10
35.9151607616
 20
53.6288445841
 30
0.0
 10
36.6973464974
 20
51.5027080179
 30
0.0
 10
37.1458445025
 20
49.8032108025
 30
0.0
 10
37.3863624088
 20
48.5636758743
 30
0.0
 10
37.5324904354
 20
47.3567014161
 30
0.0
 10
37.5670034116
 20
46.562829504
 30
0.0
 10
37.5670034116
 20
46.1748238241
 30
0.0
  0
SPLINE
  5
26D
100
AcDbEntity
  8
0
100
AcDbSpline
 62
7
  6
BYLAYER
 70
0
 71
3
 72
13
 73
9
 74
0
 42
0.0000001
 43
0.0000001
 44
0.0000000001
 40
0.0
 40
0.0
 40
0.0
 40
0.0
 40
0.1080936316
 40
0.2182319596
 40
0.3322552351
 40
0.451683196
 40
0.7106208532
 40
1.0
 40
1.0
 40
1.0
 40
1.0
 10
58.7163875032
 20
35.432170678
 30
0.0
 10
58.716387504
 20
35.370645879
 30
0.0
 10
58.7057349027
 20
35.246177666
 30
0.0
 10
58.6579865324
 20
35.0623590727
 30
0.0
 10
58.5793003161
 20
34.8824791505
 30
0.0
 10
58.4303750304
 20
34.6440519558
 30
0.0
 10
58.165834349
 20
34.3657581535
 30
0.0
 10
57.9071603901
 20
34.1877423566
 30
0.0
 10
57.7645179999
 20
34.1053882258
 30
0.0
  0
SPLINE
  5
26E
100
AcDbEntity
  8
0
100
AcDbSpline
 62
7
  6
BYLAYER
 70
0
 71
3
 72
11
 73
7
 74
0
 42
0.0000001
 43
0.0000001
 44
0.0000000001
 40
0.0
 40
0.0
 40
0.0
 40
0.0
 40
0.2495106606
 40
0.4996650126
 40
0.7500235978
 40
1.0
 40
1.0
 40
1.0
 40
1.0
 10
37.5987498194
 20
69.7764344354
 30
0.0
 10
37.8925399405
 20
69.6068119004
 30
0.0
 10
38.4709366335
 20
69.2494784663
 30
0.0
 10
39.3011441714
 20
68.6558066924
 30
0.0
 10
40.0833669217
 20
67.9988904342
 30
0.0
 10
40.5626840241
 20
67.5141048724
 30
0.0
 10
40.7873710252
 20
67.2590946178
 30
0.0
  0
SPLINE
  5
26F
100
AcDbEntity
  8
0
100
AcDbSpline
 62
7
  6
BYLAYER
 70
0
 71
3
 72
11
 73
7
 74
0
 42
0.0000001
 43
0.0000001
 44
0.0000000001
 40
0.0
 40
0.0
 40
0.0
 40
0.0
 40
0.2419891749
 40
0.4872694188
 40
0.7390874597
 40
1.0
 40
1.0
 40
1.0
 40
1.0
 10
24.556802044
 20
73.45580517
 30
0.0
 10
24.8382418017
 20
73.6182995575
 30
0.0
 10
25.4297280766
 20
73.9045174289
 30
0.0
 10
26.3790968978
 20
74.2048855765
 30
0.0
 10
27.3856394438
 20
74.3758049395
 30
0.0
 10
28.0757634871
 20
74.4026294465
 30
0.0
 10
28.4260898483
 20
74.3957221807
 30
0.0
  0
SPLINE
  5
270
100
AcDbEntity
  8
0
100
AcDbSpline
 62
7
  6
BYLAYER
 70
0
 71
3
 72
12
 73
8
 74
0
 42
0.0000001
 43
0.0000001
 44
0.0000000001
 40
0.0
 40
0.0
 40
0.0
 40
0.0
 40
0.1081702127
 40
0.2183727686
 40
0.4513235059
 40
0.7105143194
 40
1.0
 40
1.0
 40
1.0
 40
1.0
 10
54.4664775095
 20
29.2094867387
 30
0.0
 10
54.4336845495
 20
29.2284193385
 30
0.0
 10
54.3706608746
 20
29.2724555608
 30
0.0
 10
54.2575578896
 20
29.3836595254
 30
0.0
 10
54.1455161757
 20
29.5662832075
 30
0.0
 10
54.0676607656
 20
29.8309664534
 30
0.0
 10
54.0522478783
 20
30.0237136454
 30
0.0
 10
54.0522478783
 20
30.1250503916
 30
0.0
  0
SPLINE
  5
271
100
AcDbEntity
  8
0
100
AcDbSpline
 62
7
  6
BYLAYER
 70
0
 71
3
 72
15
 73
11
 74
0
 42
0.0000001
 43
0.0000001
 44
0.0000000001
 40
0.0
 40
0.0
 40
0.0
 40
0.0
 40
0.10801166
 40
0.2180602282
 40
0.3319988302
 40
0.4513592716
 40
0.5772663831
 40
0.710489749
 40
0.8514447311
 40
1.0
 40
1.0
 40
1.0
 40
1.0
 10
62.7592744333
 20
31.3496568926
 30
0.0
 10
62.7592744366
 20
31.1982085792
 30
0.0
 10
62.7330069963
 20
30.8918373425
 30
0.0
 10
62.6155814951
 20
30.4393274161
 30
0.0
 10
62.4218243075
 20
29.9965480282
 30
0.0
 10
62.1541122779
 20
29.5680342827
 30
0.0
 10
61.8155304364
 20
29.1576052149
 30
0.0
 10
61.40945162
 20
28.7688901352
 30
0.0
 10
60.9399456668
 20
28.4055653705
 30
0.0
 10
60.5965726963
 20
28.1878786133
 30
0.0
 10
60.4161824132
 20
28.0837308565
 30
0.0
  0
SPLINE
  5
272
100
AcDbEntity
  8
0
100
AcDbSpline
 62
7
  6
BYLAYER
 70
0
 71
3
 72
15
 73
11
 74
0
 42
0.0000001
 43
0.0000001
 44
0.0000000001
 40
0.0
 40
0.0
 40
0.0
 40
0.0
 40
0.1080114153
 40
0.2180597762
 40
0.3319982388
 40
0.4513586289
 40
0.5772657828
 40
0.7104892788
 40
0.8514444675
 40
1.0
 40
1.0
 40
1.0
 40
1.0
 10
62.7592744333
 20
35.4321689783
 30
0.0
 10
62.7592744336
 20
35.583618904
 30
0.0
 10
62.7330064297
 20
35.8899934743
 30
0.0
 10
62.6155783991
 20
36.3425081603
 30
0.0
 10
62.4218171077
 20
36.785291987
 30
0.0
 10
62.1540994746
 20
37.2138097035
 30
0.0
 10
61.8155106839
 20
37.6242421827
 30
0.0
 10
61.4094236932
 20
38.0129600023
 30
0.0
 10
60.9399085084
 20
38.3762867481
 30
0.0
 10
60.596528993
 20
38.5939742239
 30
0.0
 10
60.4161353098
 20
38.6981222093
 30
0.0
  0
SPLINE
  5
273
100
AcDbEntity
  8
0
100
AcDbSpline
 62
7
  6
BYLAYER
 70
0
 71
3
 72
22
 73
18
 74
0
 42
0.0000001
 43
0.0000001
 44
0.0000000001
 40
0.0
 40
0.0
 40
0.0
 40
0.0
 40
0.0609357194
 40
0.1255870425
 40
0.1932768379
 40
0.2633159769
 40
0.4069661792
 40
0.4788878027
 40
0.54963404
 40
0.6183473824
 40
0.6842578986
 40
0.7467198816
 40
0.8052560852
 40
0.8596177741
 40
0.9098499294
 40
0.9563895757
 40
1.0
 40
1.0
 40
1.0
 40
1.0
 10
49.8095954153
 20
59.5190921927
 30
0.0
 10
49.6753913068
 20
59.5965732181
 30
0.0
 10
49.3888029489
 20
59.7393267679
 30
0.0
 10
48.9278006188
 20
59.9119007817
 30
0.0
 10
48.4302420189
 20
60.0464172925
 30
0.0
 10
47.7252379803
 20
60.1726786899
 30
0.0
 10
46.9962245077
 20
60.2122788795
 30
0.0
 10
46.2690167119
 20
60.1659448729
 30
0.0
 10
45.7364088731
 20
60.0884613583
 30
0.0
 10
45.2271550462
 20
59.9696605426
 30
0.0
 10
44.7506570883
 20
59.8118259149
 30
0.0
 10
44.3157647194
 20
59.6178108559
 30
0.0
 10
43.9305512958
 20
59.3909981374
 30
0.0
 10
43.6020433891
 20
59.1354888975
 30
0.0
 10
43.3364158155
 20
58.8552808541
 30
0.0
 10
43.1393595282
 20
58.5551423959
 30
0.0
 10
43.0546199575
 20
58.3397747194
 30
0.0
 10
43.0264335818
 20
58.2325112805
 30
0.0
  0
SPLINE
  5
274
100
AcDbEntity
  8
0
100
AcDbSpline
 62
7
  6
BYLAYER
 70
0
 71
3
 72
11
 73
7
 74
0
 42
0.0000001
 43
0.0000001
 44
0.0000000001
 40
0.0
 40
0.0
 40
0.0
 40
0.0
 40
0.2195819112
 40
0.4567630793
 40
0.7163663101
 40
1.0
 40
1.0
 40
1.0
 40
1.0
 10
50.9359215551
 20
58.2325302925
 30
0.0
 10
50.9033368471
 20
58.356524652
 30
0.0
 10
50.799868684
 20
58.6059047951
 30
0.0
 10
50.5529768536
 20
58.9471865782
 30
0.0
 10
50.2178443751
 20
59.2593661242
 30
0.0
 10
49.9530112888
 20
59.4362928727
 30
0.0
 10
49.8095954153
 20
59.5190921927
 30
0.0
  0
SPLINE
  5
275
100
AcDbEntity
  8
0
100
AcDbSpline
 62
7
  6
BYLAYER
 70
0
 71
3
 72
9
 73
5
 74
0
 42
0.0000001
 43
0.0000001
 44
0.0000000001
 40
0.0
 40
0.0
 40
0.0
 40
0.0
 40
0.2526369109
 40
1.0
 40
1.0
 40
1.0
 40
1.0
 10
43.0264335818
 20
57.4160088633
 30
0.0
 10
43.018945289
 20
57.3875121155
 30
0.0
 10
42.9927995967
 20
57.2738291401
 30
0.0
 10
42.9811793398
 20
57.1567756278
 30
0.0
 10
42.9811793397
 20
57.0696131601
 30
0.0
  0
SPLINE
  5
276
100
AcDbEntity
  8
0
100
AcDbSpline
 62
7
  6
BYLAYER
 70
0
 71
3
 72
15
 73
11
 74
0
 42
0.0000001
 43
0.0000001
 44
0.0000000001
 40
0.0
 40
0.0
 40
0.0
 40
0.0
 40
0.1148237971
 40
0.2262347911
 40
0.3378571067
 40
0.4532805305
 40
0.5755300457
 40
0.7067311291
 40
0.8481251193
 40
1.0
 40
1.0
 40
1.0
 40
1.0
 10
32.6366517965
 20
39.0474985589
 30
0.0
 10
33.0004717352
 20
39.0855541005
 30
0.0
 10
33.7127150253
 20
39.2313108171
 30
0.0
 10
34.702408136
 20
39.6764566426
 30
0.0
 10
35.5678745103
 20
40.334887034
 30
0.0
 10
36.2912086374
 20
41.1911714637
 30
0.0
 10
36.8612027744
 20
42.2265224812
 30
0.0
 10
37.2711764792
 20
43.4214400237
 30
0.0
 10
37.5164838159
 20
44.7554708461
 30
0.0
 10
37.5670034116
 20
45.6909819206
 30
0.0
 10
37.5670034116
 20
46.1748238241
 30
0.0
  0
SPLINE
  5
277
100
AcDbEntity
  8
0
100
AcDbSpline
 62
7
  6
BYLAYER
 70
0
 71
3
 72
15
 73
11
 74
0
 42
0.0000001
 43
0.0000001
 44
0.0000000001
 40
0.0
 40
0.0
 40
0.0
 40
0.0
 40
0.1148222429
 40
0.2262340199
 40
0.3378583855
 40
0.4532849389
 40
0.5755373469
 40
0.7067405522
 40
0.8481291937
 40
1.0
 40
1.0
 40
1.0
 40
1.0
 10
18.8985606715
 20
62.8437034342
 30
0.0
 10
19.1134404996
 20
63.1397022639
 30
0.0
 10
19.5958079609
 20
63.6835493227
 30
0.0
 10
20.4761528338
 20
64.317949406
 30
0.0
 10
21.4790753464
 20
64.7381437191
 30
0.0
 10
22.5822548898
 20
64.9363536784
 30
0.0
 10
23.7638243266
 20
64.9122695916
 30
0.0
 10
25.0035349587
 20
64.6698464361
 30
0.0
 10
26.2813715012
 20
64.2153197617
 30
0.0
 10
27.1167142833
 20
63.7913597555
 30
0.0
 10
27.5356920646
 20
63.549468293
 30
0.0
  0
SPLINE
  5
278
100
AcDbEntity
  8
0
100
AcDbSpline
 62
7
  6
BYLAYER
 70
0
 71
3
 72
11
 73
7
 74
0
 42
0.0000001
 43
0.0000001
 44
0.0000000001
 40
0.0
 40
0.0
 40
0.0
 40
0.0
 40
0.2664458021
 40
0.5244264739
 40
0.7699920423
 40
1.0
 40
1.0
 40
1.0
 40
1.0
 10
14.5612259697
 20
78.5401879523
 30
0.0
 10
14.3543632029
 20
78.5220678535
 30
0.0
 10
13.9485746196
 20
78.4676597743
 30
0.0
 10
13.363301516
 20
78.3306697371
 30
0.0
 10
12.8224177409
 20
78.1421954837
 30
0.0
 10
12.4880448684
 20
77.9795406397
 30
0.0
 10
12.3328035343
 20
77.8899125487
 30
0.0
  0
SPLINE
  5
279
100
AcDbEntity
  8
0
100
AcDbSpline
 62
7
  6
BYLAYER
 70
0
 71
3
 72
14
 73
10
 74
0
 42
0.0000001
 43
0.0000001
 44
0.0000000001
 40
0.0
 40
0.0
 40
0.0
 40
0.0
 40
0.2892528427
 40
0.4225705797
 40
0.5485169099
 40
0.6678926549
 40
0.7818665007
 40
0.8919544459
 40
1.0
 40
1.0
 40
1.0
 40
1.0
 10
12.3328035343
 20
77.8899125487
 30
0.0
 10
12.1572411305
 20
77.7885521527
 30
0.0
 10
11.9113544505
 20
77.6192247351
 30
0.0
 10
11.6331315967
 20
77.3529912039
 30
0.0
 10
11.4638085921
 20
77.1477445924
 30
0.0
 10
11.3299974666
 20
76.9334883174
 30
0.0
 10
11.2331371093
 20
76.712109569
 30
0.0
 10
11.1743851285
 20
76.485863028
 30
0.0
 10
11.1612749647
 20
76.3326728122
 30
0.0
 10
11.1612728463
 20
76.2569495172
 30
0.0
  0
SPLINE
  5
27A
100
AcDbEntity
  8
0
100
AcDbSpline
 62
7
  6
BYLAYER
 70
0
 71
3
 72
15
 73
11
 74
0
 42
0.0000001
 43
0.0000001
 44
0.0000000001
 40
0.0
 40
0.0
 40
0.0
 40
0.0
 40
0.1485552698
 40
0.2895102443
 40
0.4227336065
 40
0.5486407192
 40
0.6680011625
 40
0.7819397656
 40
0.8919883364
 40
1.0
 40
1.0
 40
1.0
 40
1.0
 10
60.4161824132
 20
32.1662429422
 30
0.0
 10
60.5965726976
 20
32.2703906997
 30
0.0
 10
60.9399456645
 20
32.4880774458
 30
0.0
 10
61.4094516011
 20
32.8514022081
 30
0.0
 10
61.8155304145
 20
33.240117271
 30
0.0
 10
62.1541122524
 20
33.6505463403
 30
0.0
 10
62.4218243044
 20
34.0790600798
 30
0.0
 10
62.6155814829
 20
34.5218394804
 30
0.0
 10
62.7330070019
 20
34.9743494131
 30
0.0
 10
62.7592744329
 20
35.2807206597
 30
0.0
 10
62.7592744333
 20
35.4321689783
 30
0.0
  0
SPLINE
  5
27B
100
AcDbEntity
  8
0
100
AcDbSpline
 62
7
  6
BYLAYER
 70
0
 71
3
 72
23
 73
19
 74
0
 42
0.0000001
 43
0.0000001
 44
0.0000000001
 40
0.0
 40
0.0
 40
0.0
 40
0.0
 40
0.0623790244
 40
0.1287511108
 40
0.1983471102
 40
0.2703364014
 40
0.3437249833
 40
0.4174663417
 40
0.4905033734
 40
0.5618020592
 40
0.6304109831
 40
0.6955105223
 40
0.7564679175
 40
0.8129137823
 40
0.8648233789
 40
0.9126060588
 40
0.9571869449
 40
1.0
 40
1.0
 40
1.0
 40
1.0
 10
17.9896813355
 20
72.1744792612
 30
0.0
 10
17.846002035
 20
72.0915264735
 30
0.0
 10
17.5379898824
 20
71.9397046296
 30
0.0
 10
17.041205187
 20
71.7596363582
 30
0.0
 10
16.5042848405
 20
71.6233598052
 30
0.0
 10
15.9388513316
 20
71.5336988324
 30
0.0
 10
15.356812483
 20
71.492557463
 30
0.0
 10
14.7706058184
 20
71.5008038956
 30
0.0
 10
14.1927268522
 20
71.5582570477
 30
0.0
 10
13.6354922903
 20
71.6637373472
 30
0.0
 10
13.1107402191
 20
71.8149699129
 30
0.0
 10
12.6295601682
 20
72.0087992464
 30
0.0
 10
12.2020836075
 20
72.2413145957
 30
0.0
 10
11.8372517618
 20
72.5079164584
 30
0.0
 10
11.5428073186
 20
72.8035707528
 30
0.0
 10
11.325564934
 20
73.1230920533
 30
0.0
 10
11.1917302911
 20
73.4601516024
 30
0.0
 10
11.1612469902
 20
73.6935745743
 30
0.0
 10
11.1612582871
 20
73.8074422786
 30
0.0
  0
SPLINE
  5
27C
100
AcDbEntity
  8
0
100
AcDbSpline
 62
7
  6
BYLAYER
 70
0
 71
3
 72
13
 73
9
 74
0
 42
0.0000001
 43
0.0000001
 44
0.0000000001
 40
0.0
 40
0.0
 40
0.0
 40
0.0
 40
0.2893796193
 40
0.5483174434
 40
0.6677453536
 40
0.7817684919
 40
0.8919066128
 40
1.0
 40
1.0
 40
1.0
 40
1.0
 10
57.7644988642
 20
36.7589641781
 30
0.0
 10
57.9071439219
 20
36.6766098787
 30
0.0
 10
58.1658227857
 20
36.4985934049
 30
0.0
 10
58.4303689368
 20
36.2202974454
 30
0.0
 10
58.5792973856
 20
35.9818679494
 30
0.0
 10
58.6579852795
 20
35.8019862279
 30
0.0
 10
58.70573467
 20
35.6181656983
 30
0.0
 10
58.7163875024
 20
35.4936961319
 30
0.0
 10
58.7163875032
 20
35.432170678
 30
0.0
  0
SPLINE
  5
27D
100
AcDbEntity
  8
0
100
AcDbSpline
 62
7
  6
BYLAYER
 70
0
 71
3
 72
10
 73
6
 74
0
 42
0.0000001
 43
0.0000001
 44
0.0000000001
 40
0.0
 40
0.0
 40
0.0
 40
0.0
 40
0.4953611752
 40
0.7468141274
 40
1.0
 40
1.0
 40
1.0
 40
1.0
 10
33.1925227623
 20
71.6439249258
 30
0.0
 10
33.9507506259
 20
71.4161170051
 30
0.0
 10
35.0785675003
 20
71.0165325231
 30
0.0
 10
36.5352439161
 20
70.3572791457
 30
0.0
 10
37.248310409
 20
69.9787639791
 30
0.0
 10
37.5987498194
 20
69.7764344354
 30
0.0
  0
SPLINE
  5
27E
100
AcDbEntity
  8
0
100
AcDbSpline
 62
7
  6
BYLAYER
 70
0
 71
3
 72
14
 73
10
 74
0
 42
0.0000001
 43
0.0000001
 44
0.0000000001
 40
0.0
 40
0.0
 40
0.0
 40
0.0
 40
0.143347782
 40
0.2816159335
 40
0.5421887004
 40
0.6644482546
 40
0.781425983
 40
0.8932296886
 40
1.0
 40
1.0
 40
1.0
 40
1.0
 10
33.7163326531
 20
63.1766530791
 30
0.0
 10
33.4737656452
 20
63.451956386
 30
0.0
 10
33.011686009
 20
64.0055664172
 30
0.0
 10
32.1566066951
 20
65.0987775441
 30
0.0
 10
31.3605793374
 20
66.1691361338
 30
0.0
 10
30.5901303433
 20
67.1904690099
 30
0.0
 10
30.0396294967
 20
67.9006924476
 30
0.0
 10
29.4986718815
 20
68.5679338536
 30
0.0
 10
29.1328799596
 20
68.9914616265
 30
0.0
 10
28.949899739
 20
69.1944600025
 30
0.0
  0
SPLINE
  5
27F
100
AcDbEntity
  8
0
100
AcDbSpline
 62
7
  6
BYLAYER
 70
0
 71
3
 72
13
 73
9
 74
0
 42
0.0000001
 43
0.0000001
 44
0.0000000001
 40
0.0
 40
0.0
 40
0.0
 40
0.0
 40
0.2751543853
 40
0.5389231692
 40
0.6646945825
 40
0.7848251952
 40
0.8975091635
 40
1.0
 40
1.0
 40
1.0
 40
1.0
 10
28.949899739
 20
69.1944600025
 30
0.0
 10
28.2734907393
 20
69.3976856226
 30
0.0
 10
26.9307538549
 20
69.7381919773
 30
0.0
 10
25.2473893804
 20
70.0260203458
 30
0.0
 10
23.9475235849
 20
70.1758339616
 30
0.0
 10
23.0299407774
 20
70.2503448225
 30
0.0
 10
22.1702508843
 20
70.2938725117
 30
0.0
 10
21.6180785113
 20
70.3080946274
 30
0.0
 10
21.3550514762
 20
70.313280642
 30
0.0
  0
SPLINE
  5
280
100
AcDbEntity
  8
0
100
AcDbSpline
 62
7
  6
BYLAYER
 70
0
 71
3
 72
14
 73
10
 74
0
 42
0.0000001
 43
0.0000001
 44
0.0000000001
 40
0.0
 40
0.0
 40
0.0
 40
0.0
 40
0.2892653407
 40
0.4225653074
 40
0.5485102465
 40
0.6678926687
 40
0.7818720479
 40
0.891956077
 40
1.0
 40
1.0
 40
1.0
 40
1.0
 10
44.1527647176
 20
53.8036317103
 30
0.0
 10
43.9771913009
 20
53.9049967766
 30
0.0
 10
43.7312897229
 20
54.0743085089
 30
0.0
 10
43.4530846962
 20
54.3405608183
 30
0.0
 10
43.2837488646
 20
54.5457922703
 30
0.0
 10
43.1499522191
 20
54.7600684057
 30
0.0
 10
43.0530386541
 20
54.9814367256
 30
0.0
 10
42.9943425406
 20
55.2077018459
 30
0.0
 10
42.9812012417
 20
55.360885014
 30
0.0
 10
42.9811936021
 20
55.4366083285
 30
0.0
  0
SPLINE
  5
281
100
AcDbEntity
  8
0
100
AcDbSpline
 62
7
  6
BYLAYER
 70
0
 71
3
 72
11
 73
7
 74
0
 42
0.0000001
 43
0.0000001
 44
0.0000000001
 40
0.0
 40
0.0
 40
0.0
 40
0.0
 40
0.2523763601
 40
0.5044013899
 40
0.7542121193
 40
1.0
 40
1.0
 40
1.0
 40
1.0
 10
38.3757095203
 20
56.3224591198
 30
0.0
 10
38.0553798271
 20
56.943579312
 30
0.0
 10
37.3773743431
 20
58.1658615677
 30
0.0
 10
36.2558815627
 20
59.9291484011
 30
0.0
 10
35.0399907375
 20
61.6062602944
 30
0.0
 10
34.1662782249
 20
62.6659838625
 30
0.0
 10
33.7163326531
 20
63.1766530791
 30
0.0
  0
SPLINE
  5
282
100
AcDbEntity
  8
0
100
AcDbSpline
 62
7
  6
BYLAYER
 70
0
 71
3
 72
11
 73
7
 74
0
 42
0.0000001
 43
0.0000001
 44
0.0000000001
 40
0.0
 40
0.0
 40
0.0
 40
0.0
 40
0.2609125403
 40
0.5127305812
 40
0.7580108251
 40
1.0
 40
1.0
 40
1.0
 40
1.0
 10
21.3550514762
 20
70.313280642
 30
0.0
 10
21.004725115
 20
70.3201879078
 30
0.0
 10
20.3146010716
 20
70.2933634008
 30
0.0
 10
19.3080585257
 20
70.1224440378
 30
0.0
 10
18.3586897045
 20
69.8220758902
 30
0.0
 10
17.7672034296
 20
69.5358580188
 30
0.0
 10
17.4857636719
 20
69.3733636313
 30
0.0
  0
SPLINE
  5
283
100
AcDbEntity
  8
0
100
AcDbSpline
 62
7
  6
BYLAYER
 70
0
 71
3
 72
9
 73
5
 74
0
 42
0.0000001
 43
0.0000001
 44
0.0000000001
 40
0.0
 40
0.0
 40
0.0
 40
0.0
 40
0.2526369109
 40
1.0
 40
1.0
 40
1.0
 40
1.0
 10
50.9359265511
 20
56.7232174569
 30
0.0
 10
50.943414844
 20
56.7517142046
 30
0.0
 10
50.9695605362
 20
56.8653971801
 30
0.0
 10
50.9811807932
 20
56.9824506924
 30
0.0
 10
50.9811807932
 20
57.0696131601
 30
0.0
  0
SPLINE
  5
284
100
AcDbEntity
  8
0
100
AcDbSpline
 62
7
  6
BYLAYER
 70
0
 71
3
 72
9
 73
5
 74
0
 42
0.0000001
 43
0.0000001
 44
0.0000000001
 40
0.0
 40
0.0
 40
0.0
 40
0.0
 40
0.510270866
 40
1.0
 40
1.0
 40
1.0
 40
1.0
 10
18.1894601446
 20
61.5692957439
 30
0.0
 10
18.2855551154
 20
61.798435919
 30
0.0
 10
18.4972453805
 20
62.2381676843
 30
0.0
 10
18.7584656802
 20
62.6507213667
 30
0.0
 10
18.8985606715
 20
62.8437034342
 30
0.0
  0
SPLINE
  5
285
100
AcDbEntity
  8
0
100
AcDbSpline
 62
7
  6
BYLAYER
 70
0
 71
3
 72
9
 73
5
 74
0
 42
0.0000001
 43
0.0000001
 44
0.0000000001
 40
0.0
 40
0.0
 40
0.0
 40
0.0
 40
0.4864065569
 40
1.0
 40
1.0
 40
1.0
 40
1.0
 10
17.5043807176
 20
57.7577223969
 30
0.0
 10
17.5043807176
 20
57.2541095528
 30
0.0
 10
17.5626716442
 20
56.2182531258
 30
0.0
 10
17.7206414718
 20
55.1934026559
 30
0.0
 10
17.8241354351
 20
54.6718096766
 30
0.0
  0
SPLINE
  5
286
100
AcDbEntity
  8
0
100
AcDbSpline
 62
7
  6
BYLAYER
 70
0
 71
3
 72
9
 73
5
 74
0
 42
0.0000001
 43
0.0000001
 44
0.0000000001
 40
0.0
 40
0.0
 40
0.0
 40
0.0
 40
0.5110149839
 40
1.0
 40
1.0
 40
1.0
 40
1.0
 10
25.4987596055
 20
41.8003881138
 30
0.0
 10
25.8182559932
 20
41.5394150225
 30
0.0
 10
26.4616992785
 20
41.0505297401
 30
0.0
 10
27.1413617947
 20
40.6129903859
 30
0.0
 10
27.4823173128
 20
40.4140504409
 30
0.0
  0
SPLINE
  5
287
100
AcDbEntity
  8
0
100
AcDbSpline
 62
7
  6
BYLAYER
 70
0
 71
3
 72
9
 73
5
 74
0
 42
0.0000001
 43
0.0000001
 44
0.0000000001
 40
0.0
 40
0.0
 40
0.0
 40
0.0
 40
0.5199879309
 40
1.0
 40
1.0
 40
1.0
 40
1.0
 10
27.5390047381
 20
40.3811598959
 30
0.0
 10
28.0013240622
 20
40.1144291677
 30
0.0
 10
28.9221162167
 20
39.6536112553
 30
0.0
 10
29.9011947414
 20
39.3292645031
 30
0.0
 10
30.3807493759
 20
39.2161601313
 30
0.0
  0
SPLINE
  5
288
100
AcDbEntity
  8
0
100
AcDbSpline
 62
7
  6
BYLAYER
 70
0
 71
3
 72
9
 73
5
 74
0
 42
0.0000001
 43
0.0000001
 44
0.0000000001
 40
0.0
 40
0.0
 40
0.0
 40
0.0
 40
0.5162300658
 40
1.0
 40
1.0
 40
1.0
 40
1.0
 10
30.3807493759
 20
39.2161601313
 30
0.0
 10
30.7561409757
 20
39.1276229176
 30
0.0
 10
31.4966055148
 20
39.0063567907
 30
0.0
 10
32.2482279034
 20
39.0088015838
 30
0.0
 10
32.6078934619
 20
39.0445647843
 30
0.0
  0
SPLINE
  5
289
100
AcDbEntity
  8
0
100
AcDbSpline
 62
7
  6
BYLAYER
 70
0
 71
3
 72
22
 73
18
 74
0
 42
0.0000001
 43
0.0000001
 44
0.0000000001
 40
0.0
 40
0.0
 40
0.0
 40
0.0
 40
0.0609357194
 40
0.1255870425
 40
0.1932768379
 40
0.2633159769
 40
0.4069661792
 40
0.4788878027
 40
0.54963404
 40
0.6183473824
 40
0.6842578986
 40
0.7467198816
 40
0.8052560852
 40
0.8596177741
 40
0.9098499294
 40
0.9563895757
 40
1.0
 40
1.0
 40
1.0
 40
1.0
 10
44.1527647176
 20
56.2531389617
 30
0.0
 10
44.2869688262
 20
56.1756579364
 30
0.0
 10
44.5735571841
 20
56.0329043865
 30
0.0
 10
45.0345595142
 20
55.8603303727
 30
0.0
 10
45.532118114
 20
55.725813862
 30
0.0
 10
46.2371221527
 20
55.5995524645
 30
0.0
 10
46.9661356252
 20
55.559952275
 30
0.0
 10
47.6933434211
 20
55.6062862816
 30
0.0
 10
48.2259512598
 20
55.6837697962
 30
0.0
 10
48.7352050868
 20
55.8025706118
 30
0.0
 10
49.2117030447
 20
55.9604052396
 30
0.0
 10
49.6465954136
 20
56.1544202985
 30
0.0
 10
50.0318088372
 20
56.3812330171
 30
0.0
 10
50.3603167439
 20
56.636742257
 30
0.0
 10
50.6259443175
 20
56.9169503004
 30
0.0
 10
50.8230006048
 20
57.2170887585
 30
0.0
 10
50.9077401755
 20
57.432456435
 30
0.0
 10
50.9359265511
 20
57.539719874
 30
0.0
  0
SPLINE
  5
28A
100
AcDbEntity
  8
0
100
AcDbSpline
 62
7
  6
BYLAYER
 70
0
 71
3
 72
11
 73
7
 74
0
 42
0.0000001
 43
0.0000001
 44
0.0000000001
 40
0.0
 40
0.0
 40
0.0
 40
0.0
 40
0.2195819112
 40
0.4567630793
 40
0.7163663101
 40
1.0
 40
1.0
 40
1.0
 40
1.0
 10
43.0264385779
 20
57.5397008619
 30
0.0
 10
43.0590232859
 20
57.4157065024
 30
0.0
 10
43.162491449
 20
57.1663263594
 30
0.0
 10
43.4093832794
 20
56.8250445762
 30
0.0
 10
43.7445157579
 20
56.5128650302
 30
0.0
 10
44.0093488442
 20
56.3359382817
 30
0.0
 10
44.1527647176
 20
56.2531389617
 30
0.0
  0
SPLINE
  5
28B
100
AcDbEntity
  8
0
100
AcDbSpline
 62
7
  6
BYLAYER
 70
0
 71
3
 72
12
 73
8
 74
0
 42
0.0000001
 43
0.0000001
 44
0.0000000001
 40
0.0
 40
0.0
 40
0.0
 40
0.0
 40
0.2894842122
 40
0.5486744391
 40
0.7816258062
 40
0.8918290155
 40
1.0
 40
1.0
 40
1.0
 40
1.0
 10
55.4664555527
 20
29.3085338651
 30
0.0
 10
55.37869915
 20
29.2578679848
 30
0.0
 10
55.2040761698
 20
29.1748463014
 30
0.0
 10
54.9359371967
 20
29.1099322429
 30
0.0
 10
54.721767976
 20
29.1156502022
 30
0.0
 10
54.5689159409
 20
29.1579950163
 30
0.0
 10
54.4992694033
 20
29.1905547545
 30
0.0
 10
54.4664775095
 20
29.2094867387
 30
0.0
  0
SPLINE
  5
28C
100
AcDbEntity
  8
0
100
AcDbSpline
 62
7
  6
BYLAYER
 70
0
 71
3
 72
9
 73
5
 74
0
 42
0.0000001
 43
0.0000001
 44
0.0000000001
 40
0.0
 40
0.0
 40
0.0
 40
0.0
 40
0.2485121398
 40
1.0
 40
1.0
 40
1.0
 40
1.0
 10
42.9811793397
 20
57.0696131601
 30
0.0
 10
42.9811793397
 20
57.0406278641
 30
0.0
 10
42.9849667858
 20
56.9240148485
 30
0.0
 10
43.0041612523
 20
56.8079701948
 30
0.0
 10
43.0264385779
 20
56.7231984448
 30
0.0
  0
SPLINE
  5
28D
100
AcDbEntity
  8
0
100
AcDbSpline
 62
7
  6
BYLAYER
 70
0
 71
3
 72
17
 73
13
 74
0
 42
0.0000001
 43
0.0000001
 44
0.0000000001
 40
0.0
 40
0.0
 40
0.0
 40
0.0
 40
0.046245551
 40
0.0932076539
 40
0.1415470668
 40
0.1918305145
 40
0.2997220793
 40
0.4191741842
 40
0.5504768193
 40
0.6925152979
 40
0.8433091507
 40
1.0
 40
1.0
 40
1.0
 40
1.0
 10
11.1612728463
 20
76.2569495172
 30
0.0
 10
11.1612709317
 20
76.1885095689
 30
0.0
 10
11.1719427523
 20
76.0503360852
 30
0.0
 10
11.2198573639
 20
75.845651757
 30
0.0
 10
11.2990167928
 20
75.644484042
 30
0.0
 10
11.4487049873
 20
75.3771067656
 30
0.0
 10
11.7159314308
 20
75.0598901996
 30
0.0
 10
12.1343339444
 20
74.7289217538
 30
0.0
 10
12.644892185
 20
74.4464151058
 30
0.0
 10
13.2322251427
 20
74.2201755686
 30
0.0
 10
13.8785678519
 20
74.0569100098
 30
0.0
 10
14.330252636
 20
73.9939420316
 30
0.0
 10
14.5612589001
 20
73.9737082245
 30
0.0
  0
SPLINE
  5
28E
100
AcDbEntity
  8
0
100
AcDbSpline
 62
7
  6
BYLAYER
 70
0
 71
3
 72
14
 73
10
 74
0
 42
0.0000001
 43
0.0000001
 44
0.0000000001
 40
0.0
 40
0.0
 40
0.0
 40
0.0
 40
0.2892528427
 40
0.4225705797
 40
0.5485169099
 40
0.6678926549
 40
0.7818665007
 40
0.8919544459
 40
1.0
 40
1.0
 40
1.0
 40
1.0
 10
17.9896813355
 20
74.6239865126
 30
0.0
 10
18.1652437393
 20
74.7253469086
 30
0.0
 10
18.4111304193
 20
74.8946743262
 30
0.0
 10
18.6893532731
 20
75.1609078574
 30
0.0
 10
18.8586762777
 20
75.3661544689
 30
0.0
 10
18.9924874032
 20
75.5804107439
 30
0.0
 10
19.0893477605
 20
75.8017894923
 30
0.0
 10
19.1480997412
 20
76.0280360333
 30
0.0
 10
19.161209905
 20
76.1812262491
 30
0.0
 10
19.1612120234
 20
76.2569495441
 30
0.0
  0
SPLINE
  5
28F
100
AcDbEntity
  8
0
100
AcDbSpline
 62
7
  6
BYLAYER
 70
0
 71
3
 72
11
 73
7
 74
0
 42
0.0000001
 43
0.0000001
 44
0.0000000001
 40
0.0
 40
0.0
 40
0.0
 40
0.0
 40
0.2664458021
 40
0.5244264739
 40
0.7699920423
 40
1.0
 40
1.0
 40
1.0
 40
1.0
 10
15.7612589
 20
73.973711109
 30
0.0
 10
15.9681216668
 20
73.9918312078
 30
0.0
 10
16.3739102502
 20
74.046239287
 30
0.0
 10
16.9591833537
 20
74.1832293242
 30
0.0
 10
17.5000671289
 20
74.3717035775
 30
0.0
 10
17.8344400014
 20
74.5343584215
 30
0.0
 10
17.9896813355
 20
74.6239865126
 30
0.0
  0
SPLINE
  5
290
100
AcDbEntity
  8
0
100
AcDbSpline
 62
7
  6
BYLAYER
 70
0
 71
3
 72
10
 73
6
 74
0
 42
0.0000001
 43
0.0000001
 44
0.0000000001
 40
0.0
 40
0.0
 40
0.0
 40
0.0
 40
0.4774171187
 40
0.732282905
 40
1.0
 40
1.0
 40
1.0
 40
1.0
 10
30.786269337
 20
73.7095328965
 30
0.0
 10
31.2247458921
 20
73.4564002916
 30
0.0
 10
31.8505541558
 20
72.985915534
 30
0.0
 10
32.62211265
 20
72.2585151624
 30
0.0
 10
33.0024337264
 20
71.8548098263
 30
0.0
 10
33.1925227623
 20
71.6439249258
 30
0.0
  0
SPLINE
  5
291
100
AcDbEntity
  8
0
100
AcDbSpline
 62
7
  6
BYLAYER
 70
0
 71
3
 72
23
 73
19
 74
0
 42
0.0000001
 43
0.0000001
 44
0.0000000001
 40
0.0
 40
0.0
 40
0.0
 40
0.0
 40
0.0428126663
 40
0.0873934859
 40
0.1351762557
 40
0.187086034
 40
0.2435317776
 40
0.3044885298
 40
0.3695870322
 40
0.4381946217
 40
0.5094919071
 40
0.5825280933
 40
0.656269502
 40
0.7296589516
 40
0.8016493834
 40
0.8712467309
 40
0.9376204907
 40
1.0
 40
1.0
 40
1.0
 40
1.0
 10
50.9811665309
 20
55.4366083232
 30
0.0
 10
50.9811780187
 20
55.3227420371
 30
0.0
 10
50.9506932405
 20
55.0893211733
 30
0.0
 10
50.8168595076
 20
54.7522641151
 30
0.0
 10
50.5996212628
 20
54.4327408403
 30
0.0
 10
50.3051768027
 20
54.1370876282
 30
0.0
 10
49.9403477485
 20
53.8704874687
 30
0.0
 10
49.5128781899
 20
53.6379728086
 30
0.0
 10
49.0317082137
 20
53.4441445543
 30
0.0
 10
48.5069680803
 20
53.292913441
 30
0.0
 10
47.9497454817
 20
53.1874321531
 30
0.0
 10
47.3718750082
 20
53.1299725035
 30
0.0
 10
46.7856700686
 20
53.1217226696
 30
0.0
 10
46.2036275722
 20
53.1628605139
 30
0.0
 10
45.6381859338
 20
53.2525150118
 30
0.0
 10
45.1012557104
 20
53.3887906019
 30
0.0
 10
44.6044630097
 20
53.5688587571
 30
0.0
 10
44.2964452484
 20
53.7206795939
 30
0.0
 10
44.1527647176
 20
53.8036317103
 30
0.0
  0
SPLINE
  5
292
100
AcDbEntity
  8
0
100
AcDbSpline
 62
7
  6
BYLAYER
 70
0
 71
3
 72
14
 73
10
 74
0
 42
0.0000001
 43
0.0000001
 44
0.0000000001
 40
0.0
 40
0.0
 40
0.0
 40
0.0
 40
0.1080435104
 40
0.2181279078
 40
0.3321072718
 40
0.4514896024
 40
0.5774352212
 40
0.7107367128
 40
1.0
 40
1.0
 40
1.0
 40
1.0
 10
19.1612265826
 20
73.8074422799
 30
0.0
 10
19.1612190702
 20
73.7317202644
 30
0.0
 10
19.1480818174
 20
73.5785386598
 30
0.0
 10
19.0893817642
 20
73.3522777847
 30
0.0
 10
18.9924748861
 20
73.1309101657
 30
0.0
 10
18.8586797083
 20
72.9166363282
 30
0.0
 10
18.6893472224
 20
72.7114049292
 30
0.0
 10
18.4111465363
 20
72.4451552536
 30
0.0
 10
18.1652504335
 20
72.2758435221
 30
0.0
 10
17.9896813355
 20
72.1744792612
 30
0.0
  0
ENDSEC
  0
SECTION
  2
OBJECTS
  0
DICTIONARY
  5
C
100
AcDbDictionary
280
0
281
1
  3
ACAD_GROUP
350
D
  3
ACAD_MLINESTYLE
350
17
  3
ACAD_LAYOUT
350
1A
  3
ACAD_PLOTSETTINGS
350
19
  3
ACAD_PLOTSTYLENAME
350
E
  0
DICTIONARY
  5
D
102
{ACAD_REACTORS
330
C
102
}
100
AcDbDictionary
280
0
281
1
  0
ACDBDICTIONARYWDFLT
  5
E
102
{ACAD_REACTORS
330
C
102
}
100
AcDbDictionary
281
1
  3
Normal
350
F
100
AcDbDictionaryWithDefault
340
F
  0
DICTIONARY
  5
17
102
{ACAD_REACTORS
330
C
102
}
100
AcDbDictionary
280
0
281
1
  3
Standard
350
18
  0
DICTIONARY
  5
19
102
{ACAD_REACTORS
330
C
102
}
100
AcDbDictionary
281
1
  0
DICTIONARY
  5
1A
102
{ACAD_REACTORS
330
C
102
}
100
AcDbDictionary
281
1
  3
Model
350
293
  3
Layout1
350
294
  0
ACDBPLACEHOLDER
  5
F
102
{ACAD_REACTORS
330
E
102
}
  0
MLINESTYLE
  5
18
102
{ACAD_REACTORS
330
17
102
}
100
AcDbMlineStyle
  2
STANDARD
 70
0
  3

 62
256
 51
90.0
 52
90.0
 71
2
 49
0.5
 62
256
  6
BYLAYER
 49
-0.5
 62
256
  6
BYLAYER
  0
LAYOUT
  5
293
102
{ACAD_REACTORS
330
1A
102
}
100
AcDbPlotSettings
  1

  2
none_device
  4

  6

 40
0.0
 41
0.0
 42
0.0
 43
0.0
 44
210.0
 45
297.0
 46
0.0
 47
0.0
 48
0.0
 49
0.0
140
0.0
141
0.0
142
1.0
143
1.0
 70
1024
 72
1
 73
0
 74
0
  7

 75
0
147
1.0
148
0.0
149
0.0
100
AcDbLayout
  1
Model
 70
0
 71
0
 10
0.0
 20
0.0
 11
210.0
 21
297.0
 12
0.0
 22
0.0
 32
0.0
 14
0.0
 24
0.0
 34
0.0
 15
0.0
 25
0.0
 35
0.0
146
0.0
 13
0.0
 23
0.0
 33
0.0
 16
1.0
 26
0.0
 36
0.0
 17
0.0
 27
1.0
 37
0.0
 76
0
330
210
345
0
346
0
  0
LAYOUT
  5
294
102
{ACAD_REACTORS
330
1A
102
}
100
AcDbPlotSettings
  1

  2
none_device
  4

  6

 40
0.0
 41
0.0
 42
0.0
 43
0.0
 44
210.0
 45
297.0
 46
0.0
 47
0.0
 48
0.0
 49
0.0
140
0.0
141
0.0
142
1.0
143
1.0
 70
0
 72
1
 73
0
 74
0
  7

 75
0
147
1.0
148
0.0
149
0.0
100
AcDbLayout
  1
Layout1
 70
0
 71
1
 10
0.0
 20
0.0
 11
210.0
 21
297.0
 12
0.0
 22
0.0
 32
0.0
 14
0.0
 24
0.0
 34
0.0
 15
0.0
 25
0.0
 35
0.0
146
0.0
 13
0.0
 23
0.0
 33
0.0
 16
1.0
 26
0.0
 36
0.0
 17
0.0
 27
1.0
 37
0.0
 76
0
330
211
345
0
346
0
  0
ENDSEC
  0
EOF
