999
DXF file: C:\Users\sesa63760\Dev\_Creo\CAD\MCADID0003677_3D-CAD\drw0001_3.dxf
999
Pro/ENGINEER 2019471 by Parametric Technology Corporation
  0
SECTION
  2
HEADER
  9
$ACADVER
  1
AC1024
  9
$DWGCODEPAGE
  3
ANSI_1252
  9
$EXTMAX
 10
144.7352076564
 20
204.6969365427
 30
0.0
  9
$EXTMIN
 10
0.0
 20
0.0
 30
0.0
  9
$LIMMIN
 10
0.0
 20
0.0
  9
$LIMMAX
 10
144.7352076564
 20
204.6969365427
  9
$VIEWCTR
 10
72.3676038282
 20
102.3484682713
  9
$VIEWSIZE
 40
204.6969365427
  9
$CLAYER
  8
0
  9
$LTSCALE
 40
13.3432077154
  9
$CELTYPE
  6
BYLAYER
  9
$DIMSCALE
 40
1.0
  9
$DIMASZ
 40
1.7230381864
  9
$DIMEXO
 40
1.0
  9
$DIMDLI
 40
9.2189435124
  9
$DIMEXE
 40
1.0
  9
$DIMCEN
 40
2.1834339898
  9
$DIMLFAC
 40
1.0
  9
$DIMBLK
  1
_FILLED
  9
$DIMALT
 70
0
  9
$DIMALTF
 40
0.0393700787
  9
$DIMTXT
 40
2.4122534609
  9
$DIMTOL
 70
1
  9
$DIMLIM
 70
0
  9
$DIMTFAC
 40
1.0
  9
$DIMTP
 40
0.01
  9
$DIMTM
 40
0.01
  9
$DIMGAP
 40
0.625
  9
$DIMDSEP
 70
46
  9
$AUNITS
 70
0
  9
$PDMODE
 70
3
  9
$PDSIZE
 40
0.3125
  9
$HANDSEED
  5
351
  9
$TILEMODE
 70
1
  9
$MEASUREMENT
 70
1
  9
$INSUNITS
 70
4
  0
ENDSEC
  0
SECTION
  2
CLASSES
  0
CLASS
  1
ACDBDICTIONARYWDFLT
  2
AcDbDictionaryWithDefault
  3
AutoCAD 2000
 90
0
 91
1
280
0
281
0
  0
CLASS
  1
ACDBPLACEHOLDER
  2
AcDbPlaceHolder
  3
AutoCAD 2000
 90
0
 91
1
280
0
281
0
  0
CLASS
  1
LAYOUT
  2
AcDbLayout
  3
AutoCAD 2000
 90
0
 91
0
280
0
281
0
  0
ENDSEC
  0
SECTION
  2
TABLES
  0
TABLE
  2
VPORT
  5
8
100
AcDbSymbolTable
 70
2
  0
VPORT
  5
1F4
100
AcDbSymbolTableRecord
100
AcDbViewportTableRecord
  2
*ACTIVE
 70
0
 10
0.0
 20
0.0
 11
1.0
 21
1.0
 12
72.3676038282
 22
102.3484682713
 13
0.0
 23
0.0
 14
1.0
 24
1.0
 15
0.0
 25
0.0
 16
0.0
 26
0.0
 36
1.0
 17
0.0
 27
0.0
 37
0.0
 40
204.6969365427
 41
0.7070707071
 42
50.0
 43
0.0
 44
0.0
 50
0.0
 51
0.0
 71
0
 72
100
 73
1
 74
1
 75
0
 76
0
 77
0
 78
0
  0
ENDTAB
  0
TABLE
  2
LTYPE
  5
5
100
AcDbSymbolTable
 70
6
  0
LTYPE
  5
14
100
AcDbSymbolTableRecord
100
AcDbLinetypeTableRecord
  2
BYBLOCK
 70
0
  3

 72
65
 73
0
 40
0.0
  0
LTYPE
  5
15
100
AcDbSymbolTableRecord
100
AcDbLinetypeTableRecord
  2
BYLAYER
 70
0
  3

 72
65
 73
0
 40
0.0
  0
LTYPE
  5
16
100
AcDbSymbolTableRecord
100
AcDbLinetypeTableRecord
  2
CONTINUOUS
 70
64
  3
Solid line
 72
65
 73
0
 40
0.0
  0
LTYPE
  5
1F5
100
AcDbSymbolTableRecord
100
AcDbLinetypeTableRecord
  2
CENTER
 70
64
  3
____ _ ____ _ ____ _ ____ _ ____ _ ____ _ ____
 72
65
 73
4
 40
0.6
 49
0.375
 74
0
 49
-0.075
 74
0
 49
0.075
 74
0
 49
-0.075
 74
0
  0
LTYPE
  5
1F6
100
AcDbSymbolTableRecord
100
AcDbLinetypeTableRecord
  2
HIDDEN
 70
64
  3
- - - - - - - - - - - - - - - - - - - -
 72
65
 73
2
 40
0.2
 49
0.1
 74
0
 49
-0.1
 74
0
  0
LTYPE
  5
1F7
100
AcDbSymbolTableRecord
100
AcDbLinetypeTableRecord
  2
PHANTOM
 70
64
  3
_____ _ _ _____ _ _ _____ _ _ _____
 72
65
 73
6
 40
0.8
 49
0.45
 74
0
 49
-0.05
 74
0
 49
0.1
 74
0
 49
-0.05
 74
0
 49
0.1
 74
0
 49
-0.05
 74
0
  0
LTYPE
  5
1F8
100
AcDbSymbolTableRecord
100
AcDbLinetypeTableRecord
  2
DOT
 70
64
  3
. . . . . . . . . . . . . . . . . . . .
 72
65
 73
2
 40
0.2
 49
0.1
 74
0
 49
-0.1
 74
0
  0
LTYPE
  5
1F9
100
AcDbSymbolTableRecord
100
AcDbLinetypeTableRecord
  2
DASHED
 70
64
  3
- - - - - - - - - - - - - - - - - - - -
 72
65
 73
2
 40
0.2
 49
0.1
 74
0
 49
-0.1
 74
0
  0
ENDTAB
  0
TABLE
  2
LAYER
  5
2
100
AcDbSymbolTable
 70
36
  0
LAYER
  5
10
100
AcDbSymbolTableRecord
100
AcDbLayerTableRecord
  2
0
 70
0
 62
7
  6
CONTINUOUS
370
-3
390
F
  0
LAYER
  5
1FA
100
AcDbSymbolTableRecord
100
AcDbLayerTableRecord
  2
DEFAULT_1
 70
0
 62
7
  6
CENTER
370
-3
390
F
  0
LAYER
  5
1FB
100
AcDbSymbolTableRecord
100
AcDbLayerTableRecord
  2
DEFAULT_2
 70
0
 62
7
  6
HIDDEN
370
-3
390
F
  0
LAYER
  5
1FC
100
AcDbSymbolTableRecord
100
AcDbLayerTableRecord
  2
DEFAULT_3
 70
0
 62
7
  6
PHANTOM
370
-3
390
F
  0
LAYER
  5
1FD
100
AcDbSymbolTableRecord
100
AcDbLayerTableRecord
  2
00_COMPONENTS
 70
0
 62
7
  6
CONTINUOUS
370
-3
390
F
  0
LAYER
  5
1FE
100
AcDbSymbolTableRecord
100
AcDbLayerTableRecord
  2
01_1_DEFAULT_DATUMS
 70
0
 62
7
  6
CONTINUOUS
370
-3
390
F
  0
LAYER
  5
1FF
100
AcDbSymbolTableRecord
100
AcDbLayerTableRecord
  2
01_PLANES
 70
0
 62
7
  6
CONTINUOUS
370
-3
390
F
  0
LAYER
  5
200
100
AcDbSymbolTableRecord
100
AcDbLayerTableRecord
  2
02_COORD_SYS
 70
0
 62
7
  6
CONTINUOUS
370
-3
390
F
  0
LAYER
  5
201
100
AcDbSymbolTableRecord
100
AcDbLayerTableRecord
  2
03_AXES
 70
0
 62
7
  6
CONTINUOUS
370
-3
390
F
  0
LAYER
  5
202
100
AcDbSymbolTableRecord
100
AcDbLayerTableRecord
  2
04_POINTS
 70
0
 62
7
  6
CONTINUOUS
370
-3
390
F
  0
LAYER
  5
203
100
AcDbSymbolTableRecord
100
AcDbLayerTableRecord
  2
05_CURVES
 70
0
 62
7
  6
CONTINUOUS
370
-3
390
F
  0
LAYER
  5
204
100
AcDbSymbolTableRecord
100
AcDbLayerTableRecord
  2
06_SURFS
 70
0
 62
7
  6
CONTINUOUS
370
-3
390
F
  0
LAYER
  5
205
100
AcDbSymbolTableRecord
100
AcDbLayerTableRecord
  2
07_COSMETICS
 70
0
 62
7
  6
CONTINUOUS
370
-3
390
F
  0
LAYER
  5
206
100
AcDbSymbolTableRecord
100
AcDbLayerTableRecord
  2
10_NOTES
 70
0
 62
7
  6
CONTINUOUS
370
-3
390
F
  0
LAYER
  5
207
100
AcDbSymbolTableRecord
100
AcDbLayerTableRecord
  2
11_NOTES_PUB
 70
0
 62
7
  6
CONTINUOUS
370
-3
390
F
  0
LAYER
  5
208
100
AcDbSymbolTableRecord
100
AcDbLayerTableRecord
  2
13_REF_GTOL
 70
0
 62
7
  6
CONTINUOUS
370
-3
390
F
  0
LAYER
  5
209
100
AcDbSymbolTableRecord
100
AcDbLayerTableRecord
  2
16_MISC
 70
0
 62
7
  6
CONTINUOUS
370
-3
390
F
  0
LAYER
  5
20A
100
AcDbSymbolTableRecord
100
AcDbLayerTableRecord
  2
17_NO_PRINT
 70
0
 62
7
  6
CONTINUOUS
370
-3
390
F
  0
LAYER
  5
20B
100
AcDbSymbolTableRecord
100
AcDbLayerTableRecord
  2
18_DATUM_CAMS_JOINTS
 70
0
 62
7
  6
CONTINUOUS
370
-3
390
F
  0
LAYER
  5
20C
100
AcDbSymbolTableRecord
100
AcDbLayerTableRecord
  2
19_DATUM_FUNCTIONAL
 70
0
 62
7
  6
CONTINUOUS
370
-3
390
F
  0
LAYER
  5
20D
100
AcDbSymbolTableRecord
100
AcDbLayerTableRecord
  2
20_DATUM_KINEMATIC_SCHEME
 70
0
 62
7
  6
CONTINUOUS
370
-3
390
F
  0
ENDTAB
  0
TABLE
  2
STYLE
  5
3
100
AcDbSymbolTable
 70
1
  0
STYLE
  5
11
100
AcDbSymbolTableRecord
100
AcDbTextStyleTableRecord
  2
STANDARD
 70
0
 40
0.0
 41
1.0
 50
0.0
 71
0
 42
0.2
  3
ARIAL.TTF
  4

  0
STYLE
  5
20E
100
AcDbSymbolTableRecord
100
AcDbTextStyleTableRecord
  2
TEXTSTYLE_1
 70
0
 40
0.0
 41
0.8
 50
0.0
 71
0
 42
0.2
  3
gdt
  4

  0
ENDTAB
  0
TABLE
  2
VIEW
  5
6
100
AcDbSymbolTable
 70
0
  0
ENDTAB
  0
TABLE
  2
UCS
  5
7
100
AcDbSymbolTable
 70
0
  0
ENDTAB
  0
TABLE
  2
APPID
  5
9
100
AcDbSymbolTable
 70
1
  0
APPID
  5
20F
100
AcDbSymbolTableRecord
100
AcDbRegAppTableRecord
  2
ACAD
 70
0
  0
ENDTAB
  0
TABLE
  2
BLOCK_RECORD
  5
1
100
AcDbSymbolTable
 70
0
  0
BLOCK_RECORD
  5
210
100
AcDbSymbolTableRecord
100
AcDbBlockTableRecord
  2
*Model_Space
  0
BLOCK_RECORD
  5
211
100
AcDbSymbolTableRecord
100
AcDbBlockTableRecord
  2
*Paper_Space
  0
BLOCK_RECORD
  5
212
100
AcDbSymbolTableRecord
100
AcDbBlockTableRecord
  2
_FILLED
  0
ENDTAB
  0
TABLE
  2
DIMSTYLE
  5
A
100
AcDbSymbolTable
 70
1
100
AcDbDimStyleTable
 71
0
  0
DIMSTYLE
105
213
100
AcDbSymbolTableRecord
100
AcDbDimStyleTableRecord
  2
STANDARD
 70
0
  3

  4

 40
1.0
 41
1.7230381864
 42
1.0
 43
0.38
 44
1.0
 45
0.0
 46
0.0
 47
0.01
 48
0.01
140
2.4122534609
141
0.09
142
0.0
143
25.4
144
1.0
145
0.0
146
1.0
147
0.625
 71
1
 72
0
 73
0
 74
0
 75
0
 76
0
 77
1
 78
8
 79
2
170
0
171
1
172
0
173
0
174
0
175
0
176
0
177
0
178
0
270
2
179
2
271
2
272
2
273
2
274
2
275
0
280
0
281
0
282
0
283
1
284
8
285
0
286
0
287
3
288
0
340
11
278
46
341
212
342
212
343
212
344
212
  0
ENDTAB
  0
ENDSEC
  0
SECTION
  2
BLOCKS
  0
BLOCK
  5
20
100
AcDbEntity
  8
0
100
AcDbBlockBegin
  2
*Model_Space
 70
0
 10
0.0
 20
0.0
 30
0.0
  3
*Model_Space
  1

  0
ENDBLK
  5
21
100
AcDbEntity
  8
0
100
AcDbBlockEnd
  0
BLOCK
  5
1C
100
AcDbEntity
  8
0
100
AcDbBlockBegin
  2
*Paper_Space
 70
0
 10
0.0
 20
0.0
 30
0.0
  3
*Paper_Space
  1

  0
ENDBLK
  5
1D
100
AcDbEntity
  8
0
100
AcDbBlockEnd
  0
BLOCK
  5
214
100
AcDbEntity
  8
0
100
AcDbBlockBegin
  2
_FILLED
 70
64
 10
0.0
 20
0.0
  3
_FILLED
  1

  0
SOLID
  5
215
100
AcDbEntity
  8
0
  6
BYBLOCK
 62
0
100
AcDbTrace
 10
0.0
 20
0.0
 11
-1.0
 21
0.25
 12
-1.0
 22
-0.25
 13
-1.0
 23
-0.25
  0
ENDBLK
  5
216
100
AcDbEntity
  8
0
  6
BYBLOCK
 62
0
100
AcDbBlockEnd
  0
ENDSEC
  0
SECTION
  2
ENTITIES
  0
LINE
  5
217
100
AcDbEntity
  8
0
100
AcDbLine
 62
7
  6
BYLAYER
 10
17.1219801958
 20
117.8495623632
 11
17.1219801958
 21
87.8495623632
  0
LINE
  5
218
100
AcDbEntity
  8
0
100
AcDbLine
 62
7
  6
BYLAYER
 10
40.3319801958
 20
108.9495623632
 11
40.3319801958
 21
96.7495623632
  0
LINE
  5
219
100
AcDbEntity
  8
0
100
AcDbLine
 62
7
  6
BYLAYER
 10
41.3519801958
 20
107.8745623632
 11
41.3519801958
 21
97.8245623632
  0
LINE
  5
21A
100
AcDbEntity
  8
0
100
AcDbLine
 62
7
  6
BYLAYER
 10
43.4919801958
 20
97.8245623632
 11
43.4919801958
 21
107.8745623632
  0
LINE
  5
21B
100
AcDbEntity
  8
0
100
AcDbLine
 62
7
  6
BYLAYER
 10
44.3319801958
 20
96.7495623632
 11
44.3319801958
 21
108.9495623632
  0
LINE
  5
21C
100
AcDbEntity
  8
0
100
AcDbLine
 62
7
  6
BYLAYER
 10
46.6219801958
 20
78.3495623632
 11
46.6219801958
 21
127.3495623632
  0
LINE
  5
21D
100
AcDbEntity
  8
0
100
AcDbLine
 62
7
  6
BYLAYER
 10
47.1219801958
 20
78.3495623632
 11
47.1219801958
 21
127.3495623632
  0
LINE
  5
21E
100
AcDbEntity
  8
0
100
AcDbLine
 62
7
  6
BYLAYER
 10
48.1219801958
 20
76.8495623632
 11
48.1219801958
 21
77.3495623632
  0
LINE
  5
21F
100
AcDbEntity
  8
0
100
AcDbLine
 62
7
  6
BYLAYER
 10
48.1219801958
 20
128.3495623632
 11
48.1219801958
 21
128.8495623632
  0
LINE
  5
220
100
AcDbEntity
  8
0
100
AcDbLine
 62
7
  6
BYLAYER
 10
49.6219801958
 20
85.8495623632
 11
49.6219801958
 21
119.8495623632
  0
LINE
  5
221
100
AcDbEntity
  8
0
100
AcDbLine
 62
7
  6
BYLAYER
 10
48.1219801958
 20
76.8495623632
 11
130.1219801958
 21
76.8495623632
  0
LINE
  5
222
100
AcDbEntity
  8
0
100
AcDbLine
 62
7
  6
BYLAYER
 10
130.1219801958
 20
77.3495623632
 11
48.1219801958
 21
77.3495623632
  0
LINE
  5
223
100
AcDbEntity
  8
0
100
AcDbLine
 62
7
  6
BYLAYER
 10
49.8139712872
 20
87.6495623632
 11
49.8139712872
 21
93.018717395
  0
LINE
  5
224
100
AcDbEntity
  8
0
100
AcDbLine
 62
7
  6
BYLAYER
 10
49.8139712872
 20
112.6804073315
 11
49.8139712872
 21
118.0495623632
  0
LINE
  5
225
100
AcDbEntity
  8
0
100
AcDbLine
 62
7
  6
BYLAYER
 10
50.1826403676
 20
93.2889021915
 11
50.1826403676
 21
112.410222535
  0
LINE
  5
226
100
AcDbEntity
  8
0
100
AcDbLine
 62
7
  6
BYLAYER
 10
50.7433005394
 20
93.8495623632
 11
50.7433005394
 21
111.8495623632
  0
LINE
  5
227
100
AcDbEntity
  8
0
100
AcDbLine
 62
7
  6
BYLAYER
 10
53.1219801958
 20
110.9154368268
 11
53.1219801958
 21
94.7836878752
  0
LINE
  5
228
100
AcDbEntity
  8
0
100
AcDbLine
 62
7
  6
BYLAYER
 10
53.6219801958
 20
110.7901506551
 11
53.6219801958
 21
94.9089740714
  0
LINE
  5
229
100
AcDbEntity
  8
0
100
AcDbLine
 62
7
  6
BYLAYER
 10
131.6219801958
 20
78.3495623632
 11
131.1219801958
 21
78.3495623632
  0
LINE
  5
22A
100
AcDbEntity
  8
0
100
AcDbLine
 62
7
  6
BYLAYER
 10
129.6219801958
 20
78.3495623632
 11
120.1219801958
 21
78.3495623632
  0
LINE
  5
22B
100
AcDbEntity
  8
0
100
AcDbLine
 62
7
  6
BYLAYER
 10
47.1219801958
 20
78.3495623632
 11
46.6219801958
 21
78.3495623632
  0
LINE
  5
22C
100
AcDbEntity
  8
0
100
AcDbLine
 62
7
  6
BYLAYER
 10
52.6219801958
 20
78.3495623632
 11
71.1719801958
 21
78.3495623632
  0
LINE
  5
22D
100
AcDbEntity
  8
0
100
AcDbLine
 62
7
  6
BYLAYER
 10
72.0719801958
 20
78.3495623632
 11
85.1719801958
 21
78.3495623632
  0
LINE
  5
22E
100
AcDbEntity
  8
0
100
AcDbLine
 62
7
  6
BYLAYER
 10
86.0719801958
 20
78.3495623632
 11
99.1719801958
 21
78.3495623632
  0
LINE
  5
22F
100
AcDbEntity
  8
0
100
AcDbLine
 62
7
  6
BYLAYER
 10
100.0720425602
 20
78.3495623632
 11
118.1219801958
 21
78.3495623632
  0
LINE
  5
230
100
AcDbEntity
  8
0
100
AcDbLine
 62
7
  6
BYLAYER
 10
52.6219801958
 20
79.7495623632
 11
59.6219801958
 21
79.7495623632
  0
LINE
  5
231
100
AcDbEntity
  8
0
100
AcDbLine
 62
7
  6
BYLAYER
 10
54.6219801958
 20
95.5624943565
 11
54.6219801958
 21
110.13663037
  0
LINE
  5
232
100
AcDbEntity
  8
0
100
AcDbLine
 62
7
  6
BYLAYER
 10
54.8165893476
 20
95.6613153277
 11
54.8165893476
 21
97.1995623632
  0
LINE
  5
233
100
AcDbEntity
  8
0
100
AcDbLine
 62
7
  6
BYLAYER
 10
54.8165893476
 20
108.4995623632
 11
54.8165893476
 21
110.0378093988
  0
LINE
  5
234
100
AcDbEntity
  8
0
100
AcDbLine
 62
7
  6
BYLAYER
 10
85.0489333591
 20
84.2944809702
 11
72.1950270326
 21
84.2944809702
  0
LINE
  5
235
100
AcDbEntity
  8
0
100
AcDbLine
 62
7
  6
BYLAYER
 10
71.0489333591
 20
84.2944809702
 11
70.9168226489
 21
84.2944809702
  0
LINE
  5
236
100
AcDbEntity
  8
0
100
AcDbLine
 62
7
  6
BYLAYER
 10
85.1719801958
 20
84.4995623632
 11
72.0719801958
 21
84.4995623632
  0
LINE
  5
237
100
AcDbEntity
  8
0
100
AcDbLine
 62
7
  6
BYLAYER
 10
71.1719801958
 20
84.4995623632
 11
71.121904042
 21
84.4995623632
  0
LINE
  5
238
100
AcDbEntity
  8
0
100
AcDbLine
 62
7
  6
BYLAYER
 10
91.6219801958
 20
85.3495623632
 11
89.6219801958
 21
85.3495623632
  0
LINE
  5
239
100
AcDbEntity
  8
0
100
AcDbLine
 62
7
  6
BYLAYER
 10
59.6219801958
 20
85.6495623632
 11
52.6219801958
 21
85.6495623632
  0
LINE
  5
23A
100
AcDbEntity
  8
0
100
AcDbLine
 62
7
  6
BYLAYER
 10
89.6219801958
 20
85.7495623632
 11
90.4219801958
 21
85.7495623632
  0
LINE
  5
23B
100
AcDbEntity
  8
0
100
AcDbLine
 62
7
  6
BYLAYER
 10
90.8219801958
 20
85.7495623632
 11
91.6219801958
 21
85.7495623632
  0
LINE
  5
23C
100
AcDbEntity
  8
0
100
AcDbLine
 62
7
  6
BYLAYER
 10
107.6219801958
 20
84.2966272739
 11
100.1953517833
 21
84.2973059112
  0
LINE
  5
23D
100
AcDbEntity
  8
0
100
AcDbLine
 62
7
  6
BYLAYER
 10
99.0489333591
 20
84.2974106696
 11
86.1950270326
 21
84.2985852457
  0
LINE
  5
23E
100
AcDbEntity
  8
0
100
AcDbLine
 62
7
  6
BYLAYER
 10
129.6219801958
 20
84.4996870886
 11
120.1219801958
 21
84.5005551884
  0
LINE
  5
23F
100
AcDbEntity
  8
0
100
AcDbLine
 62
7
  6
BYLAYER
 10
118.1219801958
 20
84.5007379462
 11
100.0723236872
 21
84.5023873042
  0
LINE
  5
240
100
AcDbEntity
  8
0
100
AcDbLine
 62
7
  6
BYLAYER
 10
99.1719801958
 20
84.5024695767
 11
86.0719801958
 21
84.5036666405
  0
LINE
  5
241
100
AcDbEntity
  8
0
100
AcDbLine
 62
7
  6
BYLAYER
 10
106.6219801958
 20
86.8495623632
 11
104.6219801958
 21
86.8495623632
  0
LINE
  5
242
100
AcDbEntity
  8
0
100
AcDbLine
 62
7
  6
BYLAYER
 10
85.6219801958
 20
86.8495623632
 11
83.6219801958
 21
86.8495623632
  0
LINE
  5
243
100
AcDbEntity
  8
0
100
AcDbLine
 62
7
  6
BYLAYER
 10
83.6219801958
 20
87.2495623632
 11
84.4219801958
 21
87.2495623632
  0
LINE
  5
244
100
AcDbEntity
  8
0
100
AcDbLine
 62
7
  6
BYLAYER
 10
84.8219801958
 20
87.2495623632
 11
85.6219801958
 21
87.2495623632
  0
LINE
  5
245
100
AcDbEntity
  8
0
100
AcDbLine
 62
7
  6
BYLAYER
 10
104.6219801958
 20
87.2495623632
 11
105.4219801958
 21
87.2495623632
  0
LINE
  5
246
100
AcDbEntity
  8
0
100
AcDbLine
 62
7
  6
BYLAYER
 10
105.8219801958
 20
87.2495623632
 11
106.6219801958
 21
87.2495623632
  0
LINE
  5
247
100
AcDbEntity
  8
0
100
AcDbLine
 62
7
  6
BYLAYER
 10
49.6219801958
 20
87.6495623632
 11
59.6219801958
 21
87.6495623632
  0
LINE
  5
248
100
AcDbEntity
  8
0
100
AcDbLine
 62
7
  6
BYLAYER
 10
17.1219801958
 20
87.8495623632
 11
46.6219801958
 21
87.8495623632
  0
LINE
  5
249
100
AcDbEntity
  8
0
100
AcDbLine
 62
7
  6
BYLAYER
 10
58.1219801958
 20
88.7495623632
 11
54.1219801958
 21
88.7495623632
  0
LINE
  5
24A
100
AcDbEntity
  8
0
100
AcDbLine
 62
7
  6
BYLAYER
 10
54.1219801958
 20
89.7495623632
 11
58.1219801958
 21
89.7495623632
  0
LINE
  5
24B
100
AcDbEntity
  8
0
100
AcDbLine
 62
7
  6
BYLAYER
 10
64.5719801958
 20
127.3495623632
 11
64.5719801958
 21
122.9995623632
  0
LINE
  5
24C
100
AcDbEntity
  8
0
100
AcDbLine
 62
7
  6
BYLAYER
 10
64.5719801958
 20
82.6995623632
 11
64.5719801958
 21
78.3495623632
  0
LINE
  5
24D
100
AcDbEntity
  8
0
100
AcDbLine
 62
7
  6
BYLAYER
 10
72.1950270326
 20
121.4046437563
 11
72.0719801958
 21
121.1995623632
  0
LINE
  5
24E
100
AcDbEntity
  8
0
100
AcDbLine
 62
7
  6
BYLAYER
 10
69.1219801958
 20
113.3469443029
 11
68.9168988027
 21
113.1418629098
  0
LINE
  5
24F
100
AcDbEntity
  8
0
100
AcDbLine
 62
7
  6
BYLAYER
 10
50.1826403676
 20
93.2889021915
 11
50.7433005394
 21
93.8495623632
  0
LINE
  5
250
100
AcDbEntity
  8
0
100
AcDbLine
 62
7
  6
BYLAYER
 10
68.9168988027
 20
91.1418629098
 11
64.3511177666
 21
91.1418629098
  0
LINE
  5
251
100
AcDbEntity
  8
0
100
AcDbLine
 62
7
  6
BYLAYER
 10
61.1431584637
 20
91.1549532115
 11
64.3471672783
 21
91.1549532115
  0
LINE
  5
252
100
AcDbEntity
  8
0
100
AcDbLine
 62
7
  6
BYLAYER
 10
69.1219801958
 20
91.3469443029
 11
68.6193431044
 21
91.3469443029
  0
LINE
  5
253
100
AcDbEntity
  8
0
100
AcDbLine
 62
7
  6
BYLAYER
 10
61.181391904
 20
91.3495623632
 11
68.6210208092
 21
91.3495623632
  0
LINE
  5
254
100
AcDbEntity
  8
0
100
AcDbLine
 62
7
  6
BYLAYER
 10
79.6219801958
 20
91.6495623632
 11
77.6219801958
 21
91.6495623632
  0
LINE
  5
255
100
AcDbEntity
  8
0
100
AcDbLine
 62
7
  6
BYLAYER
 10
77.6219801958
 20
92.0495623632
 11
78.4219801958
 21
92.0495623632
  0
LINE
  5
256
100
AcDbEntity
  8
0
100
AcDbLine
 62
7
  6
BYLAYER
 10
78.8219801958
 20
92.0495623632
 11
79.6219801958
 21
92.0495623632
  0
LINE
  5
257
100
AcDbEntity
  8
0
100
AcDbLine
 62
7
  6
BYLAYER
 10
68.6215947707
 20
92.3495623632
 11
61.181391904
 21
92.3495623632
  0
LINE
  5
258
100
AcDbEntity
  8
0
100
AcDbLine
 62
7
  6
BYLAYER
 10
68.6193428661
 20
92.3521804236
 11
69.1219801958
 21
92.3521804236
  0
LINE
  5
259
100
AcDbEntity
  8
0
100
AcDbLine
 62
7
  6
BYLAYER
 10
63.9550436362
 20
92.544171515
 11
61.1431584637
 21
92.544171515
  0
LINE
  5
25A
100
AcDbEntity
  8
0
100
AcDbLine
 62
7
  6
BYLAYER
 10
68.9168988027
 20
92.5572618167
 11
63.9516017261
 21
92.5572618167
  0
LINE
  5
25B
100
AcDbEntity
  8
0
100
AcDbLine
 62
7
  6
BYLAYER
 10
73.6219801958
 20
92.6495623632
 11
71.6219801958
 21
92.6495623632
  0
LINE
  5
25C
100
AcDbEntity
  8
0
100
AcDbLine
 62
7
  6
BYLAYER
 10
71.6219801958
 20
93.0495623632
 11
72.4219801958
 21
93.0495623632
  0
LINE
  5
25D
100
AcDbEntity
  8
0
100
AcDbLine
 62
7
  6
BYLAYER
 10
72.8219801958
 20
93.0495623632
 11
73.6219801958
 21
93.0495623632
  0
LINE
  5
25E
100
AcDbEntity
  8
0
100
AcDbLine
 62
7
  6
BYLAYER
 10
50.7433005394
 20
93.8495623632
 11
51.7534363394
 21
93.8495623632
  0
LINE
  5
25F
100
AcDbEntity
  8
0
100
AcDbLine
 62
7
  6
BYLAYER
 10
58.1219801958
 20
93.9495623632
 11
57.9108345778
 21
93.9495623632
  0
LINE
  5
260
100
AcDbEntity
  8
0
100
AcDbLine
 62
7
  6
BYLAYER
 10
54.3331258138
 20
93.9495623632
 11
54.1219801958
 21
93.9495623632
  0
LINE
  5
261
100
AcDbEntity
  8
0
100
AcDbLine
 62
7
  6
BYLAYER
 10
69.1219801958
 20
92.3521804236
 11
68.9168988027
 21
92.5572618167
  0
LINE
  5
262
100
AcDbEntity
  8
0
100
AcDbLine
 62
7
  6
BYLAYER
 10
50.7433005394
 20
111.8495623632
 11
50.1826403676
 21
112.410222535
  0
LINE
  5
263
100
AcDbEntity
  8
0
100
AcDbLine
 62
7
  6
BYLAYER
 10
72.1950270326
 20
84.2944809702
 11
72.0719801958
 21
84.4995623632
  0
LINE
  5
264
100
AcDbEntity
  8
0
100
AcDbLine
 62
7
  6
BYLAYER
 10
68.9168988027
 20
86.2944048163
 11
68.9168988027
 21
91.1418629098
  0
LINE
  5
265
100
AcDbEntity
  8
0
100
AcDbLine
 62
7
  6
BYLAYER
 10
68.9168988027
 20
92.5572618167
 11
68.9168988027
 21
97.1995623632
  0
LINE
  5
266
100
AcDbEntity
  8
0
100
AcDbLine
 62
7
  6
BYLAYER
 10
68.9168988027
 20
108.4995623632
 11
68.9168988027
 21
113.1418629098
  0
LINE
  5
267
100
AcDbEntity
  8
0
100
AcDbLine
 62
7
  6
BYLAYER
 10
68.9168988027
 20
114.5572618167
 11
68.9168988027
 21
119.4047199102
  0
LINE
  5
268
100
AcDbEntity
  8
0
100
AcDbLine
 62
7
  6
BYLAYER
 10
69.1219801958
 20
119.1996385171
 11
69.1219801958
 21
114.3521804236
  0
LINE
  5
269
100
AcDbEntity
  8
0
100
AcDbLine
 62
7
  6
BYLAYER
 10
69.1219801958
 20
113.3469443029
 11
69.1219801958
 21
92.3521804236
  0
LINE
  5
26A
100
AcDbEntity
  8
0
100
AcDbLine
 62
7
  6
BYLAYER
 10
69.1219801958
 20
91.3469443029
 11
69.1219801958
 21
86.4994862094
  0
LINE
  5
26B
100
AcDbEntity
  8
0
100
AcDbLine
 62
7
  6
BYLAYER
 10
72.4219801958
 20
96.3495623632
 11
72.8219801958
 21
96.3495623632
  0
LINE
  5
26C
100
AcDbEntity
  8
0
100
AcDbLine
 62
7
  6
BYLAYER
 10
78.4219801958
 20
96.3495623632
 11
78.8219801958
 21
96.3495623632
  0
LINE
  5
26D
100
AcDbEntity
  8
0
100
AcDbLine
 62
7
  6
BYLAYER
 10
84.4219801958
 20
96.3495623632
 11
84.8219801958
 21
96.3495623632
  0
LINE
  5
26E
100
AcDbEntity
  8
0
100
AcDbLine
 62
7
  6
BYLAYER
 10
90.4219801958
 20
96.3495623632
 11
90.8219801958
 21
96.3495623632
  0
LINE
  5
26F
100
AcDbEntity
  8
0
100
AcDbLine
 62
7
  6
BYLAYER
 10
105.4219801958
 20
96.3495623632
 11
105.8219801958
 21
96.3495623632
  0
LINE
  5
270
100
AcDbEntity
  8
0
100
AcDbLine
 62
7
  6
BYLAYER
 10
44.3319801958
 20
96.7495623632
 11
40.3319801958
 21
96.7495623632
  0
LINE
  5
271
100
AcDbEntity
  8
0
100
AcDbLine
 62
7
  6
BYLAYER
 10
54.755501273
 20
97.1995623632
 11
68.991077179
 21
97.1995623632
  0
LINE
  5
272
100
AcDbEntity
  8
0
100
AcDbLine
 62
7
  6
BYLAYER
 10
40.3319801958
 20
97.8245623632
 11
44.3319801958
 21
97.8245623632
  0
LINE
  5
273
100
AcDbEntity
  8
0
100
AcDbLine
 62
7
  6
BYLAYER
 10
69.0261997051
 20
98.8841178897
 11
54.7203787469
 21
98.8841178897
  0
LINE
  5
274
100
AcDbEntity
  8
0
100
AcDbLine
 62
7
  6
BYLAYER
 10
71.0489333591
 20
84.2944809702
 11
71.0489333591
 21
78.3495623632
  0
LINE
  5
275
100
AcDbEntity
  8
0
100
AcDbLine
 62
7
  6
BYLAYER
 10
71.0489333591
 20
121.4046437563
 11
71.0489333591
 21
127.3495623632
  0
LINE
  5
276
100
AcDbEntity
  8
0
100
AcDbLine
 62
7
  6
BYLAYER
 10
71.1719801958
 20
127.3495623632
 11
71.1719801958
 21
121.1995623632
  0
LINE
  5
277
100
AcDbEntity
  8
0
100
AcDbLine
 62
7
  6
BYLAYER
 10
71.1719801958
 20
84.4995623632
 11
71.1719801958
 21
78.3495623632
  0
LINE
  5
278
100
AcDbEntity
  8
0
100
AcDbLine
 62
7
  6
BYLAYER
 10
71.6219801958
 20
92.6495623632
 11
71.6219801958
 21
93.0495623632
  0
LINE
  5
279
100
AcDbEntity
  8
0
100
AcDbLine
 62
7
  6
BYLAYER
 10
71.6219801958
 20
112.6495623632
 11
71.6219801958
 21
113.0495623632
  0
LINE
  5
27A
100
AcDbEntity
  8
0
100
AcDbLine
 62
7
  6
BYLAYER
 10
72.0719801958
 20
78.3495623632
 11
72.0719801958
 21
84.4995623632
  0
LINE
  5
27B
100
AcDbEntity
  8
0
100
AcDbLine
 62
7
  6
BYLAYER
 10
72.0719801958
 20
121.1995623632
 11
72.0719801958
 21
127.3495623632
  0
LINE
  5
27C
100
AcDbEntity
  8
0
100
AcDbLine
 62
7
  6
BYLAYER
 10
72.1950270326
 20
84.2944809702
 11
72.1950270326
 21
78.3495623632
  0
LINE
  5
27D
100
AcDbEntity
  8
0
100
AcDbLine
 62
7
  6
BYLAYER
 10
72.1950270326
 20
121.4046437563
 11
72.1950270326
 21
127.3495623632
  0
LINE
  5
27E
100
AcDbEntity
  8
0
100
AcDbLine
 62
7
  6
BYLAYER
 10
72.4219801958
 20
93.0495623632
 11
72.4219801958
 21
96.3495623632
  0
LINE
  5
27F
100
AcDbEntity
  8
0
100
AcDbLine
 62
7
  6
BYLAYER
 10
72.4219801958
 20
109.3495623632
 11
72.4219801958
 21
112.6495623632
  0
LINE
  5
280
100
AcDbEntity
  8
0
100
AcDbLine
 62
7
  6
BYLAYER
 10
72.8219801958
 20
112.6495623632
 11
72.8219801958
 21
109.3495623632
  0
LINE
  5
281
100
AcDbEntity
  8
0
100
AcDbLine
 62
7
  6
BYLAYER
 10
72.8219801958
 20
96.3495623632
 11
72.8219801958
 21
93.0495623632
  0
LINE
  5
282
100
AcDbEntity
  8
0
100
AcDbLine
 62
7
  6
BYLAYER
 10
73.6219801958
 20
113.0495623632
 11
73.6219801958
 21
112.6495623632
  0
LINE
  5
283
100
AcDbEntity
  8
0
100
AcDbLine
 62
7
  6
BYLAYER
 10
73.6219801958
 20
93.0495623632
 11
73.6219801958
 21
92.6495623632
  0
LINE
  5
284
100
AcDbEntity
  8
0
100
AcDbLine
 62
7
  6
BYLAYER
 10
77.6219801958
 20
91.6495623632
 11
77.6219801958
 21
92.0495623632
  0
LINE
  5
285
100
AcDbEntity
  8
0
100
AcDbLine
 62
7
  6
BYLAYER
 10
77.6219801958
 20
113.6495623632
 11
77.6219801958
 21
114.0495623632
  0
LINE
  5
286
100
AcDbEntity
  8
0
100
AcDbLine
 62
7
  6
BYLAYER
 10
78.4219801958
 20
92.0495623632
 11
78.4219801958
 21
96.3495623632
  0
LINE
  5
287
100
AcDbEntity
  8
0
100
AcDbLine
 62
7
  6
BYLAYER
 10
78.4219801958
 20
109.3495623632
 11
78.4219801958
 21
113.6495623632
  0
LINE
  5
288
100
AcDbEntity
  8
0
100
AcDbLine
 62
7
  6
BYLAYER
 10
78.8219801958
 20
113.6495623632
 11
78.8219801958
 21
109.3495623632
  0
LINE
  5
289
100
AcDbEntity
  8
0
100
AcDbLine
 62
7
  6
BYLAYER
 10
78.8219801958
 20
96.3495623632
 11
78.8219801958
 21
92.0495623632
  0
LINE
  5
28A
100
AcDbEntity
  8
0
100
AcDbLine
 62
7
  6
BYLAYER
 10
86.1950270326
 20
121.4046437563
 11
86.0719801958
 21
121.1995623632
  0
LINE
  5
28B
100
AcDbEntity
  8
0
100
AcDbLine
 62
7
  6
BYLAYER
 10
69.1219801958
 20
91.3469443029
 11
68.9168988027
 21
91.1418629098
  0
LINE
  5
28C
100
AcDbEntity
  8
0
100
AcDbLine
 62
7
  6
BYLAYER
 10
69.0261997051
 20
106.8150068367
 11
54.7203787469
 21
106.8150068367
  0
LINE
  5
28D
100
AcDbEntity
  8
0
100
AcDbLine
 62
7
  6
BYLAYER
 10
69.1219801958
 20
114.3521804236
 11
68.9168988027
 21
114.5572618167
  0
LINE
  5
28E
100
AcDbEntity
  8
0
100
AcDbLine
 62
7
  6
BYLAYER
 10
86.1950270326
 20
84.2985852457
 11
86.0719801958
 21
84.5036666405
  0
LINE
  5
28F
100
AcDbEntity
  8
0
100
AcDbLine
 62
7
  6
BYLAYER
 10
79.6219801958
 20
114.0495623632
 11
79.6219801958
 21
113.6495623632
  0
LINE
  5
290
100
AcDbEntity
  8
0
100
AcDbLine
 62
7
  6
BYLAYER
 10
79.6219801958
 20
92.0495623632
 11
79.6219801958
 21
91.6495623632
  0
LINE
  5
291
100
AcDbEntity
  8
0
100
AcDbLine
 62
7
  6
BYLAYER
 10
71.0489333591
 20
84.2944809702
 11
71.1719801958
 21
84.4995623632
  0
LINE
  5
292
100
AcDbEntity
  8
0
100
AcDbLine
 62
7
  6
BYLAYER
 10
68.9168988027
 20
86.2944048163
 11
69.1219801958
 21
86.4994862094
  0
LINE
  5
293
100
AcDbEntity
  8
0
100
AcDbLine
 62
7
  6
BYLAYER
 10
40.3319801958
 20
107.8745623632
 11
44.3319801958
 21
107.8745623632
  0
LINE
  5
294
100
AcDbEntity
  8
0
100
AcDbLine
 62
7
  6
BYLAYER
 10
68.991077179
 20
108.4995623632
 11
54.755501273
 21
108.4995623632
  0
LINE
  5
295
100
AcDbEntity
  8
0
100
AcDbLine
 62
7
  6
BYLAYER
 10
40.3319801958
 20
108.9495623632
 11
44.3319801958
 21
108.9495623632
  0
LINE
  5
296
100
AcDbEntity
  8
0
100
AcDbLine
 62
7
  6
BYLAYER
 10
105.8219801958
 20
109.3495623632
 11
105.4219801958
 21
109.3495623632
  0
LINE
  5
297
100
AcDbEntity
  8
0
100
AcDbLine
 62
7
  6
BYLAYER
 10
90.8219801958
 20
109.3495623632
 11
90.4219801958
 21
109.3495623632
  0
LINE
  5
298
100
AcDbEntity
  8
0
100
AcDbLine
 62
7
  6
BYLAYER
 10
84.8219801958
 20
109.3495623632
 11
84.4219801958
 21
109.3495623632
  0
LINE
  5
299
100
AcDbEntity
  8
0
100
AcDbLine
 62
7
  6
BYLAYER
 10
78.8219801958
 20
109.3495623632
 11
78.4219801958
 21
109.3495623632
  0
LINE
  5
29A
100
AcDbEntity
  8
0
100
AcDbLine
 62
7
  6
BYLAYER
 10
72.8219801958
 20
109.3495623632
 11
72.4219801958
 21
109.3495623632
  0
LINE
  5
29B
100
AcDbEntity
  8
0
100
AcDbLine
 62
7
  6
BYLAYER
 10
54.1219801958
 20
111.7495623632
 11
54.3331258138
 21
111.7495623632
  0
LINE
  5
29C
100
AcDbEntity
  8
0
100
AcDbLine
 62
7
  6
BYLAYER
 10
57.9108345778
 20
111.7495623632
 11
58.1219801958
 21
111.7495623632
  0
LINE
  5
29D
100
AcDbEntity
  8
0
100
AcDbLine
 62
7
  6
BYLAYER
 10
69.1219801958
 20
119.1996385171
 11
68.9168988027
 21
119.4047199102
  0
LINE
  5
29E
100
AcDbEntity
  8
0
100
AcDbLine
 62
7
  6
BYLAYER
 10
71.0489333591
 20
121.4046437563
 11
71.1719801958
 21
121.1995623632
  0
LINE
  5
29F
100
AcDbEntity
  8
0
100
AcDbLine
 62
7
  6
BYLAYER
 10
83.6219801958
 20
86.8495623632
 11
83.6219801958
 21
87.2495623632
  0
LINE
  5
2A0
100
AcDbEntity
  8
0
100
AcDbLine
 62
7
  6
BYLAYER
 10
83.6219801958
 20
118.4495623632
 11
83.6219801958
 21
118.8495623632
  0
LINE
  5
2A1
100
AcDbEntity
  8
0
100
AcDbLine
 62
7
  6
BYLAYER
 10
84.4219801958
 20
87.2495623632
 11
84.4219801958
 21
96.3495623632
  0
LINE
  5
2A2
100
AcDbEntity
  8
0
100
AcDbLine
 62
7
  6
BYLAYER
 10
84.4219801958
 20
109.3495623632
 11
84.4219801958
 21
118.4495623632
  0
LINE
  5
2A3
100
AcDbEntity
  8
0
100
AcDbLine
 62
7
  6
BYLAYER
 10
84.8219801958
 20
118.4495623632
 11
84.8219801958
 21
109.3495623632
  0
LINE
  5
2A4
100
AcDbEntity
  8
0
100
AcDbLine
 62
7
  6
BYLAYER
 10
84.8219801958
 20
96.3495623632
 11
84.8219801958
 21
87.2495623632
  0
LINE
  5
2A5
100
AcDbEntity
  8
0
100
AcDbLine
 62
7
  6
BYLAYER
 10
85.0489333591
 20
84.2944809702
 11
85.0489333591
 21
78.3495623632
  0
LINE
  5
2A6
100
AcDbEntity
  8
0
100
AcDbLine
 62
7
  6
BYLAYER
 10
85.0489333591
 20
121.4046437563
 11
85.0489333591
 21
127.3495623632
  0
LINE
  5
2A7
100
AcDbEntity
  8
0
100
AcDbLine
 62
7
  6
BYLAYER
 10
85.1719801958
 20
127.3495623632
 11
85.1719801958
 21
121.1995623632
  0
LINE
  5
2A8
100
AcDbEntity
  8
0
100
AcDbLine
 62
7
  6
BYLAYER
 10
85.1719801958
 20
84.4995623632
 11
85.1719801958
 21
78.3495623632
  0
LINE
  5
2A9
100
AcDbEntity
  8
0
100
AcDbLine
 62
7
  6
BYLAYER
 10
85.6219801958
 20
118.8495623632
 11
85.6219801958
 21
118.4495623632
  0
LINE
  5
2AA
100
AcDbEntity
  8
0
100
AcDbLine
 62
7
  6
BYLAYER
 10
85.6219801958
 20
87.2495623632
 11
85.6219801958
 21
86.8495623632
  0
LINE
  5
2AB
100
AcDbEntity
  8
0
100
AcDbLine
 62
7
  6
BYLAYER
 10
86.0719801958
 20
78.3495623632
 11
86.0719801958
 21
84.5036666405
  0
LINE
  5
2AC
100
AcDbEntity
  8
0
100
AcDbLine
 62
7
  6
BYLAYER
 10
86.0719801958
 20
121.1995623632
 11
86.0719801958
 21
127.3495623632
  0
LINE
  5
2AD
100
AcDbEntity
  8
0
100
AcDbLine
 62
7
  6
BYLAYER
 10
86.1950270326
 20
84.2985852457
 11
86.1950270326
 21
78.3495623632
  0
LINE
  5
2AE
100
AcDbEntity
  8
0
100
AcDbLine
 62
7
  6
BYLAYER
 10
86.1950270326
 20
121.4046437563
 11
86.1950270326
 21
127.3495623632
  0
LINE
  5
2AF
100
AcDbEntity
  8
0
100
AcDbLine
 62
7
  6
BYLAYER
 10
100.195089397
 20
121.4046437563
 11
100.0720425602
 21
121.1995623632
  0
LINE
  5
2B0
100
AcDbEntity
  8
0
100
AcDbLine
 62
7
  6
BYLAYER
 10
71.121904042
 20
84.4995623632
 11
70.9168226489
 21
84.2944809702
  0
LINE
  5
2B1
100
AcDbEntity
  8
0
100
AcDbLine
 62
7
  6
BYLAYER
 10
51.7534363394
 20
111.8495623632
 11
50.7433005394
 21
111.8495623632
  0
LINE
  5
2B2
100
AcDbEntity
  8
0
100
AcDbLine
 62
7
  6
BYLAYER
 10
73.6219801958
 20
112.6495623632
 11
72.8219801958
 21
112.6495623632
  0
LINE
  5
2B3
100
AcDbEntity
  8
0
100
AcDbLine
 62
7
  6
BYLAYER
 10
72.4219801958
 20
112.6495623632
 11
71.6219801958
 21
112.6495623632
  0
LINE
  5
2B4
100
AcDbEntity
  8
0
100
AcDbLine
 62
7
  6
BYLAYER
 10
71.6219801958
 20
113.0495623632
 11
73.6219801958
 21
113.0495623632
  0
LINE
  5
2B5
100
AcDbEntity
  8
0
100
AcDbLine
 62
7
  6
BYLAYER
 10
68.9168988027
 20
113.1418629098
 11
63.9516017261
 21
113.1418629098
  0
LINE
  5
2B6
100
AcDbEntity
  8
0
100
AcDbLine
 62
7
  6
BYLAYER
 10
61.1431584637
 20
113.1549532115
 11
63.9550436362
 21
113.1549532115
  0
LINE
  5
2B7
100
AcDbEntity
  8
0
100
AcDbLine
 62
7
  6
BYLAYER
 10
69.1219801958
 20
113.3469443029
 11
68.6193431044
 21
113.3469443029
  0
LINE
  5
2B8
100
AcDbEntity
  8
0
100
AcDbLine
 62
7
  6
BYLAYER
 10
61.181391904
 20
113.3495623632
 11
68.6210208092
 21
113.3495623632
  0
LINE
  5
2B9
100
AcDbEntity
  8
0
100
AcDbLine
 62
7
  6
BYLAYER
 10
79.6219801958
 20
113.6495623632
 11
78.8219801958
 21
113.6495623632
  0
LINE
  5
2BA
100
AcDbEntity
  8
0
100
AcDbLine
 62
7
  6
BYLAYER
 10
78.4219801958
 20
113.6495623632
 11
77.6219801958
 21
113.6495623632
  0
LINE
  5
2BB
100
AcDbEntity
  8
0
100
AcDbLine
 62
7
  6
BYLAYER
 10
77.6219801958
 20
114.0495623632
 11
79.6219801958
 21
114.0495623632
  0
LINE
  5
2BC
100
AcDbEntity
  8
0
100
AcDbLine
 62
7
  6
BYLAYER
 10
68.6215947707
 20
114.3495623632
 11
61.181391904
 21
114.3495623632
  0
LINE
  5
2BD
100
AcDbEntity
  8
0
100
AcDbLine
 62
7
  6
BYLAYER
 10
68.6193428661
 20
114.3521804236
 11
69.1219801958
 21
114.3521804236
  0
LINE
  5
2BE
100
AcDbEntity
  8
0
100
AcDbLine
 62
7
  6
BYLAYER
 10
64.3471672783
 20
114.544171515
 11
61.1431584637
 21
114.544171515
  0
LINE
  5
2BF
100
AcDbEntity
  8
0
100
AcDbLine
 62
7
  6
BYLAYER
 10
68.9168988027
 20
114.5572618167
 11
64.3511177666
 21
114.5572618167
  0
LINE
  5
2C0
100
AcDbEntity
  8
0
100
AcDbLine
 62
7
  6
BYLAYER
 10
58.1219801958
 20
115.9495623632
 11
54.1219801958
 21
115.9495623632
  0
LINE
  5
2C1
100
AcDbEntity
  8
0
100
AcDbLine
 62
7
  6
BYLAYER
 10
70.9168226489
 20
121.4046437563
 11
71.121904042
 21
121.1995623632
  0
LINE
  5
2C2
100
AcDbEntity
  8
0
100
AcDbLine
 62
7
  6
BYLAYER
 10
100.1953517833
 20
84.2973059112
 11
100.0723236872
 21
84.5023873042
  0
LINE
  5
2C3
100
AcDbEntity
  8
0
100
AcDbLine
 62
7
  6
BYLAYER
 10
89.6219801958
 20
85.3495623632
 11
89.6219801958
 21
85.7495623632
  0
LINE
  5
2C4
100
AcDbEntity
  8
0
100
AcDbLine
 62
7
  6
BYLAYER
 10
89.6219801958
 20
119.9495623632
 11
89.6219801958
 21
120.3495623632
  0
LINE
  5
2C5
100
AcDbEntity
  8
0
100
AcDbLine
 62
7
  6
BYLAYER
 10
90.4219801958
 20
85.7495623632
 11
90.4219801958
 21
96.3495623632
  0
LINE
  5
2C6
100
AcDbEntity
  8
0
100
AcDbLine
 62
7
  6
BYLAYER
 10
90.4219801958
 20
109.3495623632
 11
90.4219801958
 21
119.9495623632
  0
LINE
  5
2C7
100
AcDbEntity
  8
0
100
AcDbLine
 62
7
  6
BYLAYER
 10
90.8219801958
 20
119.9495623632
 11
90.8219801958
 21
109.3495623632
  0
LINE
  5
2C8
100
AcDbEntity
  8
0
100
AcDbLine
 62
7
  6
BYLAYER
 10
90.8219801958
 20
96.3495623632
 11
90.8219801958
 21
85.7495623632
  0
LINE
  5
2C9
100
AcDbEntity
  8
0
100
AcDbLine
 62
7
  6
BYLAYER
 10
91.6219801958
 20
120.3495623632
 11
91.6219801958
 21
119.9495623632
  0
LINE
  5
2CA
100
AcDbEntity
  8
0
100
AcDbLine
 62
7
  6
BYLAYER
 10
91.6219801958
 20
85.7495623632
 11
91.6219801958
 21
85.3495623632
  0
LINE
  5
2CB
100
AcDbEntity
  8
0
100
AcDbLine
 62
7
  6
BYLAYER
 10
54.1219801958
 20
116.9495623632
 11
58.1219801958
 21
116.9495623632
  0
LINE
  5
2CC
100
AcDbEntity
  8
0
100
AcDbLine
 62
7
  6
BYLAYER
 10
46.6219801958
 20
117.8495623632
 11
17.1219801958
 21
117.8495623632
  0
LINE
  5
2CD
100
AcDbEntity
  8
0
100
AcDbLine
 62
7
  6
BYLAYER
 10
59.6219801958
 20
118.0495623632
 11
49.6219801958
 21
118.0495623632
  0
LINE
  5
2CE
100
AcDbEntity
  8
0
100
AcDbLine
 62
7
  6
BYLAYER
 10
106.6219801958
 20
118.4495623632
 11
105.8219801958
 21
118.4495623632
  0
LINE
  5
2CF
100
AcDbEntity
  8
0
100
AcDbLine
 62
7
  6
BYLAYER
 10
105.4219801958
 20
118.4495623632
 11
104.6219801958
 21
118.4495623632
  0
LINE
  5
2D0
100
AcDbEntity
  8
0
100
AcDbLine
 62
7
  6
BYLAYER
 10
85.6219801958
 20
118.4495623632
 11
84.8219801958
 21
118.4495623632
  0
LINE
  5
2D1
100
AcDbEntity
  8
0
100
AcDbLine
 62
7
  6
BYLAYER
 10
84.4219801958
 20
118.4495623632
 11
83.6219801958
 21
118.4495623632
  0
LINE
  5
2D2
100
AcDbEntity
  8
0
100
AcDbLine
 62
7
  6
BYLAYER
 10
83.6219801958
 20
118.8495623632
 11
85.6219801958
 21
118.8495623632
  0
LINE
  5
2D3
100
AcDbEntity
  8
0
100
AcDbLine
 62
7
  6
BYLAYER
 10
104.6219801958
 20
118.8495623632
 11
106.6219801958
 21
118.8495623632
  0
LINE
  5
2D4
100
AcDbEntity
  8
0
100
AcDbLine
 62
7
  6
BYLAYER
 10
91.6219801958
 20
119.9495623632
 11
90.8219801958
 21
119.9495623632
  0
LINE
  5
2D5
100
AcDbEntity
  8
0
100
AcDbLine
 62
7
  6
BYLAYER
 10
90.4219801958
 20
119.9495623632
 11
89.6219801958
 21
119.9495623632
  0
LINE
  5
2D6
100
AcDbEntity
  8
0
100
AcDbLine
 62
7
  6
BYLAYER
 10
52.6219801958
 20
120.0495623632
 11
59.6219801958
 21
120.0495623632
  0
LINE
  5
2D7
100
AcDbEntity
  8
0
100
AcDbLine
 62
7
  6
BYLAYER
 10
85.0489333591
 20
84.2944809702
 11
85.1719801958
 21
84.4995623632
  0
LINE
  5
2D8
100
AcDbEntity
  8
0
100
AcDbLine
 62
7
  6
BYLAYER
 10
89.6219801958
 20
120.3495623632
 11
91.6219801958
 21
120.3495623632
  0
LINE
  5
2D9
100
AcDbEntity
  8
0
100
AcDbLine
 62
7
  6
BYLAYER
 10
71.121904042
 20
121.1995623632
 11
71.1719801958
 21
121.1995623632
  0
LINE
  5
2DA
100
AcDbEntity
  8
0
100
AcDbLine
 62
7
  6
BYLAYER
 10
72.0719801958
 20
121.1995623632
 11
85.1719801958
 21
121.1995623632
  0
LINE
  5
2DB
100
AcDbEntity
  8
0
100
AcDbLine
 62
7
  6
BYLAYER
 10
86.0719801958
 20
121.1995623632
 11
99.1719801958
 21
121.1995623632
  0
LINE
  5
2DC
100
AcDbEntity
  8
0
100
AcDbLine
 62
7
  6
BYLAYER
 10
100.0720425602
 20
121.1995623632
 11
118.1219801958
 21
121.1995623632
  0
LINE
  5
2DD
100
AcDbEntity
  8
0
100
AcDbLine
 62
7
  6
BYLAYER
 10
120.1219801958
 20
121.1995623632
 11
129.6219801958
 21
121.1995623632
  0
LINE
  5
2DE
100
AcDbEntity
  8
0
100
AcDbLine
 62
7
  6
BYLAYER
 10
70.9168226489
 20
121.4046437563
 11
71.0489333591
 21
121.4046437563
  0
LINE
  5
2DF
100
AcDbEntity
  8
0
100
AcDbLine
 62
7
  6
BYLAYER
 10
72.1950270326
 20
121.4046437563
 11
85.0489333591
 21
121.4046437563
  0
LINE
  5
2E0
100
AcDbEntity
  8
0
100
AcDbLine
 62
7
  6
BYLAYER
 10
86.1950270326
 20
121.4046437563
 11
99.0489333591
 21
121.4046437563
  0
LINE
  5
2E1
100
AcDbEntity
  8
0
100
AcDbLine
 62
7
  6
BYLAYER
 10
100.195089397
 20
121.4046437563
 11
107.6219801958
 21
121.4046437563
  0
LINE
  5
2E2
100
AcDbEntity
  8
0
100
AcDbLine
 62
7
  6
BYLAYER
 10
85.0489333591
 20
121.4046437563
 11
85.1719801958
 21
121.1995623632
  0
LINE
  5
2E3
100
AcDbEntity
  8
0
100
AcDbLine
 62
7
  6
BYLAYER
 10
99.0489333591
 20
84.2974106696
 11
99.0489333591
 21
78.3495623632
  0
LINE
  5
2E4
100
AcDbEntity
  8
0
100
AcDbLine
 62
7
  6
BYLAYER
 10
99.0489333591
 20
121.4046437563
 11
99.0489333591
 21
127.3495623632
  0
LINE
  5
2E5
100
AcDbEntity
  8
0
100
AcDbLine
 62
7
  6
BYLAYER
 10
99.1719801958
 20
127.3495623632
 11
99.1719801958
 21
121.1995623632
  0
LINE
  5
2E6
100
AcDbEntity
  8
0
100
AcDbLine
 62
7
  6
BYLAYER
 10
99.1719801958
 20
84.5024695767
 11
99.1719801958
 21
78.3495623632
  0
LINE
  5
2E7
100
AcDbEntity
  8
0
100
AcDbLine
 62
7
  6
BYLAYER
 10
100.0720425602
 20
121.1995623632
 11
100.0723235581
 21
127.3495623632
  0
LINE
  5
2E8
100
AcDbEntity
  8
0
100
AcDbLine
 62
7
  6
BYLAYER
 10
100.0720425602
 20
78.3495623632
 11
100.0723236872
 21
84.5023873042
  0
LINE
  5
2E9
100
AcDbEntity
  8
0
100
AcDbLine
 62
7
  6
BYLAYER
 10
59.6219801958
 20
125.9495623632
 11
52.6219801958
 21
125.9495623632
  0
LINE
  5
2EA
100
AcDbEntity
  8
0
100
AcDbLine
 62
7
  6
BYLAYER
 10
129.6219801958
 20
127.3495623632
 11
120.1219801958
 21
127.3495623632
  0
LINE
  5
2EB
100
AcDbEntity
  8
0
100
AcDbLine
 62
7
  6
BYLAYER
 10
118.1219801958
 20
127.3495623632
 11
100.0723235581
 21
127.3495623632
  0
LINE
  5
2EC
100
AcDbEntity
  8
0
100
AcDbLine
 62
7
  6
BYLAYER
 10
99.1719801958
 20
127.3495623632
 11
86.0719801958
 21
127.3495623632
  0
LINE
  5
2ED
100
AcDbEntity
  8
0
100
AcDbLine
 62
7
  6
BYLAYER
 10
85.1719801958
 20
127.3495623632
 11
72.0719801958
 21
127.3495623632
  0
LINE
  5
2EE
100
AcDbEntity
  8
0
100
AcDbLine
 62
7
  6
BYLAYER
 10
46.6219801958
 20
127.3495623632
 11
47.1219801958
 21
127.3495623632
  0
LINE
  5
2EF
100
AcDbEntity
  8
0
100
AcDbLine
 62
7
  6
BYLAYER
 10
52.6219801958
 20
127.3495623632
 11
71.1719801958
 21
127.3495623632
  0
LINE
  5
2F0
100
AcDbEntity
  8
0
100
AcDbLine
 62
7
  6
BYLAYER
 10
131.1219801958
 20
127.3495623632
 11
131.6219801958
 21
127.3495623632
  0
LINE
  5
2F1
100
AcDbEntity
  8
0
100
AcDbLine
 62
7
  6
BYLAYER
 10
48.1219801958
 20
128.3495623632
 11
130.1219801958
 21
128.3495623632
  0
LINE
  5
2F2
100
AcDbEntity
  8
0
100
AcDbLine
 62
7
  6
BYLAYER
 10
100.195089397
 20
121.4046437563
 11
100.1953610245
 21
127.3495623632
  0
LINE
  5
2F3
100
AcDbEntity
  8
0
100
AcDbLine
 62
7
  6
BYLAYER
 10
100.1953517833
 20
84.2973059112
 11
100.1950800267
 21
78.3495623632
  0
LINE
  5
2F4
100
AcDbEntity
  8
0
100
AcDbLine
 62
7
  6
BYLAYER
 10
130.1219801958
 20
128.8495623632
 11
48.1219801958
 21
128.8495623632
  0
LINE
  5
2F5
100
AcDbEntity
  8
0
100
AcDbLine
 62
7
  6
BYLAYER
 10
104.6219801958
 20
86.8495623632
 11
104.6219801958
 21
87.2495623632
  0
LINE
  5
2F6
100
AcDbEntity
  8
0
100
AcDbLine
 62
7
  6
BYLAYER
 10
104.6219801958
 20
118.4495623632
 11
104.6219801958
 21
118.8495623632
  0
LINE
  5
2F7
100
AcDbEntity
  8
0
100
AcDbLine
 62
7
  6
BYLAYER
 10
105.4219801958
 20
87.2495623632
 11
105.4219801958
 21
96.3495623632
  0
LINE
  5
2F8
100
AcDbEntity
  8
0
100
AcDbLine
 62
7
  6
BYLAYER
 10
105.4219801958
 20
109.3495623632
 11
105.4219801958
 21
118.4495623632
  0
LINE
  5
2F9
100
AcDbEntity
  8
0
100
AcDbLine
 62
7
  6
BYLAYER
 10
105.8219801958
 20
118.4495623632
 11
105.8219801958
 21
109.3495623632
  0
LINE
  5
2FA
100
AcDbEntity
  8
0
100
AcDbLine
 62
7
  6
BYLAYER
 10
105.8219801958
 20
96.3495623632
 11
105.8219801958
 21
87.2495623632
  0
LINE
  5
2FB
100
AcDbEntity
  8
0
100
AcDbLine
 62
7
  6
BYLAYER
 10
106.6219801958
 20
118.8495623632
 11
106.6219801958
 21
118.4495623632
  0
LINE
  5
2FC
100
AcDbEntity
  8
0
100
AcDbLine
 62
7
  6
BYLAYER
 10
106.6219801958
 20
87.2495623632
 11
106.6219801958
 21
86.8495623632
  0
LINE
  5
2FD
100
AcDbEntity
  8
0
100
AcDbLine
 62
7
  6
BYLAYER
 10
107.6219801958
 20
127.3495623632
 11
107.6219801958
 21
121.3086482106
  0
LINE
  5
2FE
100
AcDbEntity
  8
0
100
AcDbLine
 62
7
  6
BYLAYER
 10
107.6219801958
 20
84.3926175573
 11
107.6219801958
 21
78.3495623632
  0
LINE
  5
2FF
100
AcDbEntity
  8
0
100
AcDbLine
 62
7
  6
BYLAYER
 10
99.0489333591
 20
84.2974106696
 11
99.1719801958
 21
84.5024695767
  0
LINE
  5
300
100
AcDbEntity
  8
0
100
AcDbLine
 62
7
  6
BYLAYER
 10
99.0489333591
 20
121.4046437563
 11
99.1719801958
 21
121.1995623632
  0
LINE
  5
301
100
AcDbEntity
  8
0
100
AcDbLine
 62
7
  6
BYLAYER
 10
111.1219801958
 20
89.3495623632
 11
111.1219801958
 21
116.3495623632
  0
LINE
  5
302
100
AcDbEntity
  8
0
100
AcDbLine
 62
7
  6
BYLAYER
 10
118.1219801958
 20
127.3495623632
 11
118.1219801958
 21
121.1995623632
  0
LINE
  5
303
100
AcDbEntity
  8
0
100
AcDbLine
 62
7
  6
BYLAYER
 10
118.1219801958
 20
84.5007379462
 11
118.1219801958
 21
78.3495623632
  0
LINE
  5
304
100
AcDbEntity
  8
0
100
AcDbLine
 62
7
  6
BYLAYER
 10
119.1219801958
 20
116.3495623632
 11
119.1219801958
 21
89.3495623632
  0
LINE
  5
305
100
AcDbEntity
  8
0
100
AcDbLine
 62
7
  6
BYLAYER
 10
120.1219801958
 20
127.3495623632
 11
120.1219801958
 21
121.1995623632
  0
LINE
  5
306
100
AcDbEntity
  8
0
100
AcDbLine
 62
7
  6
BYLAYER
 10
120.1219801958
 20
84.5005551884
 11
120.1219801958
 21
78.3495623632
  0
LINE
  5
307
100
AcDbEntity
  8
0
100
AcDbLine
 62
7
  6
BYLAYER
 10
128.7053135292
 20
78.3495623632
 11
128.7053135292
 21
84.4461634574
  0
LINE
  5
308
100
AcDbEntity
  8
0
100
AcDbLine
 62
7
  6
BYLAYER
 10
128.7053135292
 20
121.2531726973
 11
128.7053135292
 21
127.3495623632
  0
LINE
  5
309
100
AcDbEntity
  8
0
100
AcDbLine
 62
7
  6
BYLAYER
 10
129.6219801958
 20
127.3495623632
 11
129.6219801958
 21
121.1995623632
  0
LINE
  5
30A
100
AcDbEntity
  8
0
100
AcDbLine
 62
7
  6
BYLAYER
 10
129.6219801958
 20
84.4996870886
 11
129.6219801958
 21
78.3495623632
  0
LINE
  5
30B
100
AcDbEntity
  8
0
100
AcDbLine
 62
7
  6
BYLAYER
 10
130.1219801958
 20
128.8495623632
 11
130.1219801958
 21
128.3495623632
  0
LINE
  5
30C
100
AcDbEntity
  8
0
100
AcDbLine
 62
7
  6
BYLAYER
 10
130.1219801958
 20
77.3495623632
 11
130.1219801958
 21
76.8495623632
  0
LINE
  5
30D
100
AcDbEntity
  8
0
100
AcDbLine
 62
7
  6
BYLAYER
 10
131.1219801958
 20
127.3495623632
 11
131.1219801958
 21
78.3495623632
  0
LINE
  5
30E
100
AcDbEntity
  8
0
100
AcDbLine
 62
7
  6
BYLAYER
 10
131.6219801958
 20
78.3495623632
 11
131.6219801958
 21
127.3495623632
  0
ARC
  5
30F
100
AcDbEntity
  8
0
100
AcDbCircle
 62
7
  6
BYLAYER
 10
59.6219801958
 20
82.6995623632
 40
4.95
100
AcDbArc
 50
0.0
 51
90.0
  0
ARC
  5
310
100
AcDbEntity
  8
0
100
AcDbCircle
 62
7
  6
BYLAYER
 10
52.6219801958
 20
82.6995623632
 40
4.35
100
AcDbArc
 50
133.6028189727
 51
270.0
  0
ARC
  5
311
100
AcDbEntity
  8
0
100
AcDbCircle
 62
7
  6
BYLAYER
 10
58.1219801958
 20
91.8495623632
 40
3.1
100
AcDbArc
 50
270.0
 51
350.7182009133
  0
ARC
  5
312
100
AcDbEntity
  8
0
100
AcDbCircle
 62
7
  6
BYLAYER
 10
54.1219801958
 20
91.8495623632
 40
3.1
100
AcDbArc
 50
99.2817990867
 51
270.0
  0
ARC
  5
313
100
AcDbEntity
  8
0
100
AcDbCircle
 62
7
  6
BYLAYER
 10
56.1219801958
 20
92.8495623632
 40
3.1
100
AcDbArc
 50
42.2944524301
 51
118.9385277402
  0
ARC
  5
314
100
AcDbEntity
  8
0
100
AcDbCircle
 62
7
  6
BYLAYER
 10
58.1219801958
 20
91.8495623632
 40
3.1
100
AcDbArc
 50
9.2817990867
 51
84.5754452158
  0
ARC
  5
315
100
AcDbEntity
  8
0
100
AcDbCircle
 62
7
  6
BYLAYER
 10
52.6219801958
 20
82.6995623632
 40
2.95
100
AcDbArc
 50
90.0
 51
270.0
  0
ARC
  5
316
100
AcDbEntity
  8
0
100
AcDbCircle
 62
7
  6
BYLAYER
 10
59.6219801958
 20
82.6995623632
 40
2.95
100
AcDbArc
 50
270.0
 51
90.0
  0
ARC
  5
317
100
AcDbEntity
  8
0
100
AcDbCircle
 62
7
  6
BYLAYER
 10
54.1219801958
 20
91.8495623632
 40
2.1
100
AcDbArc
 50
90.0
 51
270.0
  0
ARC
  5
318
100
AcDbEntity
  8
0
100
AcDbCircle
 62
7
  6
BYLAYER
 10
58.1219801958
 20
91.8495623632
 40
2.1
100
AcDbArc
 50
270.0
 51
90.0
  0
ARC
  5
319
100
AcDbEntity
  8
0
100
AcDbCircle
 62
7
  6
BYLAYER
 10
56.1219801958
 20
92.8495623632
 40
2.1
100
AcDbArc
 50
31.5881355052
 51
148.4118644948
  0
ARC
  5
31A
100
AcDbEntity
  8
0
100
AcDbCircle
 62
7
  6
BYLAYER
 10
48.1219801958
 20
78.3495623632
 40
1.5
100
AcDbArc
 50
180.0
 51
270.0
  0
ARC
  5
31B
100
AcDbEntity
  8
0
100
AcDbCircle
 62
7
  6
BYLAYER
 10
49.1219801958
 20
94.3495623632
 40
1.5
100
AcDbArc
 50
294.8726008074
 51
315.0
  0
ARC
  5
31C
100
AcDbEntity
  8
0
100
AcDbCircle
 62
7
  6
BYLAYER
 10
48.1219801958
 20
78.3495623632
 40
1.0
100
AcDbArc
 50
180.0
 51
270.0
  0
ARC
  5
31D
100
AcDbEntity
  8
0
100
AcDbCircle
 62
7
  6
BYLAYER
 10
59.6219801958
 20
122.9995623632
 40
4.95
100
AcDbArc
 50
270.0
 51
360.0
  0
ARC
  5
31E
100
AcDbEntity
  8
0
100
AcDbCircle
 62
7
  6
BYLAYER
 10
52.6219801958
 20
122.9995623632
 40
4.35
100
AcDbArc
 50
90.0
 51
226.3971810273
  0
ARC
  5
31F
100
AcDbEntity
  8
0
100
AcDbCircle
 62
7
  6
BYLAYER
 10
54.1219801958
 20
113.8495623632
 40
3.1
100
AcDbArc
 50
90.0
 51
260.7182009133
  0
ARC
  5
320
100
AcDbEntity
  8
0
100
AcDbCircle
 62
7
  6
BYLAYER
 10
58.1219801958
 20
113.8495623632
 40
3.1
100
AcDbArc
 50
9.2817990867
 51
90.0
  0
ARC
  5
321
100
AcDbEntity
  8
0
100
AcDbCircle
 62
7
  6
BYLAYER
 10
58.1219801958
 20
113.8495623632
 40
3.1
100
AcDbArc
 50
275.4245547842
 51
350.7182009133
  0
ARC
  5
322
100
AcDbEntity
  8
0
100
AcDbCircle
 62
7
  6
BYLAYER
 10
56.1219801958
 20
112.8495623632
 40
3.1
100
AcDbArc
 50
241.0614722598
 51
317.7055475699
  0
ARC
  5
323
100
AcDbEntity
  8
0
100
AcDbCircle
 62
7
  6
BYLAYER
 10
59.6219801958
 20
122.9995623632
 40
2.95
100
AcDbArc
 50
270.0
 51
90.0
  0
ARC
  5
324
100
AcDbEntity
  8
0
100
AcDbCircle
 62
7
  6
BYLAYER
 10
52.6219801958
 20
122.9995623632
 40
2.95
100
AcDbArc
 50
90.0
 51
270.0
  0
ARC
  5
325
100
AcDbEntity
  8
0
100
AcDbCircle
 62
7
  6
BYLAYER
 10
54.1219801958
 20
113.8495623632
 40
2.1
100
AcDbArc
 50
90.0
 51
270.0
  0
ARC
  5
326
100
AcDbEntity
  8
0
100
AcDbCircle
 62
7
  6
BYLAYER
 10
56.1219801958
 20
112.8495623632
 40
2.1
100
AcDbArc
 50
211.5881355052
 51
328.4118644948
  0
ARC
  5
327
100
AcDbEntity
  8
0
100
AcDbCircle
 62
7
  6
BYLAYER
 10
58.1219801958
 20
113.8495623632
 40
2.1
100
AcDbArc
 50
270.0
 51
90.0
  0
ARC
  5
328
100
AcDbEntity
  8
0
100
AcDbCircle
 62
7
  6
BYLAYER
 10
48.1219801958
 20
127.3495623632
 40
1.5
100
AcDbArc
 50
90.0
 51
180.0
  0
ARC
  5
329
100
AcDbEntity
  8
0
100
AcDbCircle
 62
7
  6
BYLAYER
 10
49.1219801958
 20
111.3495623632
 40
1.5
100
AcDbArc
 50
45.0
 51
65.1273991926
  0
ARC
  5
32A
100
AcDbEntity
  8
0
100
AcDbCircle
 62
7
  6
BYLAYER
 10
48.1219801958
 20
127.3495623632
 40
1.0
100
AcDbArc
 50
90.0
 51
180.0
  0
ARC
  5
32B
100
AcDbEntity
  8
0
100
AcDbCircle
 62
7
  6
BYLAYER
 10
115.1219801958
 20
89.3495623632
 40
4.0
100
AcDbArc
 50
180.0
 51
360.0
  0
ARC
  5
32C
100
AcDbEntity
  8
0
100
AcDbCircle
 62
7
  6
BYLAYER
 10
130.1219801958
 20
78.3495623632
 40
1.5
100
AcDbArc
 50
270.0
 51
360.0
  0
ARC
  5
32D
100
AcDbEntity
  8
0
100
AcDbCircle
 62
7
  6
BYLAYER
 10
130.1219801958
 20
78.3495623632
 40
1.0
100
AcDbArc
 50
270.0
 51
360.0
  0
ARC
  5
32E
100
AcDbEntity
  8
0
100
AcDbCircle
 62
7
  6
BYLAYER
 10
103.1219801958
 20
102.8495623632
 40
40.5
100
AcDbArc
 50
196.783481136
 51
217.2244000775
  0
ARC
  5
32F
100
AcDbEntity
  8
0
100
AcDbCircle
 62
7
  6
BYLAYER
 10
103.1219801958
 20
102.8495623632
 40
40.5
100
AcDbArc
 50
142.7755999225
 51
163.216518864
  0
ARC
  5
330
100
AcDbEntity
  8
0
100
AcDbCircle
 62
7
  6
BYLAYER
 10
103.1219801958
 20
102.8495623632
 40
40.5
100
AcDbArc
 50
188.0192716144
 51
194.7412401337
  0
ARC
  5
331
100
AcDbEntity
  8
0
100
AcDbCircle
 62
7
  6
BYLAYER
 10
103.1219801958
 20
102.8495623632
 40
40.5
100
AcDbArc
 50
165.2587598663
 51
171.9807283856
  0
CIRCLE
  5
332
100
AcDbEntity
  8
0
100
AcDbCircle
 62
7
  6
BYLAYER
 10
98.6219801958
 20
102.8495623632
 40
4.0
  0
ARC
  5
333
100
AcDbEntity
  8
0
100
AcDbCircle
 62
7
  6
BYLAYER
 10
115.1219801958
 20
116.3495623632
 40
4.0
100
AcDbArc
 50
0.0
 51
180.0
  0
ARC
  5
334
100
AcDbEntity
  8
0
100
AcDbCircle
 62
7
  6
BYLAYER
 10
130.1219801958
 20
127.3495623632
 40
1.5
100
AcDbArc
 50
0.0
 51
90.0
  0
ARC
  5
335
100
AcDbEntity
  8
0
100
AcDbCircle
 62
7
  6
BYLAYER
 10
130.1219801958
 20
127.3495623632
 40
1.0
100
AcDbArc
 50
0.0
 51
90.0
  0
CIRCLE
  5
336
100
AcDbEntity
  8
0
100
AcDbCircle
 62
7
  6
BYLAYER
 10
98.6219801958
 20
102.8495623632
 40
0.75
  0
SPLINE
  5
337
100
AcDbEntity
  8
0
100
AcDbSpline
 62
7
  6
BYLAYER
 70
0
 71
3
 72
16
 73
12
 74
0
 42
0.0000001
 43
0.0000001
 44
0.0000000001
 40
0.0
 40
0.0
 40
0.0
 40
0.0
 40
0.1250228117
 40
0.2499450027
 40
0.3748424607
 40
0.4375865617
 40
0.5003347296
 40
0.6252201011
 40
0.7500980302
 40
0.875006795
 40
1.0
 40
1.0
 40
1.0
 40
1.0
 10
68.6210208092
 20
91.3495623632
 30
0.0
 10
68.6861554717
 20
91.3495574063
 30
0.0
 10
68.8178881528
 20
91.3751989297
 30
0.0
 10
68.9842479783
 20
91.4864322087
 30
0.0
 10
69.0774283918
 20
91.6255439817
 30
0.0
 10
69.1154244308
 20
91.7511030937
 30
0.0
 10
69.1284909595
 20
91.8816251534
 30
0.0
 10
69.0959778422
 20
92.0458014594
 30
0.0
 10
68.9848509346
 20
92.2124143634
 30
0.0
 10
68.8182739939
 20
92.3234042231
 30
0.0
 10
68.686714008
 20
92.3495516302
 30
0.0
 10
68.6215947707
 20
92.3495623632
 30
0.0
  0
SPLINE
  5
338
100
AcDbEntity
  8
0
100
AcDbSpline
 62
7
  6
BYLAYER
 70
0
 71
3
 72
16
 73
12
 74
0
 42
0.0000001
 43
0.0000001
 44
0.0000000001
 40
0.0
 40
0.0
 40
0.0
 40
0.0
 40
0.1250228117
 40
0.2499450027
 40
0.3748424607
 40
0.4375865617
 40
0.5003347296
 40
0.6252201011
 40
0.7500980302
 40
0.875006795
 40
1.0
 40
1.0
 40
1.0
 40
1.0
 10
68.6210208092
 20
113.3495623632
 30
0.0
 10
68.6861554717
 20
113.3495574063
 30
0.0
 10
68.8178881528
 20
113.3751989297
 30
0.0
 10
68.9842479783
 20
113.4864322087
 30
0.0
 10
69.0774283918
 20
113.6255439817
 30
0.0
 10
69.1154244308
 20
113.7511030937
 30
0.0
 10
69.1284909595
 20
113.8816251534
 30
0.0
 10
69.0959778422
 20
114.0458014594
 30
0.0
 10
68.9848509346
 20
114.2124143634
 30
0.0
 10
68.8182739939
 20
114.3234042231
 30
0.0
 10
68.686714008
 20
114.3495516302
 30
0.0
 10
68.6215947707
 20
114.3495623632
 30
0.0
  0
SPLINE
  5
339
100
AcDbEntity
  8
0
100
AcDbSpline
 62
7
  6
BYLAYER
 70
0
 71
3
 72
51
 73
47
 74
0
 42
0.0000001
 43
0.0000001
 44
0.0000000001
 40
0.0
 40
0.0
 40
0.0
 40
0.0
 40
0.0001484558
 40
0.0005692077
 40
0.0012873477
 40
0.0023054055
 40
0.0036235527
 40
0.0052413507
 40
0.0093730817
 40
0.0146917354
 40
0.0211826423
 40
0.028830304
 40
0.0376189284
 40
0.047527647
 40
0.058530198
 40
0.0837100625
 40
0.112917534
 40
0.1458693482
 40
0.1822477585
 40
0.2217005944
 40
0.2638454907
 40
0.3082755741
 40
0.4022516154
 40
0.5000006318
 40
0.5977492504
 40
0.6917242266
 40
0.7361536638
 40
0.7782980402
 40
0.8177504333
 40
0.8541287389
 40
0.8870805087
 40
0.916288306
 40
0.9414684395
 40
0.9524712442
 40
0.9623801708
 40
0.971168899
 40
0.9788167528
 40
0.9853078879
 40
0.9906267125
 40
0.994758521
 40
0.9963763533
 40
0.9976945314
 40
0.9987126156
 40
0.9994307759
 40
0.9998515408
 40
1.0
 40
1.0
 40
1.0
 40
1.0
 10
49.7528717989
 20
92.9886890483
 30
0.0
 10
49.751986173
 20
92.9882785058
 30
0.0
 10
49.7493282864
 20
92.9931920747
 30
0.0
 10
49.748556047
 20
93.000101406
 30
0.0
 10
49.7459904032
 20
93.0149494851
 30
0.0
 10
49.7442343577
 20
93.0345748309
 30
0.0
 10
49.7420739545
 20
93.0606341054
 30
0.0
 10
49.7391223725
 20
93.1069434427
 30
0.0
 10
49.7355203341
 20
93.1796812017
 30
0.0
 10
49.7314989783
 20
93.2844049692
 30
0.0
 10
49.7274836993
 20
93.4122889084
 30
0.0
 10
49.7235128089
 20
93.5629897917
 30
0.0
 10
49.7195987765
 20
93.7361754179
 30
0.0
 10
49.7157558393
 20
93.9314259742
 30
0.0
 10
49.7105017192
 20
94.2344479804
 30
0.0
 10
49.704324787
 20
94.6643685111
 30
0.0
 10
49.6976259456
 20
95.2386189831
 30
0.0
 10
49.6914302075
 20
95.8865136403
 30
0.0
 10
49.6858024118
 20
96.6017829416
 30
0.0
 10
49.6808040493
 20
97.3775063368
 30
0.0
 10
49.6764849491
 20
98.2061774428
 30
0.0
 10
49.671603138
 20
99.3933611697
 30
0.0
 10
49.6675707943
 20
100.9461693445
 30
0.0
 10
49.665960714
 20
102.8495721796
 30
0.0
 10
49.6675708262
 20
104.7529680116
 30
0.0
 10
49.6716031233
 20
106.3057623181
 30
0.0
 10
49.6764848965
 20
107.4929313738
 30
0.0
 10
49.680803876
 20
108.3215919012
 30
0.0
 10
49.6858022196
 20
109.0973082781
 30
0.0
 10
49.691429853
 20
109.812573689
 30
0.0
 10
49.6976256256
 20
110.4604695071
 30
0.0
 10
49.7043243285
 20
111.0347236
 30
0.0
 10
49.7105013672
 20
111.4646497089
 30
0.0
 10
49.715755445
 20
111.7676765219
 30
0.0
 10
49.719598365
 20
111.9629307976
 30
0.0
 10
49.7235124731
 20
112.1361197366
 30
0.0
 10
49.7274833901
 20
112.2868240661
 30
0.0
 10
49.7314987037
 20
112.4147118941
 30
0.0
 10
49.7355201063
 20
112.5194387944
 30
0.0
 10
49.7391222801
 20
112.5921784111
 30
0.0
 10
49.7420739199
 20
112.6384886796
 30
0.0
 10
49.7442343548
 20
112.6645485672
 30
0.0
 10
49.7459904334
 20
112.6841743919
 30
0.0
 10
49.7485560851
 20
112.6990229375
 30
0.0
 10
49.7493283522
 20
112.7059323844
 30
0.0
 10
49.7519862149
 20
112.7108462004
 30
0.0
 10
49.7528718611
 20
112.7104356486
 30
0.0
  0
LINE
  5
33A
100
AcDbEntity
  8
0
100
AcDbLine
 62
7
  6
BYLAYER
 10
53.5241022028
 20
94.8913614625
 11
53.5243702381
 21
94.9072823282
  0
SPLINE
  5
33B
100
AcDbEntity
  8
0
100
AcDbSpline
 62
7
  6
BYLAYER
 70
0
 71
3
 72
13
 73
9
 74
0
 42
0.0000001
 43
0.0000001
 44
0.0000000001
 40
0.0
 40
0.0
 40
0.0
 40
0.0
 40
0.0886109207
 40
0.2076020751
 40
0.5000000413
 40
0.7923979803
 40
0.911389365
 40
1.0
 40
1.0
 40
1.0
 40
1.0
 10
53.5243702381
 20
94.9072823282
 30
0.0
 10
53.5322307301
 20
95.3764081859
 30
0.0
 10
53.5443313222
 20
96.475599706
 30
0.0
 10
53.5621121516
 20
99.1230231176
 30
0.0
 10
53.5694698776
 20
102.8495621785
 30
0.0
 10
53.5621116838
 20
106.5761024454
 30
0.0
 10
53.5443319099
 20
109.2235254363
 30
0.0
 10
53.5322298967
 20
110.3227166396
 30
0.0
 10
53.5243702333
 20
110.7918409982
 30
0.0
  0
LINE
  5
33C
100
AcDbEntity
  8
0
100
AcDbLine
 62
7
  6
BYLAYER
 10
53.5243702333
 20
110.7918409982
 11
53.5241022028
 21
110.8077632639
  0
ELLIPSE
  5
33D
100
AcDbEntity
  8
0
100
AcDbEllipse
 62
7
  6
BYLAYER
 10
71.1220563526
 20
119.1994862065
 30
0.0
 11
-1.4143212623
 21
1.4143212623
 31
0.0
 40
0.9999238505
 41
-0.7853600872
 42
0.7853600872
  0
ELLIPSE
  5
33E
100
AcDbEntity
  8
0
100
AcDbEllipse
 62
7
  6
BYLAYER
 10
119.1219801958
 20
84.3915666998
 30
0.0
 11
11.5
 21
-0.0010509376
 31
0.0
 40
0.0087263893
 41
1.6578636066
 42
3.1415934511
  0
ELLIPSE
  5
33F
100
AcDbEntity
  8
0
100
AcDbEllipse
 62
7
  6
BYLAYER
 10
70.9169749595
 20
86.2945571269
 30
0.0
 11
1.4143212623
 21
1.4143212623
 31
0.0
 40
0.9999238505
 41
2.3562325664
 42
3.9269527408
  0
ELLIPSE
  5
340
100
AcDbEntity
  8
0
100
AcDbEllipse
 62
7
  6
BYLAYER
 10
119.1219801958
 20
121.3086482106
 30
0.0
 11
11.5
 21
0.0
 31
0.0
 40
0.0087268678
 41
-3.1415926536
 42
-1.6578628091
  0
ELLIPSE
  5
341
100
AcDbEntity
  8
0
100
AcDbEllipse
 62
7
  6
BYLAYER
 10
119.1219801958
 20
84.3915666998
 30
0.0
 11
11.5
 21
-0.0010509376
 31
0.0
 40
0.0087263893
 41
0.5856863409
 42
1.4837306419
  0
ELLIPSE
  5
342
100
AcDbEntity
  8
0
100
AcDbEllipse
 62
7
  6
BYLAYER
 10
129.1219801958
 20
84.4485372294
 30
0.0
 11
0.5
 21
-0.0000456929
 31
0.0
 40
0.0087263893
 41
3.7272789945
 42
6.2831861047
  0
ELLIPSE
  5
343
100
AcDbEntity
  8
0
100
AcDbEllipse
 62
7
  6
BYLAYER
 10
129.1219801958
 20
121.2507607185
 30
0.0
 11
0.5
 21
0.0
 31
0.0
 40
0.0087268678
 41
0.0
 42
2.5559071101
  0
ELLIPSE
  5
344
100
AcDbEntity
  8
0
100
AcDbEllipse
 62
7
  6
BYLAYER
 10
119.1219801958
 20
121.3086482106
 30
0.0
 11
11.5
 21
0.0
 31
0.0
 40
0.0087268678
 41
-1.4837298444
 42
-0.5856855435
  0
ELLIPSE
  5
345
100
AcDbEntity
  8
0
100
AcDbEllipse
 62
7
  6
BYLAYER
 10
54.755501273
 20
102.8495623632
 30
0.0
 11
-0.0
 21
5.65
 31
0.0
 40
0.0087268678
 41
-0.0
 42
0.7928070061
  0
ELLIPSE
  5
346
100
AcDbEntity
  8
0
100
AcDbEllipse
 62
7
  6
BYLAYER
 10
54.7249572358
 20
102.8495623632
 30
0.0
 11
-0.0
 21
4.0
 31
0.0
 40
0.0087268678
 41
0.1315397182
 42
3.0100529354
  0
ELLIPSE
  5
347
100
AcDbEntity
  8
0
100
AcDbEllipse
 62
7
  6
BYLAYER
 10
54.755501273
 20
102.8495623632
 30
0.0
 11
0.0
 21
5.65
 31
0.0
 40
0.0087268678
 41
-3.9343996597
 42
-3.1415926536
  0
ELLIPSE
  5
348
100
AcDbEntity
  8
0
100
AcDbEllipse
 62
7
  6
BYLAYER
 10
68.991077179
 20
102.8495623632
 30
0.0
 11
0.0
 21
5.65
 31
0.0
 40
0.0087268678
 41
-0.7928070061
 42
0.0
  0
ELLIPSE
  5
349
100
AcDbEntity
  8
0
100
AcDbEllipse
 62
7
  6
BYLAYER
 10
71.1220563526
 20
86.49963852
 30
0.0
 11
1.4143212623
 21
1.4143212623
 31
0.0
 40
0.9999238505
 41
2.3562325664
 42
3.9269527408
  0
ELLIPSE
  5
34A
100
AcDbEntity
  8
0
100
AcDbEllipse
 62
7
  6
BYLAYER
 10
69.0216212162
 20
102.8495623632
 30
0.0
 11
0.0
 21
4.0
 31
0.0
 40
0.0087268678
 41
-3.0100529354
 42
-0.1315397182
  0
ELLIPSE
  5
34B
100
AcDbEntity
  8
0
100
AcDbEllipse
 62
7
  6
BYLAYER
 10
68.991077179
 20
102.8495623632
 30
0.0
 11
-0.0
 21
5.65
 31
0.0
 40
0.0087268678
 41
-3.1415926536
 42
-2.3487856475
  0
ELLIPSE
  5
34C
100
AcDbEntity
  8
0
100
AcDbEllipse
 62
7
  6
BYLAYER
 10
49.6481607992
 20
114.8495623632
 30
0.0
 11
0.0
 21
1.25
 31
0.0
 40
0.0087268678
 41
0.0
 42
6.2831853072
  0
ELLIPSE
  5
34D
100
AcDbEntity
  8
0
100
AcDbEllipse
 62
7
  6
BYLAYER
 10
49.6481607992
 20
90.8495623632
 30
0.0
 11
0.0
 21
1.25
 31
0.0
 40
0.0087268678
 41
0.0
 42
6.2831853072
  0
ELLIPSE
  5
34E
100
AcDbEntity
  8
0
100
AcDbEllipse
 62
7
  6
BYLAYER
 10
70.9169749595
 20
119.4045675995
 30
0.0
 11
-1.4143212623
 21
1.4143212623
 31
0.0
 40
0.9999238505
 41
-0.7853600872
 42
0.7853600872
  0
ENDSEC
  0
SECTION
  2
OBJECTS
  0
DICTIONARY
  5
C
100
AcDbDictionary
280
0
281
1
  3
ACAD_GROUP
350
D
  3
ACAD_MLINESTYLE
350
17
  3
ACAD_LAYOUT
350
1A
  3
ACAD_PLOTSETTINGS
350
19
  3
ACAD_PLOTSTYLENAME
350
E
  0
DICTIONARY
  5
D
102
{ACAD_REACTORS
330
C
102
}
100
AcDbDictionary
280
0
281
1
  0
ACDBDICTIONARYWDFLT
  5
E
102
{ACAD_REACTORS
330
C
102
}
100
AcDbDictionary
281
1
  3
Normal
350
F
100
AcDbDictionaryWithDefault
340
F
  0
DICTIONARY
  5
17
102
{ACAD_REACTORS
330
C
102
}
100
AcDbDictionary
280
0
281
1
  3
Standard
350
18
  0
DICTIONARY
  5
19
102
{ACAD_REACTORS
330
C
102
}
100
AcDbDictionary
281
1
  0
DICTIONARY
  5
1A
102
{ACAD_REACTORS
330
C
102
}
100
AcDbDictionary
281
1
  3
Model
350
34F
  3
Layout1
350
350
  0
ACDBPLACEHOLDER
  5
F
102
{ACAD_REACTORS
330
E
102
}
  0
MLINESTYLE
  5
18
102
{ACAD_REACTORS
330
17
102
}
100
AcDbMlineStyle
  2
STANDARD
 70
0
  3

 62
256
 51
90.0
 52
90.0
 71
2
 49
0.5
 62
256
  6
BYLAYER
 49
-0.5
 62
256
  6
BYLAYER
  0
LAYOUT
  5
34F
102
{ACAD_REACTORS
330
1A
102
}
100
AcDbPlotSettings
  1

  2
none_device
  4

  6

 40
0.0
 41
0.0
 42
0.0
 43
0.0
 44
210.0
 45
297.0
 46
0.0
 47
0.0
 48
0.0
 49
0.0
140
0.0
141
0.0
142
1.0
143
1.0
 70
1024
 72
1
 73
0
 74
0
  7

 75
0
147
1.0
148
0.0
149
0.0
100
AcDbLayout
  1
Model
 70
0
 71
0
 10
0.0
 20
0.0
 11
210.0
 21
297.0
 12
0.0
 22
0.0
 32
0.0
 14
0.0
 24
0.0
 34
0.0
 15
0.0
 25
0.0
 35
0.0
146
0.0
 13
0.0
 23
0.0
 33
0.0
 16
1.0
 26
0.0
 36
0.0
 17
0.0
 27
1.0
 37
0.0
 76
0
330
210
345
0
346
0
  0
LAYOUT
  5
350
102
{ACAD_REACTORS
330
1A
102
}
100
AcDbPlotSettings
  1

  2
none_device
  4

  6

 40
0.0
 41
0.0
 42
0.0
 43
0.0
 44
210.0
 45
297.0
 46
0.0
 47
0.0
 48
0.0
 49
0.0
140
0.0
141
0.0
142
1.0
143
1.0
 70
0
 72
1
 73
0
 74
0
  7

 75
0
147
1.0
148
0.0
149
0.0
100
AcDbLayout
  1
Layout1
 70
0
 71
1
 10
0.0
 20
0.0
 11
210.0
 21
297.0
 12
0.0
 22
0.0
 32
0.0
 14
0.0
 24
0.0
 34
0.0
 15
0.0
 25
0.0
 35
0.0
146
0.0
 13
0.0
 23
0.0
 33
0.0
 16
1.0
 26
0.0
 36
0.0
 17
0.0
 27
1.0
 37
0.0
 76
0
330
211
345
0
346
0
  0
ENDSEC
  0
EOF
