999
DXF file: C:\Users\sesa63760\Dev\_Creo\CAD\MCADID0003705_3D-CAD\drw0001_2.dxf
999
Pro/ENGINEER 2019471 by Parametric Technology Corporation
  0
SECTION
  2
HEADER
  9
$ACADVER
  1
AC1024
  9
$DWGCODEPAGE
  3
ANSI_1252
  9
$EXTMAX
 10
37.7566514821
 20
53.3986928105
 30
0.0
  9
$EXTMIN
 10
0.0
 20
0.0
 30
0.0
  9
$LIMMIN
 10
0.0
 20
0.0
  9
$LIMMAX
 10
37.7566514821
 20
53.3986928105
  9
$VIEWCTR
 10
18.8783257411
 20
26.6993464052
  9
$VIEWSIZE
 40
53.3986928105
  9
$CLAYER
  8
0
  9
$LTSCALE
 40
3.4808036795
  9
$CELTYPE
  6
BYLAYER
  9
$DIMSCALE
 40
1.0
  9
$DIMASZ
 40
0.4494839462
  9
$DIMEXO
 40
1.0
  9
$DIMDLI
 40
2.4049189058
  9
$DIMEXE
 40
1.0
  9
$DIMCEN
 40
0.5695860566
  9
$DIMLFAC
 40
1.0
  9
$DIMBLK
  1
_FILLED
  9
$DIMALT
 70
0
  9
$DIMALTF
 40
0.0393700787
  9
$DIMTXT
 40
0.6292775247
  9
$DIMTOL
 70
1
  9
$DIMLIM
 70
0
  9
$DIMTFAC
 40
1.0
  9
$DIMTP
 40
0.01
  9
$DIMTM
 40
0.01
  9
$DIMGAP
 40
0.625
  9
$DIMDSEP
 70
46
  9
$AUNITS
 70
0
  9
$PDMODE
 70
3
  9
$PDSIZE
 40
0.3125
  9
$HANDSEED
  5
328
  9
$TILEMODE
 70
1
  9
$MEASUREMENT
 70
1
  9
$INSUNITS
 70
4
  0
ENDSEC
  0
SECTION
  2
CLASSES
  0
CLASS
  1
ACDBDICTIONARYWDFLT
  2
AcDbDictionaryWithDefault
  3
AutoCAD 2000
 90
0
 91
1
280
0
281
0
  0
CLASS
  1
ACDBPLACEHOLDER
  2
AcDbPlaceHolder
  3
AutoCAD 2000
 90
0
 91
1
280
0
281
0
  0
CLASS
  1
LAYOUT
  2
AcDbLayout
  3
AutoCAD 2000
 90
0
 91
0
280
0
281
0
  0
ENDSEC
  0
SECTION
  2
TABLES
  0
TABLE
  2
VPORT
  5
8
100
AcDbSymbolTable
 70
2
  0
VPORT
  5
1F4
100
AcDbSymbolTableRecord
100
AcDbViewportTableRecord
  2
*ACTIVE
 70
0
 10
0.0
 20
0.0
 11
1.0
 21
1.0
 12
18.8783257411
 22
26.6993464052
 13
0.0
 23
0.0
 14
1.0
 24
1.0
 15
0.0
 25
0.0
 16
0.0
 26
0.0
 36
1.0
 17
0.0
 27
0.0
 37
0.0
 40
53.3986928105
 41
0.7070707071
 42
50.0
 43
0.0
 44
0.0
 50
0.0
 51
0.0
 71
0
 72
100
 73
1
 74
1
 75
0
 76
0
 77
0
 78
0
  0
ENDTAB
  0
TABLE
  2
LTYPE
  5
5
100
AcDbSymbolTable
 70
6
  0
LTYPE
  5
14
100
AcDbSymbolTableRecord
100
AcDbLinetypeTableRecord
  2
BYBLOCK
 70
0
  3

 72
65
 73
0
 40
0.0
  0
LTYPE
  5
15
100
AcDbSymbolTableRecord
100
AcDbLinetypeTableRecord
  2
BYLAYER
 70
0
  3

 72
65
 73
0
 40
0.0
  0
LTYPE
  5
16
100
AcDbSymbolTableRecord
100
AcDbLinetypeTableRecord
  2
CONTINUOUS
 70
64
  3
Solid line
 72
65
 73
0
 40
0.0
  0
LTYPE
  5
1F5
100
AcDbSymbolTableRecord
100
AcDbLinetypeTableRecord
  2
CENTER
 70
64
  3
____ _ ____ _ ____ _ ____ _ ____ _ ____ _ ____
 72
65
 73
4
 40
0.6
 49
0.375
 74
0
 49
-0.075
 74
0
 49
0.075
 74
0
 49
-0.075
 74
0
  0
LTYPE
  5
1F6
100
AcDbSymbolTableRecord
100
AcDbLinetypeTableRecord
  2
HIDDEN
 70
64
  3
- - - - - - - - - - - - - - - - - - - -
 72
65
 73
2
 40
0.2
 49
0.1
 74
0
 49
-0.1
 74
0
  0
LTYPE
  5
1F7
100
AcDbSymbolTableRecord
100
AcDbLinetypeTableRecord
  2
PHANTOM
 70
64
  3
_____ _ _ _____ _ _ _____ _ _ _____
 72
65
 73
6
 40
0.8
 49
0.45
 74
0
 49
-0.05
 74
0
 49
0.1
 74
0
 49
-0.05
 74
0
 49
0.1
 74
0
 49
-0.05
 74
0
  0
LTYPE
  5
1F8
100
AcDbSymbolTableRecord
100
AcDbLinetypeTableRecord
  2
DOT
 70
64
  3
. . . . . . . . . . . . . . . . . . . .
 72
65
 73
2
 40
0.2
 49
0.1
 74
0
 49
-0.1
 74
0
  0
LTYPE
  5
1F9
100
AcDbSymbolTableRecord
100
AcDbLinetypeTableRecord
  2
DASHED
 70
64
  3
- - - - - - - - - - - - - - - - - - - -
 72
65
 73
2
 40
0.2
 49
0.1
 74
0
 49
-0.1
 74
0
  0
ENDTAB
  0
TABLE
  2
LAYER
  5
2
100
AcDbSymbolTable
 70
36
  0
LAYER
  5
10
100
AcDbSymbolTableRecord
100
AcDbLayerTableRecord
  2
0
 70
0
 62
7
  6
CONTINUOUS
370
-3
390
F
  0
LAYER
  5
1FA
100
AcDbSymbolTableRecord
100
AcDbLayerTableRecord
  2
DEFAULT_1
 70
0
 62
7
  6
CENTER
370
-3
390
F
  0
LAYER
  5
1FB
100
AcDbSymbolTableRecord
100
AcDbLayerTableRecord
  2
DEFAULT_2
 70
0
 62
7
  6
HIDDEN
370
-3
390
F
  0
LAYER
  5
1FC
100
AcDbSymbolTableRecord
100
AcDbLayerTableRecord
  2
DEFAULT_3
 70
0
 62
7
  6
PHANTOM
370
-3
390
F
  0
LAYER
  5
1FD
100
AcDbSymbolTableRecord
100
AcDbLayerTableRecord
  2
00_COMPONENTS
 70
0
 62
7
  6
CONTINUOUS
370
-3
390
F
  0
LAYER
  5
1FE
100
AcDbSymbolTableRecord
100
AcDbLayerTableRecord
  2
01_1_DEFAULT_DATUMS
 70
0
 62
7
  6
CONTINUOUS
370
-3
390
F
  0
LAYER
  5
1FF
100
AcDbSymbolTableRecord
100
AcDbLayerTableRecord
  2
01_PLANES
 70
0
 62
7
  6
CONTINUOUS
370
-3
390
F
  0
LAYER
  5
200
100
AcDbSymbolTableRecord
100
AcDbLayerTableRecord
  2
02_COORD_SYS
 70
0
 62
7
  6
CONTINUOUS
370
-3
390
F
  0
LAYER
  5
201
100
AcDbSymbolTableRecord
100
AcDbLayerTableRecord
  2
03_AXES
 70
0
 62
7
  6
CONTINUOUS
370
-3
390
F
  0
LAYER
  5
202
100
AcDbSymbolTableRecord
100
AcDbLayerTableRecord
  2
04_POINTS
 70
0
 62
7
  6
CONTINUOUS
370
-3
390
F
  0
LAYER
  5
203
100
AcDbSymbolTableRecord
100
AcDbLayerTableRecord
  2
05_CURVES
 70
0
 62
7
  6
CONTINUOUS
370
-3
390
F
  0
LAYER
  5
204
100
AcDbSymbolTableRecord
100
AcDbLayerTableRecord
  2
06_SURFS
 70
0
 62
7
  6
CONTINUOUS
370
-3
390
F
  0
LAYER
  5
205
100
AcDbSymbolTableRecord
100
AcDbLayerTableRecord
  2
07_COSMETICS
 70
0
 62
7
  6
CONTINUOUS
370
-3
390
F
  0
LAYER
  5
206
100
AcDbSymbolTableRecord
100
AcDbLayerTableRecord
  2
10_NOTES
 70
0
 62
7
  6
CONTINUOUS
370
-3
390
F
  0
LAYER
  5
207
100
AcDbSymbolTableRecord
100
AcDbLayerTableRecord
  2
11_NOTES_PUB
 70
0
 62
7
  6
CONTINUOUS
370
-3
390
F
  0
LAYER
  5
208
100
AcDbSymbolTableRecord
100
AcDbLayerTableRecord
  2
13_REF_GTOL
 70
0
 62
7
  6
CONTINUOUS
370
-3
390
F
  0
LAYER
  5
209
100
AcDbSymbolTableRecord
100
AcDbLayerTableRecord
  2
16_MISC
 70
0
 62
7
  6
CONTINUOUS
370
-3
390
F
  0
LAYER
  5
20A
100
AcDbSymbolTableRecord
100
AcDbLayerTableRecord
  2
17_NO_PRINT
 70
0
 62
7
  6
CONTINUOUS
370
-3
390
F
  0
LAYER
  5
20B
100
AcDbSymbolTableRecord
100
AcDbLayerTableRecord
  2
18_DATUM_CAMS_JOINTS
 70
0
 62
7
  6
CONTINUOUS
370
-3
390
F
  0
LAYER
  5
20C
100
AcDbSymbolTableRecord
100
AcDbLayerTableRecord
  2
19_DATUM_FUNCTIONAL
 70
0
 62
7
  6
CONTINUOUS
370
-3
390
F
  0
LAYER
  5
20D
100
AcDbSymbolTableRecord
100
AcDbLayerTableRecord
  2
20_DATUM_KINEMATIC_SCHEME
 70
0
 62
7
  6
CONTINUOUS
370
-3
390
F
  0
ENDTAB
  0
TABLE
  2
STYLE
  5
3
100
AcDbSymbolTable
 70
1
  0
STYLE
  5
11
100
AcDbSymbolTableRecord
100
AcDbTextStyleTableRecord
  2
STANDARD
 70
0
 40
0.0
 41
1.0
 50
0.0
 71
0
 42
0.2
  3
ARIAL.TTF
  4

  0
STYLE
  5
20E
100
AcDbSymbolTableRecord
100
AcDbTextStyleTableRecord
  2
TEXTSTYLE_1
 70
0
 40
0.0
 41
0.8
 50
0.0
 71
0
 42
0.2
  3
gdt
  4

  0
ENDTAB
  0
TABLE
  2
VIEW
  5
6
100
AcDbSymbolTable
 70
0
  0
ENDTAB
  0
TABLE
  2
UCS
  5
7
100
AcDbSymbolTable
 70
0
  0
ENDTAB
  0
TABLE
  2
APPID
  5
9
100
AcDbSymbolTable
 70
1
  0
APPID
  5
20F
100
AcDbSymbolTableRecord
100
AcDbRegAppTableRecord
  2
ACAD
 70
0
  0
ENDTAB
  0
TABLE
  2
BLOCK_RECORD
  5
1
100
AcDbSymbolTable
 70
0
  0
BLOCK_RECORD
  5
210
100
AcDbSymbolTableRecord
100
AcDbBlockTableRecord
  2
*Model_Space
  0
BLOCK_RECORD
  5
211
100
AcDbSymbolTableRecord
100
AcDbBlockTableRecord
  2
*Paper_Space
  0
BLOCK_RECORD
  5
212
100
AcDbSymbolTableRecord
100
AcDbBlockTableRecord
  2
_FILLED
  0
ENDTAB
  0
TABLE
  2
DIMSTYLE
  5
A
100
AcDbSymbolTable
 70
1
100
AcDbDimStyleTable
 71
0
  0
DIMSTYLE
105
213
100
AcDbSymbolTableRecord
100
AcDbDimStyleTableRecord
  2
STANDARD
 70
0
  3

  4

 40
1.0
 41
0.4494839462
 42
1.0
 43
0.38
 44
1.0
 45
0.0
 46
0.0
 47
0.01
 48
0.01
140
0.6292775247
141
0.09
142
0.0
143
25.4
144
1.0
145
0.0
146
1.0
147
0.625
 71
1
 72
0
 73
0
 74
0
 75
0
 76
0
 77
1
 78
8
 79
2
170
0
171
1
172
0
173
0
174
0
175
0
176
0
177
0
178
0
270
2
179
2
271
2
272
2
273
2
274
2
275
0
280
0
281
0
282
0
283
1
284
8
285
0
286
0
287
3
288
0
340
11
278
46
341
212
342
212
343
212
344
212
  0
ENDTAB
  0
ENDSEC
  0
SECTION
  2
BLOCKS
  0
BLOCK
  5
20
100
AcDbEntity
  8
0
100
AcDbBlockBegin
  2
*Model_Space
 70
0
 10
0.0
 20
0.0
 30
0.0
  3
*Model_Space
  1

  0
ENDBLK
  5
21
100
AcDbEntity
  8
0
100
AcDbBlockEnd
  0
BLOCK
  5
1C
100
AcDbEntity
  8
0
100
AcDbBlockBegin
  2
*Paper_Space
 70
0
 10
0.0
 20
0.0
 30
0.0
  3
*Paper_Space
  1

  0
ENDBLK
  5
1D
100
AcDbEntity
  8
0
100
AcDbBlockEnd
  0
BLOCK
  5
214
100
AcDbEntity
  8
0
100
AcDbBlockBegin
  2
_FILLED
 70
64
 10
0.0
 20
0.0
  3
_FILLED
  1

  0
SOLID
  5
215
100
AcDbEntity
  8
0
  6
BYBLOCK
 62
0
100
AcDbTrace
 10
0.0
 20
0.0
 11
-1.0
 21
0.25
 12
-1.0
 22
-0.25
 13
-1.0
 23
-0.25
  0
ENDBLK
  5
216
100
AcDbEntity
  8
0
  6
BYBLOCK
 62
0
100
AcDbBlockEnd
  0
ENDSEC
  0
SECTION
  2
ENTITIES
  0
LINE
  5
217
100
AcDbEntity
  8
0
100
AcDbLine
 62
7
  6
BYLAYER
 10
4.6397636496
 20
8.9263071895
 11
33.6397636496
 21
8.9263071895
  0
LINE
  5
218
100
AcDbEntity
  8
0
100
AcDbLine
 62
7
  6
BYLAYER
 10
5.7219549938
 20
37.7990281762
 11
5.5397636496
 21
37.7263071895
  0
LINE
  5
219
100
AcDbEntity
  8
0
100
AcDbLine
 62
7
  6
BYLAYER
 10
5.5215152891
 20
12.3488764438
 11
5.349078374
 21
14.3198394025
  0
LINE
  5
21A
100
AcDbEntity
  8
0
100
AcDbLine
 62
7
  6
BYLAYER
 10
5.7884569124
 20
14.4263071895
 11
5.8832558435
 21
13.3427504489
  0
LINE
  5
21B
100
AcDbEntity
  8
0
100
AcDbLine
 62
7
  6
BYLAYER
 10
4.1397636496
 20
9.4263071895
 11
4.1397636496
 21
44.2763071895
  0
LINE
  5
21C
100
AcDbEntity
  8
0
100
AcDbLine
 62
7
  6
BYLAYER
 10
5.3397636496
 20
27.326611776
 11
5.3397636496
 21
22.1760026031
  0
LINE
  5
21D
100
AcDbEntity
  8
0
100
AcDbLine
 62
7
  6
BYLAYER
 10
5.4067224702
 20
27.2596529545
 11
5.4067224702
 21
22.242961422
  0
LINE
  5
21E
100
AcDbEntity
  8
0
100
AcDbLine
 62
7
  6
BYLAYER
 10
30.122164832
 20
14.4263071895
 11
29.7211483109
 21
14.3402338429
  0
LINE
  5
21F
100
AcDbEntity
  8
0
100
AcDbLine
 62
7
  6
BYLAYER
 10
6.3327753754
 20
12.0032624517
 11
18.5397636496
 21
12.0032624517
  0
LINE
  5
220
100
AcDbEntity
  8
0
100
AcDbLine
 62
7
  6
BYLAYER
 10
19.7397636496
 20
12.0032624517
 11
31.9467519238
 21
12.0032624517
  0
LINE
  5
221
100
AcDbEntity
  8
0
100
AcDbLine
 62
7
  6
BYLAYER
 10
8.5583789883
 20
14.3402338429
 11
8.1573624672
 21
14.4263071895
  0
LINE
  5
222
100
AcDbEntity
  8
0
100
AcDbLine
 62
7
  6
BYLAYER
 10
9.0160611561
 20
16.2217485307
 11
8.6429033548
 21
16.4414234684
  0
LINE
  5
223
100
AcDbEntity
  8
0
100
AcDbLine
 62
7
  6
BYLAYER
 10
9.4656010104
 20
15.9471544851
 11
9.0357894426
 21
16.2020221421
  0
LINE
  5
224
100
AcDbEntity
  8
0
100
AcDbLine
 62
7
  6
BYLAYER
 10
8.2711344995
 20
16.1949363396
 11
8.6912428189
 21
15.7748280202
  0
LINE
  5
225
100
AcDbEntity
  8
0
100
AcDbLine
 62
7
  6
BYLAYER
 10
8.6824507207
 20
15.8486829352
 11
8.6627115104
 21
15.8684221455
  0
LINE
  5
226
100
AcDbEntity
  8
0
100
AcDbLine
 62
7
  6
BYLAYER
 10
9.0160611561
 20
16.2217485307
 11
9.0357887361
 21
16.2020209506
  0
LINE
  5
227
100
AcDbEntity
  8
0
100
AcDbLine
 62
7
  6
BYLAYER
 10
7.1857700085
 20
19.4619898091
 11
7.1397636496
 21
19.5204300725
  0
LINE
  5
228
100
AcDbEntity
  8
0
100
AcDbLine
 62
7
  6
BYLAYER
 10
5.5397636496
 20
43.0763071895
 11
5.5397636496
 21
37.7263071895
  0
LINE
  5
229
100
AcDbEntity
  8
0
100
AcDbLine
 62
7
  6
BYLAYER
 10
5.5397636496
 20
36.5263071895
 11
5.5397636496
 21
33.9263071895
  0
LINE
  5
22A
100
AcDbEntity
  8
0
100
AcDbLine
 62
7
  6
BYLAYER
 10
5.7219771652
 20
43.0035773532
 11
5.7219771652
 21
37.7990370258
  0
LINE
  5
22B
100
AcDbEntity
  8
0
100
AcDbLine
 62
7
  6
BYLAYER
 10
5.7219771652
 20
36.4535773532
 11
5.7219771652
 21
33.9263071895
  0
LINE
  5
22C
100
AcDbEntity
  8
0
100
AcDbLine
 62
7
  6
BYLAYER
 10
5.9064178837
 20
21.7432660102
 11
5.9064178837
 21
27.7593483689
  0
LINE
  5
22D
100
AcDbEntity
  8
0
100
AcDbLine
 62
7
  6
BYLAYER
 10
6.585751365
 20
33.9263071895
 11
6.585751365
 21
36.4431911723
  0
LINE
  5
22E
100
AcDbEntity
  8
0
100
AcDbLine
 62
7
  6
BYLAYER
 10
6.585751365
 20
37.8094232068
 11
6.585751365
 21
42.9931911723
  0
LINE
  5
22F
100
AcDbEntity
  8
0
100
AcDbLine
 62
7
  6
BYLAYER
 10
4.1397636496
 20
14.3198394025
 11
5.349078374
 21
14.3198394025
  0
LINE
  5
230
100
AcDbEntity
  8
0
100
AcDbLine
 62
7
  6
BYLAYER
 10
18.5397636496
 20
14.3198394025
 11
19.7397636496
 21
14.3198394025
  0
LINE
  5
231
100
AcDbEntity
  8
0
100
AcDbLine
 62
7
  6
BYLAYER
 10
32.9304489252
 20
14.3198394025
 11
34.1397636496
 21
14.3198394025
  0
LINE
  5
232
100
AcDbEntity
  8
0
100
AcDbLine
 62
7
  6
BYLAYER
 10
29.7211483109
 20
14.3402338429
 11
19.8213724888
 21
14.3402338429
  0
LINE
  5
233
100
AcDbEntity
  8
0
100
AcDbLine
 62
7
  6
BYLAYER
 10
18.4581548103
 20
14.3402338429
 11
8.5583789883
 21
14.3402338429
  0
LINE
  5
234
100
AcDbEntity
  8
0
100
AcDbLine
 62
7
  6
BYLAYER
 10
27.8397636496
 20
14.3704552357
 11
10.4397636496
 21
14.3704552357
  0
LINE
  5
235
100
AcDbEntity
  8
0
100
AcDbLine
 62
7
  6
BYLAYER
 10
4.1397636496
 20
14.4263071895
 11
34.1397636496
 21
14.4263071895
  0
LINE
  5
236
100
AcDbEntity
  8
0
100
AcDbLine
 62
7
  6
BYLAYER
 10
7.1397636496
 20
19.5204300725
 11
7.1397636496
 21
18.9263071895
  0
LINE
  5
237
100
AcDbEntity
  8
0
100
AcDbLine
 62
7
  6
BYLAYER
 10
7.1857700085
 20
19.4619898091
 11
7.1857700085
 21
19.4340742087
  0
LINE
  5
238
100
AcDbEntity
  8
0
100
AcDbLine
 62
7
  6
BYLAYER
 10
7.6854654221
 20
19.4340907978
 11
7.685465422
 21
19.4619886531
  0
LINE
  5
239
100
AcDbEntity
  8
0
100
AcDbLine
 62
7
  6
BYLAYER
 10
19.7397636496
 20
14.3198394025
 11
19.8213724888
 21
14.3402338429
  0
LINE
  5
23A
100
AcDbEntity
  8
0
100
AcDbLine
 62
7
  6
BYLAYER
 10
18.5397636496
 20
14.3198394025
 11
18.4581548103
 21
14.3402338429
  0
LINE
  5
23B
100
AcDbEntity
  8
0
100
AcDbLine
 62
7
  6
BYLAYER
 10
8.6912428189
 20
15.7748280202
 11
8.6824507207
 21
15.8486829352
  0
LINE
  5
23C
100
AcDbEntity
  8
0
100
AcDbLine
 62
7
  6
BYLAYER
 10
8.8052597299
 20
33.9263071895
 11
8.8052597299
 21
36.5263071895
  0
LINE
  5
23D
100
AcDbEntity
  8
0
100
AcDbLine
 62
7
  6
BYLAYER
 10
8.8052597299
 20
37.7263071895
 11
8.8052597299
 21
43.0763071895
  0
LINE
  5
23E
100
AcDbEntity
  8
0
100
AcDbLine
 62
7
  6
BYLAYER
 10
9.7231094154
 20
27.7593483689
 11
9.7231094154
 21
21.7432660102
  0
LINE
  5
23F
100
AcDbEntity
  8
0
100
AcDbLine
 62
7
  6
BYLAYER
 10
7.8091602529
 20
19.9461334811
 11
7.6854564071
 21
19.4619921125
  0
LINE
  5
240
100
AcDbEntity
  8
0
100
AcDbLine
 62
7
  6
BYLAYER
 10
7.6854569815
 20
19.4340929831
 11
7.5769294972
 21
19.0148965658
  0
LINE
  5
241
100
AcDbEntity
  8
0
100
AcDbLine
 62
7
  6
BYLAYER
 10
32.5575723053
 20
43.0035862028
 11
32.7397636496
 21
43.0763071895
  0
LINE
  5
242
100
AcDbEntity
  8
0
100
AcDbLine
 62
7
  6
BYLAYER
 10
26.2725878575
 20
16.3437675743
 11
12.00692497
 21
16.3437675743
  0
LINE
  5
243
100
AcDbEntity
  8
0
100
AcDbLine
 62
7
  6
BYLAYER
 10
12.0564178846
 20
16.3932660102
 11
26.2231094171
 21
16.3932660102
  0
LINE
  5
244
100
AcDbEntity
  8
0
100
AcDbLine
 62
7
  6
BYLAYER
 10
26.7228048289
 20
16.8929614237
 11
11.5567224702
 21
16.8929614237
  0
LINE
  5
245
100
AcDbEntity
  8
0
100
AcDbLine
 62
7
  6
BYLAYER
 10
9.7900682361
 20
21.6763071895
 11
9.7231094171
 21
21.7432660102
  0
LINE
  5
246
100
AcDbEntity
  8
0
100
AcDbLine
 62
7
  6
BYLAYER
 10
10.2228048289
 20
22.2429614246
 11
10.2897636496
 21
22.1760026031
  0
LINE
  5
247
100
AcDbEntity
  8
0
100
AcDbLine
 62
7
  6
BYLAYER
 10
5.4067224702
 20
27.2596529545
 11
5.3397636496
 21
27.326611776
  0
LINE
  5
248
100
AcDbEntity
  8
0
100
AcDbLine
 62
7
  6
BYLAYER
 10
10.2228048289
 20
22.2429614246
 11
10.2228048289
 21
27.2596529571
  0
LINE
  5
249
100
AcDbEntity
  8
0
100
AcDbLine
 62
7
  6
BYLAYER
 10
10.2897636496
 20
22.1760026031
 11
10.2897636496
 21
27.326611776
  0
LINE
  5
24A
100
AcDbEntity
  8
0
100
AcDbLine
 62
7
  6
BYLAYER
 10
10.4397636496
 20
40.3263071895
 11
10.4397636496
 21
33.9263071895
  0
LINE
  5
24B
100
AcDbEntity
  8
0
100
AcDbLine
 62
7
  6
BYLAYER
 10
10.4397636496
 20
14.4263071895
 11
10.4397636496
 21
14.3704552357
  0
LINE
  5
24C
100
AcDbEntity
  8
0
100
AcDbLine
 62
7
  6
BYLAYER
 10
10.4397636496
 20
29.0263071895
 11
10.4397636496
 21
32.2918032698
  0
LINE
  5
24D
100
AcDbEntity
  8
0
100
AcDbLine
 62
7
  6
BYLAYER
 10
11.4897636496
 20
27.326611776
 11
11.4897636496
 21
14.4263071895
  0
LINE
  5
24E
100
AcDbEntity
  8
0
100
AcDbLine
 62
7
  6
BYLAYER
 10
11.5072240343
 20
16.84346851
 11
11.5072240343
 21
14.4263071895
  0
LINE
  5
24F
100
AcDbEntity
  8
0
100
AcDbLine
 62
7
  6
BYLAYER
 10
11.5567224702
 20
27.2596529545
 11
11.5567224702
 21
16.892961422
  0
LINE
  5
250
100
AcDbEntity
  8
0
100
AcDbLine
 62
7
  6
BYLAYER
 10
5.5215152891
 20
12.3488764439
 11
5.8832558435
 21
13.3427504489
  0
LINE
  5
251
100
AcDbEntity
  8
0
100
AcDbLine
 62
7
  6
BYLAYER
 10
5.349078374
 20
14.3198394025
 11
5.7674244157
 21
14.4263071895
  0
LINE
  5
252
100
AcDbEntity
  8
0
100
AcDbLine
 62
7
  6
BYLAYER
 10
32.9304489252
 20
14.3198394025
 11
32.5121028834
 21
14.4263071895
  0
LINE
  5
253
100
AcDbEntity
  8
0
100
AcDbLine
 62
7
  6
BYLAYER
 10
5.8394590631
 20
27.8263071895
 11
5.906417882
 21
27.7593483689
  0
LINE
  5
254
100
AcDbEntity
  8
0
100
AcDbLine
 62
7
  6
BYLAYER
 10
12.0564178838
 20
16.3932660102
 11
12.0564178838
 21
27.7593483689
  0
LINE
  5
255
100
AcDbEntity
  8
0
100
AcDbLine
 62
7
  6
BYLAYER
 10
6.7343877805
 20
13.0329637583
 11
6.3737449772
 21
12.0421057998
  0
LINE
  5
256
100
AcDbEntity
  8
0
100
AcDbLine
 62
7
  6
BYLAYER
 10
9.7231094145
 20
27.7593483689
 11
9.7900682361
 21
27.8263071895
  0
LINE
  5
257
100
AcDbEntity
  8
0
100
AcDbLine
 62
7
  6
BYLAYER
 10
10.2897636496
 20
27.326611776
 11
10.2228048289
 21
27.2596529571
  0
LINE
  5
258
100
AcDbEntity
  8
0
100
AcDbLine
 62
7
  6
BYLAYER
 10
5.3397636496
 20
22.1760026031
 11
5.4067224702
 21
22.242961422
  0
LINE
  5
259
100
AcDbEntity
  8
0
100
AcDbLine
 62
7
  6
BYLAYER
 10
31.0937572906
 20
19.4340904408
 11
30.5940618771
 21
19.4340904408
  0
LINE
  5
25A
100
AcDbEntity
  8
0
100
AcDbLine
 62
7
  6
BYLAYER
 10
7.6854654221
 20
19.4340907978
 11
7.1857700085
 21
19.4340907978
  0
LINE
  5
25B
100
AcDbEntity
  8
0
100
AcDbLine
 62
7
  6
BYLAYER
 10
31.0937572906
 20
19.4619898091
 11
30.5940618771
 21
19.4619898091
  0
LINE
  5
25C
100
AcDbEntity
  8
0
100
AcDbLine
 62
7
  6
BYLAYER
 10
7.6854654221
 20
19.4619898091
 11
7.1857700085
 21
19.4619898091
  0
LINE
  5
25D
100
AcDbEntity
  8
0
100
AcDbLine
 62
7
  6
BYLAYER
 10
5.9064178846
 20
21.7432660102
 11
5.8394590631
 21
21.6763071895
  0
LINE
  5
25E
100
AcDbEntity
  8
0
100
AcDbLine
 62
7
  6
BYLAYER
 10
5.8394590631
 20
21.6763071895
 11
9.7900682361
 21
21.6763071895
  0
LINE
  5
25F
100
AcDbEntity
  8
0
100
AcDbLine
 62
7
  6
BYLAYER
 10
28.4894590631
 20
21.6763071895
 11
32.4400682361
 21
21.6763071895
  0
LINE
  5
260
100
AcDbEntity
  8
0
100
AcDbLine
 62
7
  6
BYLAYER
 10
5.9064178846
 20
21.7432660102
 11
9.7231094171
 21
21.7432660102
  0
LINE
  5
261
100
AcDbEntity
  8
0
100
AcDbLine
 62
7
  6
BYLAYER
 10
28.5564178846
 20
21.7432660102
 11
32.3731094171
 21
21.7432660102
  0
LINE
  5
262
100
AcDbEntity
  8
0
100
AcDbLine
 62
7
  6
BYLAYER
 10
11.5567224702
 20
27.2596529545
 11
11.4897636496
 21
27.326611776
  0
LINE
  5
263
100
AcDbEntity
  8
0
100
AcDbLine
 62
7
  6
BYLAYER
 10
32.5575723053
 20
36.4535862028
 11
32.7397636496
 21
36.5263071895
  0
LINE
  5
264
100
AcDbEntity
  8
0
100
AcDbLine
 62
7
  6
BYLAYER
 10
32.8728048289
 20
22.2429614237
 11
28.0567224702
 21
22.2429614237
  0
LINE
  5
265
100
AcDbEntity
  8
0
100
AcDbLine
 62
7
  6
BYLAYER
 10
10.2228048289
 20
22.2429614237
 11
5.4067224702
 21
22.2429614237
  0
LINE
  5
266
100
AcDbEntity
  8
0
100
AcDbLine
 62
7
  6
BYLAYER
 10
11.9894590631
 20
27.8263071895
 11
12.056417882
 21
27.7593483689
  0
LINE
  5
267
100
AcDbEntity
  8
0
100
AcDbLine
 62
7
  6
BYLAYER
 10
26.2726078513
 20
16.3437675743
 11
26.2231094171
 21
16.3932660102
  0
LINE
  5
268
100
AcDbEntity
  8
0
100
AcDbLine
 62
7
  6
BYLAYER
 10
26.7228048289
 20
16.8929614246
 11
26.7723032648
 21
16.8434629878
  0
LINE
  5
269
100
AcDbEntity
  8
0
100
AcDbLine
 62
7
  6
BYLAYER
 10
18.5397636496
 20
12.0032624517
 11
18.4581548103
 21
14.3402338429
  0
LINE
  5
26A
100
AcDbEntity
  8
0
100
AcDbLine
 62
7
  6
BYLAYER
 10
18.5397636496
 20
32.2918032698
 11
18.5397636496
 21
29.0263071895
  0
LINE
  5
26B
100
AcDbEntity
  8
0
100
AcDbLine
 62
7
  6
BYLAYER
 10
18.5397636496
 20
12.0032624517
 11
18.5397636496
 21
14.3198394025
  0
LINE
  5
26C
100
AcDbEntity
  8
0
100
AcDbLine
 62
7
  6
BYLAYER
 10
18.4566476323
 20
30.072294905
 11
18.5397636496
 21
32.2918032698
  0
LINE
  5
26D
100
AcDbEntity
  8
0
100
AcDbLine
 62
7
  6
BYLAYER
 10
19.8124934859
 20
29.2085207051
 11
19.7397636496
 21
29.0263071895
  0
LINE
  5
26E
100
AcDbEntity
  8
0
100
AcDbLine
 62
7
  6
BYLAYER
 10
8.6627231407
 20
15.8684105152
 11
9.0160611561
 21
16.2217485307
  0
LINE
  5
26F
100
AcDbEntity
  8
0
100
AcDbLine
 62
7
  6
BYLAYER
 10
30.1517960874
 20
14.4263071895
 11
31.5451395186
 21
13.0329637583
  0
LINE
  5
270
100
AcDbEntity
  8
0
100
AcDbLine
 62
7
  6
BYLAYER
 10
29.243738563
 20
16.2020209506
 11
29.5970765784
 21
15.8486829352
  0
LINE
  5
271
100
AcDbEntity
  8
0
100
AcDbLine
 62
7
  6
BYLAYER
 10
29.2634663955
 20
16.2217487831
 11
29.6168044109
 21
15.8684107677
  0
LINE
  5
272
100
AcDbEntity
  8
0
100
AcDbLine
 62
7
  6
BYLAYER
 10
31.9057823219
 20
12.0421057998
 11
29.7211483109
 21
14.3402338429
  0
LINE
  5
273
100
AcDbEntity
  8
0
100
AcDbLine
 62
7
  6
BYLAYER
 10
19.8228828675
 20
30.0722094341
 11
19.7397636496
 21
32.2918032698
  0
LINE
  5
274
100
AcDbEntity
  8
0
100
AcDbLine
 62
7
  6
BYLAYER
 10
19.7397636496
 20
32.2918032698
 11
19.7397636496
 21
29.0263071895
  0
LINE
  5
275
100
AcDbEntity
  8
0
100
AcDbLine
 62
7
  6
BYLAYER
 10
19.7397636496
 20
12.0032624517
 11
19.7397636496
 21
14.3198394025
  0
LINE
  5
276
100
AcDbEntity
  8
0
100
AcDbLine
 62
7
  6
BYLAYER
 10
19.7397636496
 20
12.0032624517
 11
19.8213724888
 21
14.3402338429
  0
LINE
  5
277
100
AcDbEntity
  8
0
100
AcDbLine
 62
7
  6
BYLAYER
 10
8.5583789883
 20
14.3402338429
 11
6.3737449772
 21
12.0421057998
  0
LINE
  5
278
100
AcDbEntity
  8
0
100
AcDbLine
 62
7
  6
BYLAYER
 10
8.6824507207
 20
15.8486829352
 11
9.0357887361
 21
16.2020209507
  0
LINE
  5
279
100
AcDbEntity
  8
0
100
AcDbLine
 62
7
  6
BYLAYER
 10
6.7343877805
 20
13.0329637583
 11
8.1277312117
 21
14.4263071895
  0
LINE
  5
27A
100
AcDbEntity
  8
0
100
AcDbLine
 62
7
  6
BYLAYER
 10
11.5072240343
 20
16.8434629878
 11
11.5567224702
 21
16.892961422
  0
LINE
  5
27B
100
AcDbEntity
  8
0
100
AcDbLine
 62
7
  6
BYLAYER
 10
5.4067224702
 20
27.2596529554
 11
10.2228048289
 21
27.2596529554
  0
LINE
  5
27C
100
AcDbEntity
  8
0
100
AcDbLine
 62
7
  6
BYLAYER
 10
11.5567224702
 20
27.2596529554
 11
26.7228048289
 21
27.2596529554
  0
LINE
  5
27D
100
AcDbEntity
  8
0
100
AcDbLine
 62
7
  6
BYLAYER
 10
28.0567224702
 20
27.2596529554
 11
32.8728048289
 21
27.2596529554
  0
LINE
  5
27E
100
AcDbEntity
  8
0
100
AcDbLine
 62
7
  6
BYLAYER
 10
32.3731094145
 20
27.7593483689
 11
28.556417882
 21
27.7593483689
  0
LINE
  5
27F
100
AcDbEntity
  8
0
100
AcDbLine
 62
7
  6
BYLAYER
 10
26.2231094145
 20
27.7593483689
 11
12.056417882
 21
27.7593483689
  0
LINE
  5
280
100
AcDbEntity
  8
0
100
AcDbLine
 62
7
  6
BYLAYER
 10
9.7231094145
 20
27.7593483689
 11
5.906417882
 21
27.7593483689
  0
LINE
  5
281
100
AcDbEntity
  8
0
100
AcDbLine
 62
7
  6
BYLAYER
 10
32.4400682361
 20
27.8263071895
 11
28.4894590631
 21
27.8263071895
  0
LINE
  5
282
100
AcDbEntity
  8
0
100
AcDbLine
 62
7
  6
BYLAYER
 10
26.2900682361
 20
27.8263071895
 11
11.9894590631
 21
27.8263071895
  0
LINE
  5
283
100
AcDbEntity
  8
0
100
AcDbLine
 62
7
  6
BYLAYER
 10
9.7900682361
 20
27.8263071895
 11
5.8394590631
 21
27.8263071895
  0
LINE
  5
284
100
AcDbEntity
  8
0
100
AcDbLine
 62
7
  6
BYLAYER
 10
18.4670426736
 20
29.208498507
 11
18.5397636496
 21
29.0263071895
  0
LINE
  5
285
100
AcDbEntity
  8
0
100
AcDbLine
 62
7
  6
BYLAYER
 10
12.0564178846
 20
16.3932660102
 11
12.0069194478
 21
16.3437675743
  0
LINE
  5
286
100
AcDbEntity
  8
0
100
AcDbLine
 62
7
  6
BYLAYER
 10
10.4397636496
 20
29.0263071895
 11
18.5397636496
 21
29.0263071895
  0
LINE
  5
287
100
AcDbEntity
  8
0
100
AcDbLine
 62
7
  6
BYLAYER
 10
19.7397636496
 20
29.0263071895
 11
27.8397636496
 21
29.0263071895
  0
LINE
  5
288
100
AcDbEntity
  8
0
100
AcDbLine
 62
7
  6
BYLAYER
 10
10.4397636496
 20
29.2085207051
 11
18.4670338133
 21
29.2085207051
  0
LINE
  5
289
100
AcDbEntity
  8
0
100
AcDbLine
 62
7
  6
BYLAYER
 10
19.8124934859
 20
29.2085207051
 11
27.8397636496
 21
29.2085207051
  0
LINE
  5
28A
100
AcDbEntity
  8
0
100
AcDbLine
 62
7
  6
BYLAYER
 10
26.2231094145
 20
27.7593483689
 11
26.2900682361
 21
27.8263071895
  0
LINE
  5
28B
100
AcDbEntity
  8
0
100
AcDbLine
 62
7
  6
BYLAYER
 10
27.8397636496
 20
30.072294905
 11
19.8228796668
 21
30.072294905
  0
LINE
  5
28C
100
AcDbEntity
  8
0
100
AcDbLine
 62
7
  6
BYLAYER
 10
18.4566476323
 20
30.072294905
 11
10.4397636496
 21
30.072294905
  0
LINE
  5
28D
100
AcDbEntity
  8
0
100
AcDbLine
 62
7
  6
BYLAYER
 10
5.7219771652
 20
36.4535773532
 11
5.5397636496
 21
36.5263071895
  0
LINE
  5
28E
100
AcDbEntity
  8
0
100
AcDbLine
 62
7
  6
BYLAYER
 10
26.7897636496
 20
27.326611776
 11
26.7228048289
 21
27.2596529571
  0
LINE
  5
28F
100
AcDbEntity
  8
0
100
AcDbLine
 62
7
  6
BYLAYER
 10
10.4397636496
 20
32.2918032698
 11
18.5397636496
 21
32.2918032698
  0
LINE
  5
290
100
AcDbEntity
  8
0
100
AcDbLine
 62
7
  6
BYLAYER
 10
19.7397636496
 20
32.2918032698
 11
27.8397636495
 21
32.2918032698
  0
LINE
  5
291
100
AcDbEntity
  8
0
100
AcDbLine
 62
7
  6
BYLAYER
 10
32.4400682361
 20
21.6763071895
 11
32.3731094171
 21
21.7432660102
  0
LINE
  5
292
100
AcDbEntity
  8
0
100
AcDbLine
 62
7
  6
BYLAYER
 10
26.2231094154
 20
27.7593483689
 11
26.2231094154
 21
16.3932660102
  0
LINE
  5
293
100
AcDbEntity
  8
0
100
AcDbLine
 62
7
  6
BYLAYER
 10
26.7228048289
 20
16.8929614246
 11
26.7228048289
 21
27.2596529571
  0
LINE
  5
294
100
AcDbEntity
  8
0
100
AcDbLine
 62
7
  6
BYLAYER
 10
26.7723032648
 20
14.4263071895
 11
26.7723032648
 21
16.8434829817
  0
LINE
  5
295
100
AcDbEntity
  8
0
100
AcDbLine
 62
7
  6
BYLAYER
 10
26.7897636496
 20
27.3266062538
 11
26.7897636496
 21
14.4263071895
  0
LINE
  5
296
100
AcDbEntity
  8
0
100
AcDbLine
 62
7
  6
BYLAYER
 10
32.7397636496
 20
33.9263071895
 11
29.4742675693
 21
33.9263071895
  0
LINE
  5
297
100
AcDbEntity
  8
0
100
AcDbLine
 62
7
  6
BYLAYER
 10
8.8052597299
 20
33.9263071895
 11
5.5397636496
 21
33.9263071895
  0
LINE
  5
298
100
AcDbEntity
  8
0
100
AcDbLine
 62
7
  6
BYLAYER
 10
10.4397636496
 20
33.9263071895
 11
27.8397636496
 21
33.9263071895
  0
LINE
  5
299
100
AcDbEntity
  8
0
100
AcDbLine
 62
7
  6
BYLAYER
 10
32.8728048289
 20
22.2429614246
 11
32.9397636496
 21
22.1760026031
  0
LINE
  5
29A
100
AcDbEntity
  8
0
100
AcDbLine
 62
7
  6
BYLAYER
 10
28.0567224702
 20
27.2596529545
 11
27.9897636496
 21
27.326611776
  0
LINE
  5
29B
100
AcDbEntity
  8
0
100
AcDbLine
 62
7
  6
BYLAYER
 10
28.4894590631
 20
27.8263071895
 11
28.556417882
 21
27.7593483689
  0
LINE
  5
29C
100
AcDbEntity
  8
0
100
AcDbLine
 62
7
  6
BYLAYER
 10
31.9057823219
 20
12.0421057998
 11
31.5451395186
 21
13.0329637583
  0
LINE
  5
29D
100
AcDbEntity
  8
0
100
AcDbLine
 62
7
  6
BYLAYER
 10
32.3962714556
 20
13.3427504489
 11
32.7580120101
 21
12.3488764439
  0
LINE
  5
29E
100
AcDbEntity
  8
0
100
AcDbLine
 62
7
  6
BYLAYER
 10
27.8397636496
 20
32.2918032698
 11
27.8397636496
 21
29.0263071895
  0
LINE
  5
29F
100
AcDbEntity
  8
0
100
AcDbLine
 62
7
  6
BYLAYER
 10
27.8397636496
 20
14.3704552357
 11
27.8397636496
 21
14.4263071895
  0
LINE
  5
2A0
100
AcDbEntity
  8
0
100
AcDbLine
 62
7
  6
BYLAYER
 10
27.8397636496
 20
33.9263071895
 11
27.8397636496
 21
40.3263071895
  0
LINE
  5
2A1
100
AcDbEntity
  8
0
100
AcDbLine
 62
7
  6
BYLAYER
 10
27.9897636496
 20
27.326611776
 11
27.9897636496
 21
22.1760026031
  0
LINE
  5
2A2
100
AcDbEntity
  8
0
100
AcDbLine
 62
7
  6
BYLAYER
 10
28.0567224702
 20
27.2596529545
 11
28.0567224702
 21
22.242961422
  0
LINE
  5
2A3
100
AcDbEntity
  8
0
100
AcDbLine
 62
7
  6
BYLAYER
 10
28.5564178838
 20
21.7432660102
 11
28.5564178838
 21
27.7593483689
  0
LINE
  5
2A4
100
AcDbEntity
  8
0
100
AcDbLine
 62
7
  6
BYLAYER
 10
32.3731094145
 20
27.7593483689
 11
32.4400682361
 21
27.8263071895
  0
LINE
  5
2A5
100
AcDbEntity
  8
0
100
AcDbLine
 62
7
  6
BYLAYER
 10
32.9397636496
 20
27.326611776
 11
32.8728048289
 21
27.2596529571
  0
LINE
  5
2A6
100
AcDbEntity
  8
0
100
AcDbLine
 62
7
  6
BYLAYER
 10
27.9897636496
 20
22.1760026031
 11
28.0567224702
 21
22.242961422
  0
LINE
  5
2A7
100
AcDbEntity
  8
0
100
AcDbLine
 62
7
  6
BYLAYER
 10
30.5940618771
 20
19.4340904408
 11
30.7026055778
 21
19.0148368058
  0
LINE
  5
2A8
100
AcDbEntity
  8
0
100
AcDbLine
 62
7
  6
BYLAYER
 10
30.4703565094
 20
19.9461307889
 11
30.594060535
 21
19.4619894661
  0
LINE
  5
2A9
100
AcDbEntity
  8
0
100
AcDbLine
 62
7
  6
BYLAYER
 10
29.4742675693
 20
33.9263071896
 11
29.4742675693
 21
36.5263071895
  0
LINE
  5
2AA
100
AcDbEntity
  8
0
100
AcDbLine
 62
7
  6
BYLAYER
 10
29.4742675693
 20
37.7263071895
 11
29.4742675693
 21
43.0763071895
  0
LINE
  5
2AB
100
AcDbEntity
  8
0
100
AcDbLine
 62
7
  6
BYLAYER
 10
28.5564178846
 20
21.7432660102
 11
28.4894590631
 21
21.6763071895
  0
LINE
  5
2AC
100
AcDbEntity
  8
0
100
AcDbLine
 62
7
  6
BYLAYER
 10
6.5856656843
 20
36.4431879637
 11
8.8052597299
 21
36.5263071895
  0
LINE
  5
2AD
100
AcDbEntity
  8
0
100
AcDbLine
 62
7
  6
BYLAYER
 10
31.6938616157
 20
37.8094264154
 11
29.4742675693
 21
37.7263071895
  0
LINE
  5
2AE
100
AcDbEntity
  8
0
100
AcDbLine
 62
7
  6
BYLAYER
 10
5.5397636496
 20
36.5263071895
 11
8.8052597299
 21
36.5263071895
  0
LINE
  5
2AF
100
AcDbEntity
  8
0
100
AcDbLine
 62
7
  6
BYLAYER
 10
29.4742675693
 20
36.5263071895
 11
32.7397636496
 21
36.5263071895
  0
LINE
  5
2B0
100
AcDbEntity
  8
0
100
AcDbLine
 62
7
  6
BYLAYER
 10
31.6937759341
 20
36.4431911723
 11
29.4742675693
 21
36.5263071895
  0
LINE
  5
2B1
100
AcDbEntity
  8
0
100
AcDbLine
 62
7
  6
BYLAYER
 10
6.585751365
 20
37.8094232068
 11
8.8052597299
 21
37.7263071895
  0
LINE
  5
2B2
100
AcDbEntity
  8
0
100
AcDbLine
 62
7
  6
BYLAYER
 10
5.7219771652
 20
43.0035773532
 11
5.5397636496
 21
43.0763071895
  0
LINE
  5
2B3
100
AcDbEntity
  8
0
100
AcDbLine
 62
7
  6
BYLAYER
 10
30.5940618771
 20
19.4619898091
 11
30.5940618771
 21
19.4340904408
  0
LINE
  5
2B4
100
AcDbEntity
  8
0
100
AcDbLine
 62
7
  6
BYLAYER
 10
31.0937572906
 20
19.4340739928
 11
31.0937572906
 21
19.4619898091
  0
LINE
  5
2B5
100
AcDbEntity
  8
0
100
AcDbLine
 62
7
  6
BYLAYER
 10
31.1397636496
 20
18.9263071895
 11
31.1397636496
 21
19.5204300725
  0
LINE
  5
2B6
100
AcDbEntity
  8
0
100
AcDbLine
 62
7
  6
BYLAYER
 10
31.6937759341
 20
42.9931911723
 11
31.6937759341
 21
37.8094232068
  0
LINE
  5
2B7
100
AcDbEntity
  8
0
100
AcDbLine
 62
7
  6
BYLAYER
 10
31.6937759341
 20
36.4431911723
 11
31.6937759341
 21
33.9263071895
  0
LINE
  5
2B8
100
AcDbEntity
  8
0
100
AcDbLine
 62
7
  6
BYLAYER
 10
29.5970765784
 20
15.8486829352
 11
29.5882844802
 21
15.7748280202
  0
LINE
  5
2B9
100
AcDbEntity
  8
0
100
AcDbLine
 62
7
  6
BYLAYER
 10
5.5397636496
 20
37.7263071895
 11
8.8052597299
 21
37.7263071895
  0
LINE
  5
2BA
100
AcDbEntity
  8
0
100
AcDbLine
 62
7
  6
BYLAYER
 10
29.4742675693
 20
37.7263071895
 11
32.7397636496
 21
37.7263071895
  0
LINE
  5
2BB
100
AcDbEntity
  8
0
100
AcDbLine
 62
7
  6
BYLAYER
 10
32.3731094154
 20
27.7593483689
 11
32.3731094154
 21
21.7432660102
  0
LINE
  5
2BC
100
AcDbEntity
  8
0
100
AcDbLine
 62
7
  6
BYLAYER
 10
32.557550134
 20
33.9263071895
 11
32.557550134
 21
36.4535773532
  0
LINE
  5
2BD
100
AcDbEntity
  8
0
100
AcDbLine
 62
7
  6
BYLAYER
 10
32.557550134
 20
37.7990370258
 11
32.557550134
 21
43.0035773532
  0
LINE
  5
2BE
100
AcDbEntity
  8
0
100
AcDbLine
 62
7
  6
BYLAYER
 10
32.7397636496
 20
33.9263071895
 11
32.7397636496
 21
36.5263071895
  0
LINE
  5
2BF
100
AcDbEntity
  8
0
100
AcDbLine
 62
7
  6
BYLAYER
 10
32.7397636496
 20
37.7263071895
 11
32.7397636496
 21
43.0763071895
  0
LINE
  5
2C0
100
AcDbEntity
  8
0
100
AcDbLine
 62
7
  6
BYLAYER
 10
32.8728048289
 20
22.2429614246
 11
32.8728048289
 21
27.2596529571
  0
LINE
  5
2C1
100
AcDbEntity
  8
0
100
AcDbLine
 62
7
  6
BYLAYER
 10
32.9397636496
 20
22.1760026031
 11
32.9397636496
 21
27.326611776
  0
LINE
  5
2C2
100
AcDbEntity
  8
0
100
AcDbLine
 62
7
  6
BYLAYER
 10
31.1397636496
 20
19.5204300725
 11
31.0937572906
 21
19.4619898091
  0
LINE
  5
2C3
100
AcDbEntity
  8
0
100
AcDbLine
 62
7
  6
BYLAYER
 10
28.8139318357
 20
15.9471451308
 11
29.2437433088
 21
16.2020129473
  0
LINE
  5
2C4
100
AcDbEntity
  8
0
100
AcDbLine
 62
7
  6
BYLAYER
 10
29.2634708187
 20
16.2217412696
 11
29.6366279956
 21
16.4414173743
  0
LINE
  5
2C5
100
AcDbEntity
  8
0
100
AcDbLine
 62
7
  6
BYLAYER
 10
27.8397636496
 20
40.3263071895
 11
10.4397636496
 21
40.3263071895
  0
LINE
  5
2C6
100
AcDbEntity
  8
0
100
AcDbLine
 62
7
  6
BYLAYER
 10
34.1397636496
 20
9.4263071895
 11
34.1397636496
 21
44.2763071895
  0
LINE
  5
2C7
100
AcDbEntity
  8
0
100
AcDbLine
 62
7
  6
BYLAYER
 10
32.3962714557
 20
13.3427504489
 11
32.4910703867
 21
14.4263071895
  0
LINE
  5
2C8
100
AcDbEntity
  8
0
100
AcDbLine
 62
7
  6
BYLAYER
 10
32.9304489252
 20
14.3198394025
 11
32.7580120101
 21
12.3488764438
  0
LINE
  5
2C9
100
AcDbEntity
  8
0
100
AcDbLine
 62
7
  6
BYLAYER
 10
29.2437393804
 20
16.202021768
 11
29.2634663955
 21
16.2217487831
  0
LINE
  5
2CA
100
AcDbEntity
  8
0
100
AcDbLine
 62
7
  6
BYLAYER
 10
29.5970765784
 20
15.8486829352
 11
29.6168161417
 21
15.8684224985
  0
LINE
  5
2CB
100
AcDbEntity
  8
0
100
AcDbLine
 62
7
  6
BYLAYER
 10
30.0083927997
 20
16.1949363396
 11
29.588324169
 21
15.774867709
  0
LINE
  5
2CC
100
AcDbEntity
  8
0
100
AcDbLine
 62
7
  6
BYLAYER
 10
32.557550134
 20
37.7990370258
 11
32.7397636496
 21
37.7263071895
  0
LINE
  5
2CD
100
AcDbEntity
  8
0
100
AcDbLine
 62
7
  6
BYLAYER
 10
6.5856656843
 20
42.9931879637
 11
8.8052597299
 21
43.0763071895
  0
LINE
  5
2CE
100
AcDbEntity
  8
0
100
AcDbLine
 62
7
  6
BYLAYER
 10
8.8052597299
 20
43.0763071895
 11
5.5397636496
 21
43.0763071895
  0
LINE
  5
2CF
100
AcDbEntity
  8
0
100
AcDbLine
 62
7
  6
BYLAYER
 10
29.4742675693
 20
43.0763071895
 11
32.7397636496
 21
43.0763071895
  0
LINE
  5
2D0
100
AcDbEntity
  8
0
100
AcDbLine
 62
7
  6
BYLAYER
 10
31.6937759341
 20
42.9931911723
 11
29.4742675693
 21
43.0763071895
  0
LINE
  5
2D1
100
AcDbEntity
  8
0
100
AcDbLine
 62
7
  6
BYLAYER
 10
34.1397636496
 20
44.2763071895
 11
4.1397636496
 21
44.2763071895
  0
ARC
  5
2D2
100
AcDbEntity
  8
0
100
AcDbCircle
 62
7
  6
BYLAYER
 10
-8.6385389521
 20
-4.5730069253
 40
27.2076185625
100
AcDbArc
 50
50.5674631246
 51
50.8752056004
  0
ARC
  5
2D3
100
AcDbEntity
  8
0
100
AcDbCircle
 62
7
  6
BYLAYER
 10
4.6397636496
 20
9.4263071895
 40
0.5
100
AcDbArc
 50
180.0
 51
270.0
  0
ARC
  5
2D4
100
AcDbEntity
  8
0
100
AcDbCircle
 62
7
  6
BYLAYER
 10
-19.4876159597
 20
21.6530467944
 40
27.1928267151
100
AcDbArc
 50
354.1246991455
 51
354.4326090172
  0
ARC
  5
2D5
100
AcDbEntity
  8
0
100
AcDbCircle
 62
7
  6
BYLAYER
 10
10.4397636496
 20
33.9263071895
 40
4.9
100
AcDbArc
 50
180.0
 51
270.0
  0
ARC
  5
2D6
100
AcDbEntity
  8
0
100
AcDbCircle
 62
7
  6
BYLAYER
 10
10.4397636496
 20
33.9263071895
 40
4.7177864851
100
AcDbArc
 50
180.0
 51
270.0
  0
ARC
  5
2D7
100
AcDbEntity
  8
0
100
AcDbCircle
 62
7
  6
BYLAYER
 10
10.4397636496
 20
33.9263071895
 40
3.8540121616
100
AcDbArc
 50
180.0
 51
270.0
  0
ARC
  5
2D8
100
AcDbEntity
  8
0
100
AcDbCircle
 62
7
  6
BYLAYER
 10
7.1397636496
 20
17.3263071895
 40
2.75
100
AcDbArc
 50
327.8305857387
 51
77.1694045285
  0
ARC
  5
2D9
100
AcDbEntity
  8
0
100
AcDbCircle
 62
7
  6
BYLAYER
 10
7.1397636496
 20
17.3263071895
 40
2.703993641
100
AcDbArc
 50
329.3333253581
 51
75.6666745887
  0
ARC
  5
2DA
100
AcDbEntity
  8
0
100
AcDbCircle
 62
7
  6
BYLAYER
 10
7.1397636496
 20
17.3263071895
 40
2.2042982275
100
AcDbArc
 50
329.3333254062
 51
75.6666671552
  0
ARC
  5
2DB
100
AcDbEntity
  8
0
100
AcDbCircle
 62
7
  6
BYLAYER
 10
7.1397636496
 20
17.3263071895
 40
2.1772786142
100
AcDbArc
 50
329.5150790719
 51
75.4849209279
  0
ARC
  5
2DC
100
AcDbEntity
  8
0
100
AcDbCircle
 62
7
  6
BYLAYER
 10
7.1397636496
 20
17.3263071895
 40
1.7442614655
100
AcDbArc
 50
329.5150791435
 51
75.484920864
  0
ARC
  5
2DD
100
AcDbEntity
  8
0
100
AcDbCircle
 62
7
  6
BYLAYER
 10
10.4397636496
 20
33.9263071895
 40
1.6345039197
100
AcDbArc
 50
179.9999999991
 51
270.0000000009
  0
CIRCLE
  5
2DE
100
AcDbEntity
  8
0
100
AcDbCircle
 62
7
  6
BYLAYER
 10
7.1397636496
 20
17.3263071895
 40
1.6
  0
ARC
  5
2DF
100
AcDbEntity
  8
0
100
AcDbCircle
 62
7
  6
BYLAYER
 10
7.686261211
 20
19.461052862
 40
0.5004554925
100
AcDbArc
 50
75.7815031253
 51
179.8927294511
  0
ARC
  5
2E0
100
AcDbEntity
  8
0
100
AcDbCircle
 62
7
  6
BYLAYER
 10
9.0356888194
 20
16.2032461899
 40
0.5004551547
100
AcDbArc
 50
225.1072797416
 51
329.2185018816
  0
ARC
  5
2E1
100
AcDbEntity
  8
0
100
AcDbCircle
 62
7
  6
BYLAYER
 10
12.0571469874
 20
16.8936905274
 40
0.5004218975
100
AcDbArc
 50
180.0834747651
 51
269.9165253344
  0
ARC
  5
2E2
100
AcDbEntity
  8
0
100
AcDbCircle
 62
7
  6
BYLAYER
 10
12.0571469874
 20
27.2589238517
 40
0.5004218975
100
AcDbArc
 50
90.0834747658
 51
179.9165253336
  0
ARC
  5
2E3
100
AcDbEntity
  8
0
100
AcDbCircle
 62
7
  6
BYLAYER
 10
9.7223803117
 20
22.2436905274
 40
0.5004218975
100
AcDbArc
 50
270.083474768
 51
359.9165253314
  0
ARC
  5
2E4
100
AcDbEntity
  8
0
100
AcDbCircle
 62
7
  6
BYLAYER
 10
9.7223803117
 20
27.2589238517
 40
0.5004218975
100
AcDbArc
 50
0.0834747658
 51
89.9165253334
  0
ARC
  5
2E5
100
AcDbEntity
  8
0
100
AcDbCircle
 62
7
  6
BYLAYER
 10
5.9071469874
 20
27.2589238517
 40
0.5004218975
100
AcDbArc
 50
90.0834747656
 51
179.9165253336
  0
ARC
  5
2E6
100
AcDbEntity
  8
0
100
AcDbCircle
 62
7
  6
BYLAYER
 10
5.9071469874
 20
22.2436905274
 40
0.5004218975
100
AcDbArc
 50
180.0834747677
 51
269.9165253317
  0
ARC
  5
2E7
100
AcDbEntity
  8
0
100
AcDbCircle
 62
7
  6
BYLAYER
 10
12.0067940081
 20
16.8433375481
 40
0.4995568012
100
AcDbArc
 50
179.9849799497
 51
270.0150200509
  0
ARC
  5
2E8
100
AcDbEntity
  8
0
100
AcDbCircle
 62
7
  6
BYLAYER
 10
11.9893336233
 20
27.3267372158
 40
0.4995568012
100
AcDbArc
 50
89.9849799393
 51
180.0150200613
  0
ARC
  5
2E9
100
AcDbEntity
  8
0
100
AcDbCircle
 62
7
  6
BYLAYER
 10
5.8393336233
 20
27.3267372158
 40
0.4995568012
100
AcDbArc
 50
89.9849799455
 51
180.015020055
  0
ARC
  5
2EA
100
AcDbEntity
  8
0
100
AcDbCircle
 62
7
  6
BYLAYER
 10
5.8393336233
 20
22.1758771633
 40
0.4995568012
100
AcDbArc
 50
179.9849799463
 51
270.0150200542
  0
ARC
  5
2EB
100
AcDbEntity
  8
0
100
AcDbCircle
 62
7
  6
BYLAYER
 10
9.7901937108
 20
27.3267372508
 40
0.4995567994
100
AcDbArc
 50
359.9849759274
 51
90.0150240731
  0
ARC
  5
2EC
100
AcDbEntity
  8
0
100
AcDbCircle
 62
7
  6
BYLAYER
 10
9.7901941875
 20
22.1758766517
 40
0.499556124
100
AcDbArc
 50
269.9832614978
 51
0.016738509
  0
ARC
  5
2ED
100
AcDbEntity
  8
0
100
AcDbCircle
 62
7
  6
BYLAYER
 10
9.0446115961
 20
16.1278807901
 40
0.4994994924
100
AcDbArc
 50
224.9679462336
 51
327.8596406719
  0
ARC
  5
2EE
100
AcDbEntity
  8
0
100
AcDbCircle
 62
7
  6
BYLAYER
 10
7.6392788657
 20
19.5206535999
 40
0.4994992904
100
AcDbArc
 50
77.1402758164
 51
180.031854826
  0
ARC
  5
2EF
100
AcDbEntity
  8
0
100
AcDbCircle
 62
7
  6
BYLAYER
 10
46.9086933359
 20
-4.5615559455
 40
27.1928206836
100
AcDbArc
 50
129.1246984022
 51
129.432607559
  0
ARC
  5
2F0
100
AcDbEntity
  8
0
100
AcDbCircle
 62
7
  6
BYLAYER
 10
33.6397636496
 20
9.4263071895
 40
0.5
100
AcDbArc
 50
270.0
 51
360.0
  0
ARC
  5
2F1
100
AcDbEntity
  8
0
100
AcDbCircle
 62
7
  6
BYLAYER
 10
57.7818594115
 20
21.6545159698
 40
27.2076158077
100
AcDbArc
 50
185.5674642288
 51
185.875206144
  0
ARC
  5
2F2
100
AcDbEntity
  8
0
100
AcDbCircle
 62
7
  6
BYLAYER
 10
27.8397636496
 20
33.9263071895
 40
4.9
100
AcDbArc
 50
270.0
 51
360.0
  0
ARC
  5
2F3
100
AcDbEntity
  8
0
100
AcDbCircle
 62
7
  6
BYLAYER
 10
27.8397636496
 20
33.9263071895
 40
4.7177864851
100
AcDbArc
 50
270.0
 51
360.0
  0
ARC
  5
2F4
100
AcDbEntity
  8
0
100
AcDbCircle
 62
7
  6
BYLAYER
 10
27.8397636496
 20
33.9263071895
 40
3.8540121616
100
AcDbArc
 50
270.0
 51
360.0
  0
ARC
  5
2F5
100
AcDbEntity
  8
0
100
AcDbCircle
 62
7
  6
BYLAYER
 10
31.1397636496
 20
17.3263071895
 40
2.75
100
AcDbArc
 50
102.8305737747
 51
212.1694121355
  0
ARC
  5
2F6
100
AcDbEntity
  8
0
100
AcDbCircle
 62
7
  6
BYLAYER
 10
31.1397636496
 20
17.3263071895
 40
2.703993641
100
AcDbArc
 50
104.3333254106
 51
210.6666746395
  0
ARC
  5
2F7
100
AcDbEntity
  8
0
100
AcDbCircle
 62
7
  6
BYLAYER
 10
31.1397636496
 20
17.3263071895
 40
2.2042982275
100
AcDbArc
 50
104.3333254064
 51
210.6666671553
  0
ARC
  5
2F8
100
AcDbEntity
  8
0
100
AcDbCircle
 62
7
  6
BYLAYER
 10
31.1397636496
 20
17.3263071895
 40
2.1772782686
100
AcDbArc
 50
104.5150814267
 51
210.4849185733
  0
ARC
  5
2F9
100
AcDbEntity
  8
0
100
AcDbCircle
 62
7
  6
BYLAYER
 10
31.1397636496
 20
17.3263071895
 40
1.7442610984
100
AcDbArc
 50
104.5150036686
 51
210.4849185092
  0
ARC
  5
2FA
100
AcDbEntity
  8
0
100
AcDbCircle
 62
7
  6
BYLAYER
 10
27.8397636496
 20
33.9263071895
 40
1.6345039197
100
AcDbArc
 50
269.9999999991
 51
360.0
  0
CIRCLE
  5
2FB
100
AcDbEntity
  8
0
100
AcDbCircle
 62
7
  6
BYLAYER
 10
31.1397636496
 20
17.3263071895
 40
1.6
  0
ARC
  5
2FC
100
AcDbEntity
  8
0
100
AcDbCircle
 62
7
  6
BYLAYER
 10
29.2438383698
 20
16.203246072
 40
0.5004554901
100
AcDbArc
 50
210.7814926326
 51
314.8927387574
  0
ARC
  5
2FD
100
AcDbEntity
  8
0
100
AcDbCircle
 62
7
  6
BYLAYER
 10
30.5932660865
 20
19.4610526955
 40
0.5004551546
100
AcDbArc
 50
0.1072896544
 51
104.2184919681
  0
ARC
  5
2FE
100
AcDbEntity
  8
0
100
AcDbCircle
 62
7
  6
BYLAYER
 10
32.3723803117
 20
22.2436905274
 40
0.5004218975
100
AcDbArc
 50
270.0834747679
 51
359.9165253313
  0
ARC
  5
2FF
100
AcDbEntity
  8
0
100
AcDbCircle
 62
7
  6
BYLAYER
 10
26.2223803117
 20
27.2589238516
 40
0.5004218976
100
AcDbArc
 50
0.0834747725
 51
89.9165253267
  0
ARC
  5
300
100
AcDbEntity
  8
0
100
AcDbCircle
 62
7
  6
BYLAYER
 10
26.2223803117
 20
16.8936905274
 40
0.5004218975
100
AcDbArc
 50
270.0834747668
 51
359.9165253328
  0
ARC
  5
301
100
AcDbEntity
  8
0
100
AcDbCircle
 62
7
  6
BYLAYER
 10
32.3723803117
 20
27.2589238517
 40
0.5004218975
100
AcDbArc
 50
0.0834747639
 51
89.9165253353
  0
ARC
  5
302
100
AcDbEntity
  8
0
100
AcDbCircle
 62
7
  6
BYLAYER
 10
28.5571469874
 20
22.2436905274
 40
0.5004218976
100
AcDbArc
 50
180.0834747706
 51
269.9165253289
  0
ARC
  5
303
100
AcDbEntity
  8
0
100
AcDbCircle
 62
7
  6
BYLAYER
 10
28.5571469874
 20
27.2589238517
 40
0.5004218976
100
AcDbArc
 50
90.0834747686
 51
179.9165253308
  0
ARC
  5
304
100
AcDbEntity
  8
0
100
AcDbCircle
 62
7
  6
BYLAYER
 10
28.4893336233
 20
27.3267372158
 40
0.4995568012
100
AcDbArc
 50
89.9849799511
 51
180.0150200494
  0
ARC
  5
305
100
AcDbEntity
  8
0
100
AcDbCircle
 62
7
  6
BYLAYER
 10
28.4893336233
 20
22.1758771633
 40
0.4995568012
100
AcDbArc
 50
179.9849799541
 51
270.0150200464
  0
ARC
  5
306
100
AcDbEntity
  8
0
100
AcDbCircle
 62
7
  6
BYLAYER
 10
26.2901937108
 20
27.3267372508
 40
0.4995567994
100
AcDbArc
 50
359.9849759289
 51
90.0150240716
  0
ARC
  5
307
100
AcDbEntity
  8
0
100
AcDbCircle
 62
7
  6
BYLAYER
 10
26.2727338027
 20
16.8433370364
 40
0.4995561241
100
AcDbArc
 50
269.9832614998
 51
0.016738507
  0
ARC
  5
308
100
AcDbEntity
  8
0
100
AcDbCircle
 62
7
  6
BYLAYER
 10
32.4401941874
 20
22.1758766517
 40
0.499556124
100
AcDbArc
 50
269.9832614987
 51
0.0167385081
  0
ARC
  5
309
100
AcDbEntity
  8
0
100
AcDbCircle
 62
7
  6
BYLAYER
 10
32.4401941874
 20
27.3267377274
 40
0.4995561241
100
AcDbArc
 50
359.9832615
 51
90.0167385068
  0
ARC
  5
30A
100
AcDbEntity
  8
0
100
AcDbCircle
 62
7
  6
BYLAYER
 10
29.2349156997
 20
16.1278807526
 40
0.4994994555
100
AcDbArc
 50
212.1403441882
 51
315.0320718203
  0
ARC
  5
30B
100
AcDbEntity
  8
0
100
AcDbCircle
 62
7
  6
BYLAYER
 10
30.6402482327
 20
19.5206535592
 40
0.4994994384
100
AcDbArc
 50
359.9679715232
 51
102.8595812447
  0
LINE
  5
30C
100
AcDbEntity
  8
0
100
AcDbLine
 62
7
  6
BYLAYER
 10
29.6168161417
 20
15.8684224985
 11
29.9971459571
 21
16.206296118
  0
LINE
  5
30D
100
AcDbEntity
  8
0
100
AcDbLine
 62
7
  6
BYLAYER
 10
28.8119421829
 20
15.8620938652
 11
28.8138889474
 21
15.9471329727
  0
LINE
  5
30E
100
AcDbEntity
  8
0
100
AcDbLine
 62
7
  6
BYLAYER
 10
30.5291001908
 20
20.0076819558
 11
30.4703454392
 21
19.9461719326
  0
LINE
  5
30F
100
AcDbEntity
  8
0
100
AcDbLine
 62
7
  6
BYLAYER
 10
31.0937572906
 20
19.4340739928
 11
31.123778364
 21
18.926227332
  0
SPLINE
  5
310
100
AcDbEntity
  8
0
100
AcDbSpline
 62
7
  6
BYLAYER
 70
0
 71
3
 72
14
 73
10
 74
0
 42
0.0000001
 43
0.0000001
 44
0.0000000001
 40
0.0
 40
0.0
 40
0.0
 40
0.0
 40
0.2576445287
 40
0.3899808376
 40
0.5211167052
 40
0.6489064657
 40
0.771891648
 40
0.8889616908
 40
1.0
 40
1.0
 40
1.0
 40
1.0
 10
30.7026020125
 20
19.01489673
 30
0.0
 10
30.7545351545
 20
19.0256564679
 30
0.0
 10
30.8315647332
 20
19.053054476
 30
0.0
 10
30.9221089161
 20
19.1111870959
 30
0.0
 10
30.9824338845
 20
19.1651691416
 30
0.0
 10
31.0310700174
 20
19.2274548755
 30
0.0
 10
31.0666498235
 20
19.2947858678
 30
0.0
 10
31.0879187149
 20
19.364284204
 30
0.0
 10
31.0932892035
 20
19.4112380296
 30
0.0
 10
31.0937573156
 20
19.4340904413
 30
0.0
  0
SPLINE
  5
311
100
AcDbEntity
  8
0
100
AcDbSpline
 62
7
  6
BYLAYER
 70
0
 71
3
 72
14
 73
10
 74
0
 42
0.0000001
 43
0.0000001
 44
0.0000000001
 40
0.0
 40
0.0
 40
0.0
 40
0.0
 40
0.1110383325
 40
0.228108439
 40
0.3510937174
 40
0.4788835776
 40
0.6100195224
 40
0.7423558278
 40
1.0
 40
1.0
 40
1.0
 40
1.0
 10
29.6168044187
 20
15.8684107606
 30
0.0
 10
29.6326326202
 20
15.8849009747
 30
0.0
 10
29.6620366714
 20
15.9219001364
 30
0.0
 10
29.6961401671
 20
15.9860827957
 30
0.0
 10
29.7185915903
 20
16.0588523369
 30
0.0
 10
29.7282430543
 20
16.1372865732
 30
0.0
 10
29.7237574808
 20
16.2181144009
 30
0.0
 10
29.7008382808
 20
16.3232452963
 30
0.0
 10
29.6657427612
 20
16.3970869598
 30
0.0
 10
29.6366282813
 20
16.4414175417
 30
0.0
  0
SPLINE
  5
312
100
AcDbEntity
  8
0
100
AcDbSpline
 62
7
  6
BYLAYER
 70
0
 71
3
 72
14
 73
10
 74
0
 42
0.0000001
 43
0.0000001
 44
0.0000000001
 40
0.0
 40
0.0
 40
0.0
 40
0.0
 40
0.1110383292
 40
0.2281084331
 40
0.35109371
 40
0.47888357
 40
0.6100195158
 40
0.7423558231
 40
1.0
 40
1.0
 40
1.0
 40
1.0
 10
7.185769998
 20
19.4340907974
 30
0.0
 10
7.1862381117
 20
19.411238227
 30
0.0
 10
7.1916086663
 20
19.3642840655
 30
0.0
 10
7.2128778485
 20
19.2947852601
 30
0.0
 10
7.2484581334
 20
19.2274538718
 30
0.0
 10
7.2970949014
 20
19.1651678775
 30
0.0
 10
7.3574205897
 20
19.1111857541
 30
0.0
 10
7.4479656859
 20
19.0530533099
 30
0.0
 10
7.5249959103
 20
19.0256556521
 30
0.0
 10
7.5769294135
 20
19.0148962454
 30
0.0
  0
LINE
  5
313
100
AcDbEntity
  8
0
100
AcDbLine
 62
7
  6
BYLAYER
 10
7.1857700085
 20
19.4340742087
 11
7.1557489294
 21
18.926227332
  0
SPLINE
  5
314
100
AcDbEntity
  8
0
100
AcDbSpline
 62
7
  6
BYLAYER
 70
0
 71
3
 72
21
 73
17
 74
0
 42
0.0000001
 43
0.0000001
 44
0.0000000001
 40
0.0
 40
0.0
 40
0.0
 40
0.0
 40
0.1295310076
 40
0.2832844836
 40
0.4484897172
 40
0.6116184559
 40
0.6881620443
 40
0.7592018098
 40
0.8233058455
 40
0.8791224181
 40
0.9255219269
 40
0.9615621859
 40
0.9754480251
 40
0.9865046842
 40
0.9946935607
 40
1.0
 40
1.0
 40
1.0
 40
1.0
 10
31.6938616157
 20
37.8094264154
 30
0.0
 10
31.7311579105
 20
37.8108230848
 30
0.0
 10
31.8127588825
 20
37.8129560885
 30
0.0
 10
31.94197428
 20
37.8147248597
 30
0.0
 10
32.0808822516
 20
37.8151879013
 30
0.0
 10
32.1975416033
 20
37.8144473412
 30
0.0
 10
32.2870594194
 20
37.8131289473
 30
0.0
 10
32.3480410228
 20
37.8118450503
 30
0.0
 10
32.4030415567
 20
37.8102796782
 30
0.0
 10
32.4509316225
 20
37.8084721218
 30
0.0
 10
32.4907170787
 20
37.8064580776
 30
0.0
 10
32.5184122695
 20
37.8045535477
 30
0.0
 10
32.5358997996
 20
37.8028523925
 30
0.0
 10
32.5453810336
 20
37.8016857335
 30
0.0
 10
32.5523487957
 20
37.8005070628
 30
0.0
 10
32.5561522734
 20
37.7995949766
 30
0.0
 10
32.5575723056
 20
37.7990281761
 30
0.0
  0
SPLINE
  5
315
100
AcDbEntity
  8
0
100
AcDbSpline
 62
7
  6
BYLAYER
 70
0
 71
3
 72
21
 73
17
 74
0
 42
0.0000001
 43
0.0000001
 44
0.0000000001
 40
0.0
 40
0.0
 40
0.0
 40
0.0
 40
0.0053064405
 40
0.0134953202
 40
0.024551984
 40
0.0384378287
 40
0.0744781042
 40
0.1208776408
 40
0.1766942383
 40
0.2407983133
 40
0.3118381106
 40
0.3883817295
 40
0.5515104989
 40
0.7167157274
 40
0.8704690907
 40
1.0
 40
1.0
 40
1.0
 40
1.0
 10
32.5575723053
 20
43.0035862028
 30
0.0
 10
32.5561522727
 20
43.0030194022
 30
0.0
 10
32.5523487937
 20
43.0021073161
 30
0.0
 10
32.545381029
 20
43.0009286453
 30
0.0
 10
32.5358997912
 20
42.9997619861
 30
0.0
 10
32.5184122536
 20
42.9980608303
 30
0.0
 10
32.4907170487
 20
42.9961562995
 30
0.0
 10
32.4509315729
 20
42.9941422552
 30
0.0
 10
32.4030414809
 20
42.9923346979
 30
0.0
 10
32.3480409198
 20
42.9907693268
 30
0.0
 10
32.2870592876
 20
42.9894854292
 30
0.0
 10
32.1975414455
 20
42.9881670366
 30
0.0
 10
32.0808820785
 20
42.987426477
 30
0.0
 10
31.9419741332
 20
42.9878895211
 30
0.0
 10
31.8127587989
 20
42.9896582916
 30
0.0
 10
31.7311578885
 20
42.9917912951
 30
0.0
 10
31.6938616222
 20
42.9931879634
 30
0.0
  0
SPLINE
  5
316
100
AcDbEntity
  8
0
100
AcDbSpline
 62
7
  6
BYLAYER
 70
0
 71
3
 72
21
 73
17
 74
0
 42
0.0000001
 43
0.0000001
 44
0.0000000001
 40
0.0
 40
0.0
 40
0.0
 40
0.0
 40
0.0053064405
 40
0.0134953202
 40
0.0245519841
 40
0.0384378287
 40
0.0744781042
 40
0.1208776408
 40
0.1766942384
 40
0.2407983134
 40
0.3118381106
 40
0.3883817296
 40
0.551510499
 40
0.7167157274
 40
0.8704690907
 40
1.0
 40
1.0
 40
1.0
 40
1.0
 10
32.5575723053
 20
36.4535862028
 30
0.0
 10
32.5561522727
 20
36.4530194022
 30
0.0
 10
32.5523487937
 20
36.4521073161
 30
0.0
 10
32.545381029
 20
36.4509286453
 30
0.0
 10
32.5358997912
 20
36.4497619861
 30
0.0
 10
32.5184122536
 20
36.4480608303
 30
0.0
 10
32.4907170487
 20
36.4461562995
 30
0.0
 10
32.4509315729
 20
36.4441422552
 30
0.0
 10
32.4030414809
 20
36.4423346979
 30
0.0
 10
32.3480409198
 20
36.4407693268
 30
0.0
 10
32.2870592876
 20
36.4394854292
 30
0.0
 10
32.1975414454
 20
36.4381670366
 30
0.0
 10
32.0808820785
 20
36.437426477
 30
0.0
 10
31.9419741331
 20
36.4378895211
 30
0.0
 10
31.8127587989
 20
36.4396582916
 30
0.0
 10
31.7311578884
 20
36.4417912951
 30
0.0
 10
31.6938616222
 20
36.4431879634
 30
0.0
  0
SPLINE
  5
317
100
AcDbEntity
  8
0
100
AcDbSpline
 62
7
  6
BYLAYER
 70
0
 71
3
 72
21
 73
17
 74
0
 42
0.0000001
 43
0.0000001
 44
0.0000000001
 40
0.0
 40
0.0
 40
0.0
 40
0.0
 40
0.1295309897
 40
0.283284476
 40
0.4484897498
 40
0.6116185315
 40
0.688162138
 40
0.7592019155
 40
0.8233059572
 40
0.8791225311
 40
0.9255220303
 40
0.9615622569
 40
0.975448072
 40
0.9865047077
 40
0.9946935668
 40
1.0
 40
1.0
 40
1.0
 40
1.0
 10
19.8228828675
 20
30.0722094341
 30
0.0
 10
19.8242795372
 20
30.034913134
 30
0.0
 10
19.8264125458
 20
29.9533121418
 30
0.0
 10
19.8281813187
 20
29.8240966991
 30
0.0
 10
19.8286443616
 20
29.6851886621
 30
0.0
 10
19.8279038016
 20
29.5685292489
 30
0.0
 10
19.8265854068
 20
29.479011387
 30
0.0
 10
19.8253015089
 20
29.4180297563
 30
0.0
 10
19.8237361356
 20
29.3630292017
 30
0.0
 10
19.821928578
 20
29.3151391233
 30
0.0
 10
19.8199145326
 20
29.2753536678
 30
0.0
 10
19.8180100015
 20
29.2476584885
 30
0.0
 10
19.8163088445
 20
29.2301709768
 30
0.0
 10
19.8151421843
 20
29.2206897592
 30
0.0
 10
19.8139635127
 20
29.2137220088
 30
0.0
 10
19.8130514254
 20
29.2099185374
 30
0.0
 10
19.8124846253
 20
29.2084985064
 30
0.0
  0
SPLINE
  5
318
100
AcDbEntity
  8
0
100
AcDbSpline
 62
7
  6
BYLAYER
 70
0
 71
3
 72
21
 73
17
 74
0
 42
0.0000001
 43
0.0000001
 44
0.0000000001
 40
0.0
 40
0.0
 40
0.0
 40
0.0
 40
0.0053064344
 40
0.0134952969
 40
0.0245519375
 40
0.0384377581
 40
0.0744780015
 40
0.1208775286
 40
0.1766941274
 40
0.2407982084
 40
0.3118380175
 40
0.3883816546
 40
0.5515104667
 40
0.7167157351
 40
0.8704691085
 40
1.0
 40
1.0
 40
1.0
 40
1.0
 10
18.4670426736
 20
29.208498507
 30
0.0
 10
18.4664758734
 20
29.2099185383
 30
0.0
 10
18.4655637862
 20
29.2137220111
 30
0.0
 10
18.4643851145
 20
29.2206897641
 30
0.0
 10
18.4632184541
 20
29.2301709856
 30
0.0
 10
18.4615172965
 20
29.2476585049
 30
0.0
 10
18.4596127645
 20
29.2753536985
 30
0.0
 10
18.4575987191
 20
29.3151391735
 30
0.0
 10
18.4557911605
 20
29.363029278
 30
0.0
 10
18.4542257882
 20
29.4180298598
 30
0.0
 10
18.4529418897
 20
29.4790115191
 30
0.0
 10
18.4516234963
 20
29.5685294068
 30
0.0
 10
18.4508829367
 20
29.6851888348
 30
0.0
 10
18.4513459821
 20
29.8240968451
 30
0.0
 10
18.4531147544
 20
29.9533122242
 30
0.0
 10
18.4552477627
 20
30.0349131548
 30
0.0
 10
18.4566444313
 20
30.0722094262
 30
0.0
  0
SPLINE
  5
319
100
AcDbEntity
  8
0
100
AcDbSpline
 62
7
  6
BYLAYER
 70
0
 71
3
 72
21
 73
17
 74
0
 42
0.0000001
 43
0.0000001
 44
0.0000000001
 40
0.0
 40
0.0
 40
0.0
 40
0.0
 40
0.1295310075
 40
0.2832844836
 40
0.4484897174
 40
0.6116184563
 40
0.6881620447
 40
0.7592018102
 40
0.823305846
 40
0.8791224186
 40
0.9255219273
 40
0.9615621862
 40
0.9754480253
 40
0.9865046843
 40
0.9946935608
 40
1.0
 40
1.0
 40
1.0
 40
1.0
 10
6.5856656843
 20
36.4431879637
 30
0.0
 10
6.5483693894
 20
36.4417912943
 30
0.0
 10
6.4667684173
 20
36.4396582906
 30
0.0
 10
6.3375530196
 20
36.4378895194
 30
0.0
 10
6.1986450477
 20
36.4374264778
 30
0.0
 10
6.0819856958
 20
36.4381670379
 30
0.0
 10
5.9924678796
 20
36.4394854318
 30
0.0
 10
5.9314862761
 20
36.4407693288
 30
0.0
 10
5.8764857421
 20
36.4423347009
 30
0.0
 10
5.8285956762
 20
36.4441422573
 30
0.0
 10
5.78881022
 20
36.4461563015
 30
0.0
 10
5.7611150293
 20
36.4480608314
 30
0.0
 10
5.7436274993
 20
36.4497619866
 30
0.0
 10
5.7341462653
 20
36.4509286457
 30
0.0
 10
5.7271785033
 20
36.4521073164
 30
0.0
 10
5.7233750256
 20
36.4530194025
 30
0.0
 10
5.7219549934
 20
36.453586203
 30
0.0
  0
SPLINE
  5
31A
100
AcDbEntity
  8
0
100
AcDbSpline
 62
7
  6
BYLAYER
 70
0
 71
3
 72
21
 73
17
 74
0
 42
0.0000001
 43
0.0000001
 44
0.0000000001
 40
0.0
 40
0.0
 40
0.0
 40
0.0
 40
0.1295310075
 40
0.2832844836
 40
0.4484897174
 40
0.6116184563
 40
0.6881620447
 40
0.7592018102
 40
0.823305846
 40
0.8791224186
 40
0.9255219273
 40
0.9615621862
 40
0.9754480253
 40
0.9865046843
 40
0.9946935608
 40
1.0
 40
1.0
 40
1.0
 40
1.0
 10
6.5856656843
 20
42.9931879637
 30
0.0
 10
6.5483693894
 20
42.9917912943
 30
0.0
 10
6.4667684174
 20
42.9896582906
 30
0.0
 10
6.3375530196
 20
42.9878895194
 30
0.0
 10
6.1986450477
 20
42.9874264778
 30
0.0
 10
6.0819856958
 20
42.9881670379
 30
0.0
 10
5.9924678796
 20
42.9894854318
 30
0.0
 10
5.9314862761
 20
42.9907693288
 30
0.0
 10
5.8764857421
 20
42.9923347009
 30
0.0
 10
5.8285956762
 20
42.9941422573
 30
0.0
 10
5.78881022
 20
42.9961563015
 30
0.0
 10
5.7611150293
 20
42.9980608314
 30
0.0
 10
5.7436274993
 20
42.9997619866
 30
0.0
 10
5.7341462653
 20
43.0009286457
 30
0.0
 10
5.7271785033
 20
43.0021073164
 30
0.0
 10
5.7233750256
 20
43.0030194025
 30
0.0
 10
5.7219549934
 20
43.003586203
 30
0.0
  0
SPLINE
  5
31B
100
AcDbEntity
  8
0
100
AcDbSpline
 62
7
  6
BYLAYER
 70
0
 71
3
 72
21
 73
17
 74
0
 42
0.0000001
 43
0.0000001
 44
0.0000000001
 40
0.0
 40
0.0
 40
0.0
 40
0.0
 40
0.0053064404
 40
0.0134953202
 40
0.0245519839
 40
0.0384378284
 40
0.0744781038
 40
0.1208776404
 40
0.1766942379
 40
0.240798313
 40
0.3118381102
 40
0.3883817293
 40
0.5515104989
 40
0.7167157275
 40
0.8704690908
 40
1.0
 40
1.0
 40
1.0
 40
1.0
 10
5.7219549938
 20
37.7990281762
 30
0.0
 10
5.7233750263
 20
37.7995949768
 30
0.0
 10
5.7271785053
 20
37.8005070629
 30
0.0
 10
5.7341462699
 20
37.8016857337
 30
0.0
 10
5.7436275077
 20
37.802852393
 30
0.0
 10
5.7611150453
 20
37.8045535487
 30
0.0
 10
5.7888102501
 20
37.8064580795
 30
0.0
 10
5.8285957259
 20
37.8084721238
 30
0.0
 10
5.8764858179
 20
37.8102796812
 30
0.0
 10
5.9314863792
 20
37.8118450523
 30
0.0
 10
5.9924680115
 20
37.8131289499
 30
0.0
 10
6.0819858538
 20
37.8144473425
 30
0.0
 10
6.198645221
 20
37.8151879021
 30
0.0
 10
6.3375531666
 20
37.814724858
 30
0.0
 10
6.466768501
 20
37.8129560875
 30
0.0
 10
6.5483694116
 20
37.810823084
 30
0.0
 10
6.5856656778
 20
37.8094264156
 30
0.0
  0
LINE
  5
31C
100
AcDbEntity
  8
0
100
AcDbLine
 62
7
  6
BYLAYER
 10
9.4675862024
 20
15.8620931821
 11
9.4656379312
 21
15.94713322
  0
LINE
  5
31D
100
AcDbEntity
  8
0
100
AcDbLine
 62
7
  6
BYLAYER
 10
8.6627115104
 20
15.8684221455
 11
8.2823813255
 21
16.2062960999
  0
SPLINE
  5
31E
100
AcDbEntity
  8
0
100
AcDbSpline
 62
7
  6
BYLAYER
 70
0
 71
3
 72
14
 73
10
 74
0
 42
0.0000001
 43
0.0000001
 44
0.0000000001
 40
0.0
 40
0.0
 40
0.0
 40
0.0
 40
0.2576435502
 40
0.3899798502
 40
0.5211159319
 40
0.6489059667
 40
0.7718914133
 40
0.8889616296
 40
1.0
 40
1.0
 40
1.0
 40
1.0
 10
8.642903362
 20
16.4414234684
 30
0.0
 10
8.6137880195
 20
16.3970928491
 30
0.0
 10
8.5786912604
 20
16.3232508174
 30
0.0
 10
8.5557707039
 20
16.2181190035
 30
0.0
 10
8.5512843285
 20
16.1372901826
 30
0.0
 10
8.5609353217
 20
16.0588548298
 30
0.0
 10
8.5833866365
 20
15.986084196
 30
0.0
 10
8.6174903462
 20
15.9219005835
 30
0.0
 10
8.6468947283
 20
15.8849009156
 30
0.0
 10
8.6627231227
 20
15.8684104978
 30
0.0
  0
LINE
  5
31F
100
AcDbEntity
  8
0
100
AcDbLine
 62
7
  6
BYLAYER
 10
7.7504268182
 20
20.007680683
 11
7.8091819823
 21
19.9461724139
  0
ELLIPSE
  5
320
100
AcDbEntity
  8
0
100
AcDbEllipse
 62
7
  6
BYLAYER
 10
32.2477593735
 20
12.426657807
 30
0.0
 11
-0.1022654668
 21
0.5356168201
 31
0.0
 40
0.9146638827
 41
-4.0996717518
 42
-3.9926967436
  0
ELLIPSE
  5
321
100
AcDbEntity
  8
0
100
AcDbEllipse
 62
7
  6
BYLAYER
 10
31.897984387
 20
13.387656684
 30
0.0
 11
-0.1715928768
 21
0.4714475544
 31
0.0
 40
0.9966035587
 41
-4.2747521162
 42
-2.0084331909
  0
ELLIPSE
  5
322
100
AcDbEntity
  8
0
100
AcDbEllipse
 62
7
  6
BYLAYER
 10
32.2597249415
 20
12.3937826791
 30
0.0
 11
-0.1715928768
 21
0.4714475544
 31
0.0
 40
0.9966035587
 41
2.1154081992
 42
4.2747521161
  0
ELLIPSE
  5
323
100
AcDbEntity
  8
0
100
AcDbEllipse
 62
7
  6
BYLAYER
 10
6.0317679257
 20
12.426657807
 30
0.0
 11
0.1022654668
 21
0.5356168201
 31
0.0
 40
0.9146638827
 41
-2.2904885636
 42
-2.1835135554
  0
ELLIPSE
  5
324
100
AcDbEntity
  8
0
100
AcDbEllipse
 62
7
  6
BYLAYER
 10
6.0198023577
 20
12.3937826791
 30
0.0
 11
-0.1715928768
 21
-0.4714475544
 31
0.0
 40
0.9966035587
 41
-1.1331594625
 42
1.0261844544
  0
ELLIPSE
  5
325
100
AcDbEntity
  8
0
100
AcDbEllipse
 62
7
  6
BYLAYER
 10
6.3815429121
 20
13.387656684
 30
0.0
 11
0.1715928768
 21
0.4714475544
 31
0.0
 40
0.9966035587
 41
-4.2747521162
 42
-2.0084331911
  0
ENDSEC
  0
SECTION
  2
OBJECTS
  0
DICTIONARY
  5
C
100
AcDbDictionary
280
0
281
1
  3
ACAD_GROUP
350
D
  3
ACAD_MLINESTYLE
350
17
  3
ACAD_LAYOUT
350
1A
  3
ACAD_PLOTSETTINGS
350
19
  3
ACAD_PLOTSTYLENAME
350
E
  0
DICTIONARY
  5
D
102
{ACAD_REACTORS
330
C
102
}
100
AcDbDictionary
280
0
281
1
  0
ACDBDICTIONARYWDFLT
  5
E
102
{ACAD_REACTORS
330
C
102
}
100
AcDbDictionary
281
1
  3
Normal
350
F
100
AcDbDictionaryWithDefault
340
F
  0
DICTIONARY
  5
17
102
{ACAD_REACTORS
330
C
102
}
100
AcDbDictionary
280
0
281
1
  3
Standard
350
18
  0
DICTIONARY
  5
19
102
{ACAD_REACTORS
330
C
102
}
100
AcDbDictionary
281
1
  0
DICTIONARY
  5
1A
102
{ACAD_REACTORS
330
C
102
}
100
AcDbDictionary
281
1
  3
Model
350
326
  3
Layout1
350
327
  0
ACDBPLACEHOLDER
  5
F
102
{ACAD_REACTORS
330
E
102
}
  0
MLINESTYLE
  5
18
102
{ACAD_REACTORS
330
17
102
}
100
AcDbMlineStyle
  2
STANDARD
 70
0
  3

 62
256
 51
90.0
 52
90.0
 71
2
 49
0.5
 62
256
  6
BYLAYER
 49
-0.5
 62
256
  6
BYLAYER
  0
LAYOUT
  5
326
102
{ACAD_REACTORS
330
1A
102
}
100
AcDbPlotSettings
  1

  2
none_device
  4

  6

 40
0.0
 41
0.0
 42
0.0
 43
0.0
 44
210.0
 45
297.0
 46
0.0
 47
0.0
 48
0.0
 49
0.0
140
0.0
141
0.0
142
1.0
143
1.0
 70
1024
 72
1
 73
0
 74
0
  7

 75
0
147
1.0
148
0.0
149
0.0
100
AcDbLayout
  1
Model
 70
0
 71
0
 10
0.0
 20
0.0
 11
210.0
 21
297.0
 12
0.0
 22
0.0
 32
0.0
 14
0.0
 24
0.0
 34
0.0
 15
0.0
 25
0.0
 35
0.0
146
0.0
 13
0.0
 23
0.0
 33
0.0
 16
1.0
 26
0.0
 36
0.0
 17
0.0
 27
1.0
 37
0.0
 76
0
330
210
345
0
346
0
  0
LAYOUT
  5
327
102
{ACAD_REACTORS
330
1A
102
}
100
AcDbPlotSettings
  1

  2
none_device
  4

  6

 40
0.0
 41
0.0
 42
0.0
 43
0.0
 44
210.0
 45
297.0
 46
0.0
 47
0.0
 48
0.0
 49
0.0
140
0.0
141
0.0
142
1.0
143
1.0
 70
0
 72
1
 73
0
 74
0
  7

 75
0
147
1.0
148
0.0
149
0.0
100
AcDbLayout
  1
Layout1
 70
0
 71
1
 10
0.0
 20
0.0
 11
210.0
 21
297.0
 12
0.0
 22
0.0
 32
0.0
 14
0.0
 24
0.0
 34
0.0
 15
0.0
 25
0.0
 35
0.0
146
0.0
 13
0.0
 23
0.0
 33
0.0
 16
1.0
 26
0.0
 36
0.0
 17
0.0
 27
1.0
 37
0.0
 76
0
330
211
345
0
346
0
  0
ENDSEC
  0
EOF
