999
DXF file: C:\Users\sesa63760\Dev\_Creo\CAD\MCADID0004365_3D-CAD\drw0001_1.dxf
999
Pro/ENGINEER 2019471 by Parametric Technology Corporation
  0
SECTION
  2
HEADER
  9
$ACADVER
  1
AC1024
  9
$DWGCODEPAGE
  3
ANSI_1252
  9
$EXTMAX
 10
69.474917228
 20
98.2573829367
 30
0.0
  9
$EXTMIN
 10
-0.0
 20
0.0
 30
0.0
  9
$LIMMIN
 10
-0.0
 20
0.0
  9
$LIMMAX
 10
69.474917228
 20
98.2573829367
  9
$VIEWCTR
 10
34.737458614
 20
49.1286914684
  9
$VIEWSIZE
 40
98.2573829367
  9
$CLAYER
  8
0
  9
$LTSCALE
 40
6.4049257025
  9
$CELTYPE
  6
BYLAYER
  9
$DIMSCALE
 40
1.0
  9
$DIMASZ
 40
0.827082348
  9
$DIMEXO
 40
1.0
  9
$DIMDLI
 40
4.4252213945
  9
$DIMEXE
 40
1.0
  9
$DIMCEN
 40
1.0480787513
  9
$DIMLFAC
 40
1.0
  9
$DIMBLK
  1
_FILLED
  9
$DIMALT
 70
0
  9
$DIMALTF
 40
0.0393700787
  9
$DIMTXT
 40
1.1579152871
  9
$DIMTOL
 70
1
  9
$DIMLIM
 70
0
  9
$DIMTFAC
 40
1.0
  9
$DIMTP
 40
0.01
  9
$DIMTM
 40
0.01
  9
$DIMGAP
 40
0.625
  9
$DIMDSEP
 70
46
  9
$AUNITS
 70
0
  9
$PDMODE
 70
3
  9
$PDSIZE
 40
0.3125
  9
$HANDSEED
  5
2A2
  9
$TILEMODE
 70
1
  9
$MEASUREMENT
 70
1
  9
$INSUNITS
 70
4
  0
ENDSEC
  0
SECTION
  2
CLASSES
  0
CLASS
  1
ACDBDICTIONARYWDFLT
  2
AcDbDictionaryWithDefault
  3
AutoCAD 2000
 90
0
 91
1
280
0
281
0
  0
CLASS
  1
ACDBPLACEHOLDER
  2
AcDbPlaceHolder
  3
AutoCAD 2000
 90
0
 91
1
280
0
281
0
  0
CLASS
  1
LAYOUT
  2
AcDbLayout
  3
AutoCAD 2000
 90
0
 91
0
280
0
281
0
  0
ENDSEC
  0
SECTION
  2
TABLES
  0
TABLE
  2
VPORT
  5
8
100
AcDbSymbolTable
 70
2
  0
VPORT
  5
1F4
100
AcDbSymbolTableRecord
100
AcDbViewportTableRecord
  2
*ACTIVE
 70
0
 10
0.0
 20
0.0
 11
1.0
 21
1.0
 12
34.737458614
 22
49.1286914684
 13
0.0
 23
0.0
 14
1.0
 24
1.0
 15
0.0
 25
0.0
 16
0.0
 26
0.0
 36
1.0
 17
0.0
 27
0.0
 37
0.0
 40
98.2573829367
 41
0.7070707071
 42
50.0
 43
0.0
 44
0.0
 50
0.0
 51
0.0
 71
0
 72
100
 73
1
 74
1
 75
0
 76
0
 77
0
 78
0
  0
ENDTAB
  0
TABLE
  2
LTYPE
  5
5
100
AcDbSymbolTable
 70
6
  0
LTYPE
  5
14
100
AcDbSymbolTableRecord
100
AcDbLinetypeTableRecord
  2
BYBLOCK
 70
0
  3

 72
65
 73
0
 40
0.0
  0
LTYPE
  5
15
100
AcDbSymbolTableRecord
100
AcDbLinetypeTableRecord
  2
BYLAYER
 70
0
  3

 72
65
 73
0
 40
0.0
  0
LTYPE
  5
16
100
AcDbSymbolTableRecord
100
AcDbLinetypeTableRecord
  2
CONTINUOUS
 70
64
  3
Solid line
 72
65
 73
0
 40
0.0
  0
LTYPE
  5
1F5
100
AcDbSymbolTableRecord
100
AcDbLinetypeTableRecord
  2
CENTER
 70
64
  3
____ _ ____ _ ____ _ ____ _ ____ _ ____ _ ____
 72
65
 73
4
 40
0.6
 49
0.375
 74
0
 49
-0.075
 74
0
 49
0.075
 74
0
 49
-0.075
 74
0
  0
LTYPE
  5
1F6
100
AcDbSymbolTableRecord
100
AcDbLinetypeTableRecord
  2
HIDDEN
 70
64
  3
- - - - - - - - - - - - - - - - - - - -
 72
65
 73
2
 40
0.2
 49
0.1
 74
0
 49
-0.1
 74
0
  0
LTYPE
  5
1F7
100
AcDbSymbolTableRecord
100
AcDbLinetypeTableRecord
  2
PHANTOM
 70
64
  3
_____ _ _ _____ _ _ _____ _ _ _____
 72
65
 73
6
 40
0.8
 49
0.45
 74
0
 49
-0.05
 74
0
 49
0.1
 74
0
 49
-0.05
 74
0
 49
0.1
 74
0
 49
-0.05
 74
0
  0
LTYPE
  5
1F8
100
AcDbSymbolTableRecord
100
AcDbLinetypeTableRecord
  2
DOT
 70
64
  3
. . . . . . . . . . . . . . . . . . . .
 72
65
 73
2
 40
0.2
 49
0.1
 74
0
 49
-0.1
 74
0
  0
LTYPE
  5
1F9
100
AcDbSymbolTableRecord
100
AcDbLinetypeTableRecord
  2
DASHED
 70
64
  3
- - - - - - - - - - - - - - - - - - - -
 72
65
 73
2
 40
0.2
 49
0.1
 74
0
 49
-0.1
 74
0
  0
ENDTAB
  0
TABLE
  2
LAYER
  5
2
100
AcDbSymbolTable
 70
36
  0
LAYER
  5
10
100
AcDbSymbolTableRecord
100
AcDbLayerTableRecord
  2
0
 70
0
 62
7
  6
CONTINUOUS
370
-3
390
F
  0
LAYER
  5
1FA
100
AcDbSymbolTableRecord
100
AcDbLayerTableRecord
  2
DEFAULT_1
 70
0
 62
7
  6
CENTER
370
-3
390
F
  0
LAYER
  5
1FB
100
AcDbSymbolTableRecord
100
AcDbLayerTableRecord
  2
DEFAULT_2
 70
0
 62
7
  6
HIDDEN
370
-3
390
F
  0
LAYER
  5
1FC
100
AcDbSymbolTableRecord
100
AcDbLayerTableRecord
  2
DEFAULT_3
 70
0
 62
7
  6
PHANTOM
370
-3
390
F
  0
LAYER
  5
1FD
100
AcDbSymbolTableRecord
100
AcDbLayerTableRecord
  2
00_COMPONENTS
 70
0
 62
7
  6
CONTINUOUS
370
-3
390
F
  0
LAYER
  5
1FE
100
AcDbSymbolTableRecord
100
AcDbLayerTableRecord
  2
01_1_DEFAULT_DATUMS
 70
0
 62
7
  6
CONTINUOUS
370
-3
390
F
  0
LAYER
  5
1FF
100
AcDbSymbolTableRecord
100
AcDbLayerTableRecord
  2
01_PLANES
 70
0
 62
7
  6
CONTINUOUS
370
-3
390
F
  0
LAYER
  5
200
100
AcDbSymbolTableRecord
100
AcDbLayerTableRecord
  2
02_COORD_SYS
 70
0
 62
7
  6
CONTINUOUS
370
-3
390
F
  0
LAYER
  5
201
100
AcDbSymbolTableRecord
100
AcDbLayerTableRecord
  2
03_AXES
 70
0
 62
7
  6
CONTINUOUS
370
-3
390
F
  0
LAYER
  5
202
100
AcDbSymbolTableRecord
100
AcDbLayerTableRecord
  2
04_POINTS
 70
0
 62
7
  6
CONTINUOUS
370
-3
390
F
  0
LAYER
  5
203
100
AcDbSymbolTableRecord
100
AcDbLayerTableRecord
  2
05_CURVES
 70
0
 62
7
  6
CONTINUOUS
370
-3
390
F
  0
LAYER
  5
204
100
AcDbSymbolTableRecord
100
AcDbLayerTableRecord
  2
06_SURFS
 70
0
 62
7
  6
CONTINUOUS
370
-3
390
F
  0
LAYER
  5
205
100
AcDbSymbolTableRecord
100
AcDbLayerTableRecord
  2
07_COSMETICS
 70
0
 62
7
  6
CONTINUOUS
370
-3
390
F
  0
LAYER
  5
206
100
AcDbSymbolTableRecord
100
AcDbLayerTableRecord
  2
10_NOTES
 70
0
 62
7
  6
CONTINUOUS
370
-3
390
F
  0
LAYER
  5
207
100
AcDbSymbolTableRecord
100
AcDbLayerTableRecord
  2
11_NOTES_PUB
 70
0
 62
7
  6
CONTINUOUS
370
-3
390
F
  0
LAYER
  5
208
100
AcDbSymbolTableRecord
100
AcDbLayerTableRecord
  2
13_REF_GTOL
 70
0
 62
7
  6
CONTINUOUS
370
-3
390
F
  0
LAYER
  5
209
100
AcDbSymbolTableRecord
100
AcDbLayerTableRecord
  2
16_MISC
 70
0
 62
7
  6
CONTINUOUS
370
-3
390
F
  0
LAYER
  5
20A
100
AcDbSymbolTableRecord
100
AcDbLayerTableRecord
  2
17_NO_PRINT
 70
0
 62
7
  6
CONTINUOUS
370
-3
390
F
  0
LAYER
  5
20B
100
AcDbSymbolTableRecord
100
AcDbLayerTableRecord
  2
18_DATUM_CAMS_JOINTS
 70
0
 62
7
  6
CONTINUOUS
370
-3
390
F
  0
LAYER
  5
20C
100
AcDbSymbolTableRecord
100
AcDbLayerTableRecord
  2
19_DATUM_FUNCTIONAL
 70
0
 62
7
  6
CONTINUOUS
370
-3
390
F
  0
LAYER
  5
20D
100
AcDbSymbolTableRecord
100
AcDbLayerTableRecord
  2
20_DATUM_KINEMATIC_SCHEME
 70
0
 62
7
  6
CONTINUOUS
370
-3
390
F
  0
ENDTAB
  0
TABLE
  2
STYLE
  5
3
100
AcDbSymbolTable
 70
1
  0
STYLE
  5
11
100
AcDbSymbolTableRecord
100
AcDbTextStyleTableRecord
  2
STANDARD
 70
0
 40
0.0
 41
1.0
 50
0.0
 71
0
 42
0.2
  3
ARIAL.TTF
  4

  0
STYLE
  5
20E
100
AcDbSymbolTableRecord
100
AcDbTextStyleTableRecord
  2
TEXTSTYLE_1
 70
0
 40
0.0
 41
0.8
 50
0.0
 71
0
 42
0.2
  3
gdt
  4

  0
ENDTAB
  0
TABLE
  2
VIEW
  5
6
100
AcDbSymbolTable
 70
0
  0
ENDTAB
  0
TABLE
  2
UCS
  5
7
100
AcDbSymbolTable
 70
0
  0
ENDTAB
  0
TABLE
  2
APPID
  5
9
100
AcDbSymbolTable
 70
1
  0
APPID
  5
20F
100
AcDbSymbolTableRecord
100
AcDbRegAppTableRecord
  2
ACAD
 70
0
  0
ENDTAB
  0
TABLE
  2
BLOCK_RECORD
  5
1
100
AcDbSymbolTable
 70
0
  0
BLOCK_RECORD
  5
210
100
AcDbSymbolTableRecord
100
AcDbBlockTableRecord
  2
*Model_Space
  0
BLOCK_RECORD
  5
211
100
AcDbSymbolTableRecord
100
AcDbBlockTableRecord
  2
*Paper_Space
  0
BLOCK_RECORD
  5
212
100
AcDbSymbolTableRecord
100
AcDbBlockTableRecord
  2
_FILLED
  0
ENDTAB
  0
TABLE
  2
DIMSTYLE
  5
A
100
AcDbSymbolTable
 70
1
100
AcDbDimStyleTable
 71
0
  0
DIMSTYLE
105
213
100
AcDbSymbolTableRecord
100
AcDbDimStyleTableRecord
  2
STANDARD
 70
0
  3

  4

 40
1.0
 41
0.827082348
 42
1.0
 43
0.38
 44
1.0
 45
0.0
 46
0.0
 47
0.01
 48
0.01
140
1.1579152871
141
0.09
142
0.0
143
25.4
144
1.0
145
0.0
146
1.0
147
0.625
 71
1
 72
0
 73
0
 74
0
 75
0
 76
0
 77
1
 78
8
 79
2
170
0
171
1
172
0
173
0
174
0
175
0
176
0
177
0
178
0
270
2
179
2
271
2
272
2
273
2
274
2
275
0
280
0
281
0
282
0
283
1
284
8
285
0
286
0
287
3
288
0
340
11
278
46
341
212
342
212
343
212
344
212
  0
ENDTAB
  0
ENDSEC
  0
SECTION
  2
BLOCKS
  0
BLOCK
  5
20
100
AcDbEntity
  8
0
100
AcDbBlockBegin
  2
*Model_Space
 70
0
 10
0.0
 20
0.0
 30
0.0
  3
*Model_Space
  1

  0
ENDBLK
  5
21
100
AcDbEntity
  8
0
100
AcDbBlockEnd
  0
BLOCK
  5
1C
100
AcDbEntity
  8
0
100
AcDbBlockBegin
  2
*Paper_Space
 70
0
 10
0.0
 20
0.0
 30
0.0
  3
*Paper_Space
  1

  0
ENDBLK
  5
1D
100
AcDbEntity
  8
0
100
AcDbBlockEnd
  0
BLOCK
  5
214
100
AcDbEntity
  8
0
100
AcDbBlockBegin
  2
_FILLED
 70
64
 10
0.0
 20
0.0
  3
_FILLED
  1

  0
SOLID
  5
215
100
AcDbEntity
  8
0
  6
BYBLOCK
 62
0
100
AcDbTrace
 10
0.0
 20
0.0
 11
-1.0
 21
0.25
 12
-1.0
 22
-0.25
 13
-1.0
 23
-0.25
  0
ENDBLK
  5
216
100
AcDbEntity
  8
0
  6
BYBLOCK
 62
0
100
AcDbBlockEnd
  0
ENDSEC
  0
SECTION
  2
ENTITIES
  0
LINE
  5
217
100
AcDbEntity
  8
0
100
AcDbLine
 62
7
  6
BYLAYER
 10
10.1972247264
 20
71.0897618418
 11
19.3895746102
 21
76.3969358421
  0
LINE
  5
218
100
AcDbEntity
  8
0
100
AcDbLine
 62
7
  6
BYLAYER
 10
19.3895804981
 20
75.5804509337
 11
11.6114382888
 21
71.0897652411
  0
LINE
  5
219
100
AcDbEntity
  8
0
100
AcDbLine
 62
7
  6
BYLAYER
 10
19.3895804981
 20
74.9680755309
 11
12.141778526
 21
70.7835800893
  0
LINE
  5
21A
100
AcDbEntity
  8
0
100
AcDbLine
 62
7
  6
BYLAYER
 10
19.0360462433
 20
72.8860504207
 11
16.2076308945
 21
71.2530738053
  0
LINE
  5
21B
100
AcDbEntity
  8
0
100
AcDbLine
 62
7
  6
BYLAYER
 10
8.0598897264
 20
49.0670427196
 11
8.0598897264
 21
47.8286523495
  0
LINE
  5
21C
100
AcDbEntity
  8
0
100
AcDbLine
 62
7
  6
BYLAYER
 10
8.2006817145
 20
65.0379437318
 11
8.2006856977
 21
64.4855870918
  0
LINE
  5
21D
100
AcDbEntity
  8
0
100
AcDbLine
 62
7
  6
BYLAYER
 10
9.1285572264
 20
47.8308659842
 11
9.1285572264
 21
48.4500612087
  0
LINE
  5
21E
100
AcDbEntity
  8
0
100
AcDbLine
 62
7
  6
BYLAYER
 10
21.8644851439
 20
71.2530874027
 11
19.036069795
 21
69.6201107872
  0
LINE
  5
21F
100
AcDbEntity
  8
0
100
AcDbLine
 62
7
  6
BYLAYER
 10
10.1972247264
 20
71.0897618418
 11
10.1972247264
 21
47.2138844734
  0
LINE
  5
220
100
AcDbEntity
  8
0
100
AcDbLine
 62
7
  6
BYLAYER
 10
11.2658922264
 20
48.1449498941
 11
11.2658922264
 21
56.2580079953
  0
LINE
  5
221
100
AcDbEntity
  8
0
100
AcDbLine
 62
7
  6
BYLAYER
 10
11.8002259764
 20
45.6692169827
 11
11.8002259764
 21
46.9076074317
  0
LINE
  5
222
100
AcDbEntity
  8
0
100
AcDbLine
 62
7
  6
BYLAYER
 10
12.3345597265
 20
55.6410264845
 11
12.3345597265
 21
49.1456230511
  0
LINE
  5
223
100
AcDbEntity
  8
0
100
AcDbLine
 62
7
  6
BYLAYER
 10
21.8644851439
 20
70.6815357107
 11
19.036069795
 21
69.0485590952
  0
LINE
  5
224
100
AcDbEntity
  8
0
100
AcDbLine
 62
7
  6
BYLAYER
 10
24.6929240445
 20
69.6201243846
 11
21.8645086956
 21
67.9871477691
  0
LINE
  5
225
100
AcDbEntity
  8
0
100
AcDbLine
 62
7
  6
BYLAYER
 10
11.8002259764
 20
46.9076074317
 11
11.2658922264
 21
48.1449498941
  0
LINE
  5
226
100
AcDbEntity
  8
0
100
AcDbLine
 62
7
  6
BYLAYER
 10
16.2076308945
 20
70.6815221133
 11
16.2076308945
 21
71.2530738053
  0
LINE
  5
227
100
AcDbEntity
  8
0
100
AcDbLine
 62
7
  6
BYLAYER
 10
27.5213629451
 20
67.9871613665
 11
24.6929475962
 21
66.354184751
  0
LINE
  5
228
100
AcDbEntity
  8
0
100
AcDbLine
 62
7
  6
BYLAYER
 10
27.5213629451
 20
67.4156096745
 11
24.6929475962
 21
65.782633059
  0
LINE
  5
229
100
AcDbEntity
  8
0
100
AcDbLine
 62
7
  6
BYLAYER
 10
11.2658922264
 20
56.2580079953
 11
11.7740850093
 21
56.5514114839
  0
LINE
  5
22A
100
AcDbEntity
  8
0
100
AcDbLine
 62
7
  6
BYLAYER
 10
17.7625467654
 20
46.0118445697
 11
18.8781783063
 21
41.5828519204
  0
LINE
  5
22B
100
AcDbEntity
  8
0
100
AcDbLine
 62
7
  6
BYLAYER
 10
19.036069795
 20
69.6201107872
 11
19.036069795
 21
69.0485590952
  0
LINE
  5
22C
100
AcDbEntity
  8
0
100
AcDbLine
 62
7
  6
BYLAYER
 10
19.3895804981
 20
75.5804509337
 11
19.3895804981
 21
74.9680755309
  0
LINE
  5
22D
100
AcDbEntity
  8
0
100
AcDbLine
 62
7
  6
BYLAYER
 10
30.3498018457
 20
66.3541983484
 11
27.5213864968
 21
64.7212217329
  0
LINE
  5
22E
100
AcDbEntity
  8
0
100
AcDbLine
 62
7
  6
BYLAYER
 10
21.8644851439
 20
70.6815357107
 11
21.8644851439
 21
71.2530874027
  0
LINE
  5
22F
100
AcDbEntity
  8
0
100
AcDbLine
 62
7
  6
BYLAYER
 10
21.8645086956
 20
67.4155960771
 11
21.8645086956
 21
67.9871477691
  0
LINE
  5
230
100
AcDbEntity
  8
0
100
AcDbLine
 62
7
  6
BYLAYER
 10
33.1782407463
 20
64.7212353303
 11
30.3498253974
 21
63.0882587148
  0
LINE
  5
231
100
AcDbEntity
  8
0
100
AcDbLine
 62
7
  6
BYLAYER
 10
33.1782407463
 20
64.1496836383
 11
30.3498253974
 21
62.5167070229
  0
LINE
  5
232
100
AcDbEntity
  8
0
100
AcDbLine
 62
7
  6
BYLAYER
 10
8.0598897264
 20
49.0670427196
 11
10.1972247264
 21
50.3010262913
  0
LINE
  5
233
100
AcDbEntity
  8
0
100
AcDbLine
 62
7
  6
BYLAYER
 10
29.2891814174
 20
60.8837463781
 11
37.0673236268
 21
65.3744320707
  0
LINE
  5
234
100
AcDbEntity
  8
0
100
AcDbLine
 62
7
  6
BYLAYER
 10
8.0598897264
 20
47.8286523495
 11
11.8002259764
 21
45.6692169827
  0
LINE
  5
235
100
AcDbEntity
  8
0
100
AcDbLine
 62
7
  6
BYLAYER
 10
18.8781783063
 20
41.5828519204
 11
22.1638751562
 21
39.6858969947
  0
LINE
  5
236
100
AcDbEntity
  8
0
100
AcDbLine
 62
7
  6
BYLAYER
 10
36.1937213931
 20
31.5859452885
 11
52.6238082352
 21
22.1002454667
  0
LINE
  5
237
100
AcDbEntity
  8
0
100
AcDbLine
 62
7
  6
BYLAYER
 10
10.1972247264
 20
47.2138844734
 11
9.1285572264
 21
47.8308659842
  0
LINE
  5
238
100
AcDbEntity
  8
0
100
AcDbLine
 62
7
  6
BYLAYER
 10
9.1285572264
 20
48.4500612087
 11
8.0598897264
 21
49.0670427196
  0
LINE
  5
239
100
AcDbEntity
  8
0
100
AcDbLine
 62
7
  6
BYLAYER
 10
36.0156547767
 20
33.8559929123
 11
34.9469872766
 21
34.4729743441
  0
LINE
  5
23A
100
AcDbEntity
  8
0
100
AcDbLine
 62
7
  6
BYLAYER
 10
24.6929475962
 20
66.354184751
 11
24.6929475962
 21
65.782633059
  0
LINE
  5
23B
100
AcDbEntity
  8
0
100
AcDbLine
 62
7
  6
BYLAYER
 10
9.1285572264
 20
48.4500612087
 11
10.1972247264
 21
49.0670529946
  0
LINE
  5
23C
100
AcDbEntity
  8
0
100
AcDbLine
 62
7
  6
BYLAYER
 10
36.0066737589
 20
63.9455809315
 11
31.7640507356
 21
61.4961160083
  0
LINE
  5
23D
100
AcDbEntity
  8
0
100
AcDbLine
 62
7
  6
BYLAYER
 10
36.0066737589
 20
63.8639320998
 11
31.834761709
 21
61.4552919324
  0
LINE
  5
23E
100
AcDbEntity
  8
0
100
AcDbLine
 62
7
  6
BYLAYER
 10
9.1285572264
 20
47.8308659842
 11
10.1972247264
 21
48.4478577701
  0
LINE
  5
23F
100
AcDbEntity
  8
0
100
AcDbLine
 62
7
  6
BYLAYER
 10
11.2658922264
 20
48.1449498941
 11
12.6668423123
 21
48.9537839752
  0
LINE
  5
240
100
AcDbEntity
  8
0
100
AcDbLine
 62
7
  6
BYLAYER
 10
23.2795066617
 20
42.8266983462
 11
36.015654687
 21
35.4736471451
  0
LINE
  5
241
100
AcDbEntity
  8
0
100
AcDbLine
 62
7
  6
BYLAYER
 10
12.3345597265
 20
49.1456230511
 11
17.7625467654
 21
46.0118445697
  0
LINE
  5
242
100
AcDbEntity
  8
0
100
AcDbLine
 62
7
  6
BYLAYER
 10
27.5213629451
 20
67.4156096745
 11
27.5213629451
 21
67.9871613665
  0
LINE
  5
243
100
AcDbEntity
  8
0
100
AcDbLine
 62
7
  6
BYLAYER
 10
27.5213864968
 20
64.1496700409
 11
27.5213864968
 21
64.7212217329
  0
LINE
  5
244
100
AcDbEntity
  8
0
100
AcDbLine
 62
7
  6
BYLAYER
 10
22.1638751562
 20
39.6858969947
 11
23.2795066617
 21
42.8266983462
  0
LINE
  5
245
100
AcDbEntity
  8
0
100
AcDbLine
 62
7
  6
BYLAYER
 10
11.8002259764
 20
46.9076074317
 11
14.0055968225
 21
48.180871283
  0
LINE
  5
246
100
AcDbEntity
  8
0
100
AcDbLine
 62
7
  6
BYLAYER
 10
11.8002259764
 20
45.6692169827
 11
15.078089812
 21
47.561681254
  0
LINE
  5
247
100
AcDbEntity
  8
0
100
AcDbLine
 62
7
  6
BYLAYER
 10
55.7200086277
 20
28.6877608988
 11
58.8728341147
 21
26.8675174346
  0
LINE
  5
248
100
AcDbEntity
  8
0
100
AcDbLine
 62
7
  6
BYLAYER
 10
30.3498253974
 20
63.0882587148
 11
30.3498253974
 21
62.5167070229
  0
LINE
  5
249
100
AcDbEntity
  8
0
100
AcDbLine
 62
7
  6
BYLAYER
 10
34.9469872766
 20
34.4729743441
 11
36.1937213931
 21
31.5859452885
  0
LINE
  5
24A
100
AcDbEntity
  8
0
100
AcDbLine
 62
7
  6
BYLAYER
 10
40.2493674374
 20
56.597226954
 11
44.4919904607
 21
59.0466918773
  0
LINE
  5
24B
100
AcDbEntity
  8
0
100
AcDbLine
 62
7
  6
BYLAYER
 10
33.1782407463
 20
64.1496836383
 11
33.1782407463
 21
64.7212353303
  0
LINE
  5
24C
100
AcDbEntity
  8
0
100
AcDbLine
 62
7
  6
BYLAYER
 10
58.7199577266
 20
33.8839427089
 11
61.8727832136
 21
32.0636992447
  0
LINE
  5
24D
100
AcDbEntity
  8
0
100
AcDbLine
 62
7
  6
BYLAYER
 10
9.0291349805
 20
62.6544696963
 11
10.1972247264
 21
61.9800880236
  0
LINE
  5
24E
100
AcDbEntity
  8
0
100
AcDbLine
 62
7
  6
BYLAYER
 10
55.7200086277
 20
36.8527850701
 11
58.8728341147
 21
35.0325416059
  0
LINE
  5
24F
100
AcDbEntity
  8
0
100
AcDbLine
 62
7
  6
BYLAYER
 10
36.0066737589
 20
63.9455809315
 11
36.0066737589
 21
63.8639320998
  0
LINE
  5
250
100
AcDbEntity
  8
0
100
AcDbLine
 62
7
  6
BYLAYER
 10
36.015654687
 20
35.4736471451
 11
36.0156547767
 21
33.8559929123
  0
LINE
  5
251
100
AcDbEntity
  8
0
100
AcDbLine
 62
7
  6
BYLAYER
 10
22.1638751562
 20
39.6858969947
 11
25.4417390466
 21
41.5783612977
  0
LINE
  5
252
100
AcDbEntity
  8
0
100
AcDbLine
 62
7
  6
BYLAYER
 10
58.7199577266
 20
42.0489668802
 11
61.8727832136
 21
40.228723416
  0
LINE
  5
253
100
AcDbEntity
  8
0
100
AcDbLine
 62
7
  6
BYLAYER
 10
52.6238082352
 20
46.5953165706
 11
10.1972247264
 21
71.0897618418
  0
LINE
  5
254
100
AcDbEntity
  8
0
100
AcDbLine
 62
7
  6
BYLAYER
 10
11.6114382888
 20
71.0897652411
 11
29.2891814174
 21
60.8837463781
  0
LINE
  5
255
100
AcDbEntity
  8
0
100
AcDbLine
 62
7
  6
BYLAYER
 10
31.7640507356
 20
61.4961160083
 11
40.2493674374
 21
56.597226954
  0
LINE
  5
256
100
AcDbEntity
  8
0
100
AcDbLine
 62
7
  6
BYLAYER
 10
30.3498253974
 20
62.5167070229
 11
27.5213864968
 21
64.1496700409
  0
LINE
  5
257
100
AcDbEntity
  8
0
100
AcDbLine
 62
7
  6
BYLAYER
 10
24.6929475962
 20
65.782633059
 11
21.8645086956
 21
67.4155960771
  0
LINE
  5
258
100
AcDbEntity
  8
0
100
AcDbLine
 62
7
  6
BYLAYER
 10
19.036069795
 20
69.0485590952
 11
16.2076308945
 21
70.6815221133
  0
LINE
  5
259
100
AcDbEntity
  8
0
100
AcDbLine
 62
7
  6
BYLAYER
 10
16.2076308945
 20
71.2530738053
 11
19.036069795
 21
69.6201107872
  0
LINE
  5
25A
100
AcDbEntity
  8
0
100
AcDbLine
 62
7
  6
BYLAYER
 10
21.8645086956
 20
67.9871477691
 11
24.6929475962
 21
66.354184751
  0
LINE
  5
25B
100
AcDbEntity
  8
0
100
AcDbLine
 62
7
  6
BYLAYER
 10
27.5213864968
 20
64.7212217329
 11
30.3498253974
 21
63.0882587148
  0
LINE
  5
25C
100
AcDbEntity
  8
0
100
AcDbLine
 62
7
  6
BYLAYER
 10
52.6238082352
 20
46.5953165706
 11
61.816158119
 21
51.9024905709
  0
LINE
  5
25D
100
AcDbEntity
  8
0
100
AcDbLine
 62
7
  6
BYLAYER
 10
34.9469872766
 20
34.4729743441
 11
36.0156547082
 21
35.0899660905
  0
LINE
  5
25E
100
AcDbEntity
  8
0
100
AcDbLine
 62
7
  6
BYLAYER
 10
33.1782407463
 20
64.7212353303
 11
30.3498018457
 21
66.3541983484
  0
LINE
  5
25F
100
AcDbEntity
  8
0
100
AcDbLine
 62
7
  6
BYLAYER
 10
27.5213629451
 20
67.9871613665
 11
24.6929240445
 21
69.6201243846
  0
LINE
  5
260
100
AcDbEntity
  8
0
100
AcDbLine
 62
7
  6
BYLAYER
 10
21.8644851439
 20
71.2530874027
 11
19.0360462433
 21
72.8860504207
  0
LINE
  5
261
100
AcDbEntity
  8
0
100
AcDbLine
 62
7
  6
BYLAYER
 10
36.0066737589
 20
63.8639320998
 11
44.4212794873
 21
59.0058671215
  0
LINE
  5
262
100
AcDbEntity
  8
0
100
AcDbLine
 62
7
  6
BYLAYER
 10
44.4919904607
 20
59.0466918773
 11
36.0066737589
 21
63.9455809315
  0
LINE
  5
263
100
AcDbEntity
  8
0
100
AcDbLine
 62
7
  6
BYLAYER
 10
19.3895804981
 20
74.9680755309
 11
36.5369833896
 21
65.0682418197
  0
LINE
  5
264
100
AcDbEntity
  8
0
100
AcDbLine
 62
7
  6
BYLAYER
 10
37.0673236268
 20
65.3744320707
 11
19.3895804981
 21
75.5804509337
  0
LINE
  5
265
100
AcDbEntity
  8
0
100
AcDbLine
 62
7
  6
BYLAYER
 10
19.3895746102
 20
76.3969358421
 11
61.816158119
 21
51.9024905709
  0
LINE
  5
266
100
AcDbEntity
  8
0
100
AcDbLine
 62
7
  6
BYLAYER
 10
52.6238082352
 20
22.1002454667
 11
52.6238082352
 21
46.5953165706
  0
LINE
  5
267
100
AcDbEntity
  8
0
100
AcDbLine
 62
7
  6
BYLAYER
 10
60.3728086641
 20
35.1811252596
 11
60.7555318029
 21
35.4020968844
  0
LINE
  5
268
100
AcDbEntity
  8
0
100
AcDbLine
 62
7
  6
BYLAYER
 10
61.816158119
 20
51.9024905709
 11
61.816158119
 21
40.26141519
  0
LINE
  5
269
100
AcDbEntity
  8
0
100
AcDbLine
 62
7
  6
BYLAYER
 10
61.816158119
 20
36.5021255247
 11
61.816158119
 21
32.0963910187
  0
LINE
  5
26A
100
AcDbEntity
  8
0
100
AcDbLine
 62
7
  6
BYLAYER
 10
61.816158119
 20
28.3371013534
 11
61.816158119
 21
27.407419467
  0
LINE
  5
26B
100
AcDbEntity
  8
0
100
AcDbLine
 62
7
  6
BYLAYER
 10
62.4941233625
 20
30.2484350615
 11
62.4941201757
 21
30.6903611981
  0
LINE
  5
26C
100
AcDbEntity
  8
0
100
AcDbLine
 62
7
  6
BYLAYER
 10
62.4941233625
 20
38.4134592328
 11
62.4941201757
 21
38.8553853694
  0
LINE
  5
26D
100
AcDbEntity
  8
0
100
AcDbLine
 62
7
  6
BYLAYER
 10
60.3728086641
 20
27.0161010883
 11
60.7555318029
 21
27.2370727131
  0
LINE
  5
26E
100
AcDbEntity
  8
0
100
AcDbLine
 62
7
  6
BYLAYER
 10
52.6238082352
 20
22.1002454667
 11
61.816158119
 21
27.407419467
  0
ARC
  5
26F
100
AcDbEntity
  8
0
100
AcDbCircle
 62
7
  6
BYLAYER
 10
13.5253484634
 20
65.2251227617
 40
4.8543695299
100
AcDbArc
 50
127.4103096557
 51
129.4472374496
  0
SPLINE
  5
270
100
AcDbEntity
  8
0
100
AcDbSpline
 62
7
  6
BYLAYER
 70
0
 71
3
 72
12
 73
8
 74
0
 42
0.0000001
 43
0.0000001
 44
0.0000000001
 40
0.0
 40
0.0
 40
0.0
 40
0.0
 40
0.2894832083
 40
0.5486755374
 40
0.7816290778
 40
0.8918324007
 40
1.0
 40
1.0
 40
1.0
 40
1.0
 10
21.9706016501
 20
42.2469894265
 30
0.0
 10
21.9706016501
 20
42.1431200963
 30
0.0
 10
21.9548037249
 20
41.9455546156
 30
0.0
 10
21.8750056535
 20
41.6742525139
 30
0.0
 10
21.7601611031
 20
41.4870608892
 30
0.0
 10
21.6442259702
 20
41.3730809526
 30
0.0
 10
21.5796290118
 20
41.3279425304
 30
0.0
 10
21.5460186277
 20
41.3085342955
 30
0.0
  0
SPLINE
  5
271
100
AcDbEntity
  8
0
100
AcDbSpline
 62
7
  6
BYLAYER
 70
0
 71
3
 72
12
 73
8
 74
0
 42
0.0000001
 43
0.0000001
 44
0.0000000001
 40
0.0
 40
0.0
 40
0.0
 40
0.0
 40
0.2894832083
 40
0.5486755374
 40
0.7816290778
 40
0.8918324007
 40
1.0
 40
1.0
 40
1.0
 40
1.0
 10
39.9311886688
 20
31.8776742617
 30
0.0
 10
39.9311886688
 20
31.7738049315
 30
0.0
 10
39.9153907436
 20
31.5762394508
 30
0.0
 10
39.8355926722
 20
31.3049373491
 30
0.0
 10
39.7207481219
 20
31.1177457244
 30
0.0
 10
39.6048129889
 20
31.0037657878
 30
0.0
 10
39.5402160306
 20
30.9586273656
 30
0.0
 10
39.5066056464
 20
30.9392191307
 30
0.0
  0
SPLINE
  5
272
100
AcDbEntity
  8
0
100
AcDbSpline
 62
7
  6
BYLAYER
 70
0
 71
3
 72
11
 73
7
 74
0
 42
0.0000001
 43
0.0000001
 44
0.0000000001
 40
0.0
 40
0.0
 40
0.0
 40
0.0
 40
0.2176899422
 40
0.4508856506
 40
0.7106204681
 40
1.0
 40
1.0
 40
1.0
 40
1.0
 10
60.5055467612
 20
28.811651485
 30
0.0
 10
60.4890537402
 20
28.8211568786
 30
0.0
 10
60.458192743
 20
28.8470918954
 30
0.0
 10
60.4253054266
 20
28.9008228914
 30
0.0
 10
60.4058697676
 20
28.9670488429
 30
0.0
 10
60.4019798842
 20
29.015220921
 30
0.0
 10
60.4019798842
 20
29.0405259543
 30
0.0
  0
SPLINE
  5
273
100
AcDbEntity
  8
0
100
AcDbSpline
 62
7
  6
BYLAYER
 70
0
 71
3
 72
14
 73
10
 74
0
 42
0.0000001
 43
0.0000001
 44
0.0000000001
 40
0.0
 40
0.0
 40
0.0
 40
0.0
 40
0.2892725084
 40
0.42253484
 40
0.5484974845
 40
0.6678940512
 40
0.7818679668
 40
0.8919536046
 40
1.0
 40
1.0
 40
1.0
 40
1.0
 10
62.4941201757
 20
30.6903611981
 30
0.0
 10
62.4941190745
 20
30.8424167849
 30
0.0
 10
62.4763694799
 20
31.0656147757
 30
0.0
 10
62.4077320682
 20
31.3461492142
 30
0.0
 10
62.3379283123
 20
31.5330924762
 30
0.0
 10
62.248957445
 20
31.7003879914
 30
0.0
 10
62.1414687293
 20
31.8463208228
 30
0.0
 10
62.0165470392
 20
31.9693258426
 30
0.0
 10
61.921960158
 20
32.0352874143
 30
0.0
 10
61.872774695
 20
32.0636844898
 30
0.0
  0
SPLINE
  5
274
100
AcDbEntity
  8
0
100
AcDbSpline
 62
7
  6
BYLAYER
 70
0
 71
3
 72
13
 73
9
 74
0
 42
0.0000001
 43
0.0000001
 44
0.0000000001
 40
0.0
 40
0.0
 40
0.0
 40
0.0
 40
0.1080968892
 40
0.2182376624
 40
0.3322630296
 40
0.4516926385
 40
0.7106275011
 40
1.0
 40
1.0
 40
1.0
 40
1.0
 10
58.8728426333
 20
26.8675321895
 30
0.0
 10
58.9220276437
 20
26.8391353752
 30
0.0
 10
59.0264470666
 20
26.790201251
 30
0.0
 10
59.1954353943
 20
26.7435317952
 30
0.0
 10
59.3755533988
 20
26.7234162449
 30
0.0
 10
59.6348891833
 20
26.7324280364
 30
0.0
 10
59.9794513759
 20
26.8154595268
 30
0.0
 10
60.2411416931
 20
26.9400835809
 30
0.0
 10
60.3728086641
 20
27.0161010883
 30
0.0
  0
SPLINE
  5
275
100
AcDbEntity
  8
0
100
AcDbSpline
 62
7
  6
BYLAYER
 70
0
 71
3
 72
11
 73
7
 74
0
 42
0.0000001
 43
0.0000001
 44
0.0000000001
 40
0.0
 40
0.0
 40
0.0
 40
0.0
 40
0.2176899422
 40
0.4508856506
 40
0.7106204681
 40
1.0
 40
1.0
 40
1.0
 40
1.0
 10
60.5055467612
 20
36.9766756563
 30
0.0
 10
60.4890537402
 20
36.9861810499
 30
0.0
 10
60.458192743
 20
37.0121160667
 30
0.0
 10
60.4253054266
 20
37.0658470627
 30
0.0
 10
60.4058697676
 20
37.1320730142
 30
0.0
 10
60.4019798842
 20
37.1802450923
 30
0.0
 10
60.4019798842
 20
37.2055501256
 30
0.0
  0
SPLINE
  5
276
100
AcDbEntity
  8
0
100
AcDbSpline
 62
7
  6
BYLAYER
 70
0
 71
3
 72
14
 73
10
 74
0
 42
0.0000001
 43
0.0000001
 44
0.0000000001
 40
0.0
 40
0.0
 40
0.0
 40
0.0
 40
0.2892725084
 40
0.42253484
 40
0.5484974845
 40
0.6678940512
 40
0.7818679668
 40
0.8919536046
 40
1.0
 40
1.0
 40
1.0
 40
1.0
 10
62.4941201757
 20
38.8553853694
 30
0.0
 10
62.4941190745
 20
39.0074409562
 30
0.0
 10
62.4763694799
 20
39.230638947
 30
0.0
 10
62.4077320682
 20
39.5111733855
 30
0.0
 10
62.3379283123
 20
39.6981166475
 30
0.0
 10
62.248957445
 20
39.8654121627
 30
0.0
 10
62.1414687293
 20
40.0113449941
 30
0.0
 10
62.0165470392
 20
40.1343500139
 30
0.0
 10
61.921960158
 20
40.2003115856
 30
0.0
 10
61.872774695
 20
40.2287086611
 30
0.0
  0
SPLINE
  5
277
100
AcDbEntity
  8
0
100
AcDbSpline
 62
7
  6
BYLAYER
 70
0
 71
3
 72
13
 73
9
 74
0
 42
0.0000001
 43
0.0000001
 44
0.0000000001
 40
0.0
 40
0.0
 40
0.0
 40
0.0
 40
0.1080968892
 40
0.2182376624
 40
0.3322630296
 40
0.4516926385
 40
0.7106275011
 40
1.0
 40
1.0
 40
1.0
 40
1.0
 10
58.8728426333
 20
35.0325563608
 30
0.0
 10
58.9220276437
 20
35.0041595465
 30
0.0
 10
59.0264470666
 20
34.9552254223
 30
0.0
 10
59.1954353943
 20
34.9085559665
 30
0.0
 10
59.3755533988
 20
34.8884404162
 30
0.0
 10
59.6348891833
 20
34.8974522077
 30
0.0
 10
59.9794513759
 20
34.9804836981
 30
0.0
 10
60.2411416931
 20
35.1051077522
 30
0.0
 10
60.3728086641
 20
35.1811252596
 30
0.0
  0
SPLINE
  5
278
100
AcDbEntity
  8
0
100
AcDbSpline
 62
7
  6
BYLAYER
 70
0
 71
3
 72
15
 73
11
 74
0
 42
0.0000001
 43
0.0000001
 44
0.0000000001
 40
0.0
 40
0.0
 40
0.0
 40
0.0
 40
0.1125074176
 40
0.2332519021
 40
0.3602760196
 40
0.4911671024
 40
0.6232587458
 40
0.7538122038
 40
0.8801560837
 40
1.0
 40
1.0
 40
1.0
 40
1.0
 10
8.2006892923
 20
65.0379481072
 30
0.0
 10
8.2006894342
 20
65.2047560575
 30
0.0
 10
8.2280968166
 20
65.5508742344
 30
0.0
 10
8.3387371461
 20
66.0746655869
 30
0.0
 10
8.5170648358
 20
66.608221423
 30
0.0
 10
8.7576255112
 20
67.1351680933
 30
0.0
 10
9.0530777199
 20
67.6394635791
 30
0.0
 10
9.3944288465
 20
68.1056387724
 30
0.0
 10
9.7711208013
 20
68.5195002684
 30
0.0
 10
10.0472850047
 20
68.7598915182
 30
0.0
 10
10.1889489172
 20
68.8671454866
 30
0.0
  0
SPLINE
  5
279
100
AcDbEntity
  8
0
100
AcDbSpline
 62
7
  6
BYLAYER
 70
0
 71
3
 72
14
 73
10
 74
0
 42
0.0000001
 43
0.0000001
 44
0.0000000001
 40
0.0
 40
0.0
 40
0.0
 40
0.0
 40
0.108045971
 40
0.2181314141
 40
0.3321040025
 40
0.4515029426
 40
0.577459971
 40
0.710729478
 40
1.0
 40
1.0
 40
1.0
 40
1.0
 10
9.0291398009
 20
62.6544780463
 30
0.0
 10
8.9635547086
 20
62.6923330572
 30
0.0
 10
8.8374689516
 20
62.7803252847
 30
0.0
 10
8.6708739854
 20
62.9442924993
 30
0.0
 10
8.5275647207
 20
63.1388836699
 30
0.0
 10
8.4089537097
 20
63.3619471168
 30
0.0
 10
8.3158417371
 20
63.611195082
 30
0.0
 10
8.2243895511
 20
63.9852597362
 30
0.0
 10
8.2007014517
 20
64.2828551646
 30
0.0
 10
8.2006999924
 20
64.4855953449
 30
0.0
  0
SPLINE
  5
27A
100
AcDbEntity
  8
0
100
AcDbSpline
 62
7
  6
BYLAYER
 70
0
 71
3
 72
19
 73
15
 74
0
 42
0.0000001
 43
0.0000001
 44
0.0000000001
 40
0.0
 40
0.0
 40
0.0
 40
0.0
 40
0.0428394104
 40
0.0874448899
 40
0.1352571039
 40
0.1871950253
 40
0.2436735499
 40
0.3046656819
 40
0.4382689093
 40
0.5825434307
 40
0.7296392143
 40
0.871166535
 40
0.9376088396
 40
1.0
 40
1.0
 40
1.0
 40
1.0
 10
19.4960347994
 20
44.859231651
 30
0.0
 10
19.5465717985
 20
44.8884141187
 30
0.0
 10
19.6579891296
 20
44.9346780049
 30
0.0
 10
19.8418768967
 20
44.9616723412
 30
0.0
 10
20.039353845
 20
44.9471075094
 30
0.0
 10
20.2460233164
 20
44.8922126002
 30
0.0
 10
20.4578504075
 20
44.798619278
 30
0.0
 10
20.7502484101
 20
44.619629658
 30
0.0
 10
21.0985873101
 20
44.3111507773
 30
0.0
 10
21.4566122682
 20
43.852779306
 30
0.0
 10
21.7385297632
 20
43.3318249722
 30
0.0
 10
21.8945257762
 20
42.8707720109
 30
0.0
 10
21.9590212012
 20
42.5076042695
 30
0.0
 10
21.9706016501
 20
42.3319811615
 30
0.0
 10
21.9706016501
 20
42.2469894265
 30
0.0
  0
SPLINE
  5
27B
100
AcDbEntity
  8
0
100
AcDbSpline
 62
7
  6
BYLAYER
 70
0
 71
3
 72
17
 73
13
 74
0
 42
0.0000001
 43
0.0000001
 44
0.0000000001
 40
0.0
 40
0.0
 40
0.0
 40
0.0
 40
0.0428570455
 40
0.087485165
 40
0.1353123244
 40
0.1872781392
 40
0.3045378316
 40
0.4381995438
 40
0.5825378192
 40
0.7296849502
 40
0.8713141218
 40
1.0
 40
1.0
 40
1.0
 40
1.0
 10
11.4224137437
 20
56.6039110919
 30
0.0
 10
11.4410418729
 20
56.6146664386
 30
0.0
 10
11.4820916336
 20
56.6317735788
 30
0.0
 10
11.5498823547
 20
56.6416612324
 30
0.0
 10
11.6226769373
 20
56.6363490126
 30
0.0
 10
11.7284381624
 20
56.6081685333
 30
0.0
 10
11.8636564445
 20
56.534268924
 30
0.0
 10
12.0130463366
 20
56.4019687321
 30
0.0
 10
12.1450878534
 20
56.2329539004
 30
0.0
 10
12.2490457063
 20
56.0408642685
 30
0.0
 10
12.3164753055
 20
55.8414387826
 30
0.0
 10
12.3345597265
 20
55.7056143933
 30
0.0
 10
12.3345597265
 20
55.6410264845
 30
0.0
  0
SPLINE
  5
27C
100
AcDbEntity
  8
0
100
AcDbSpline
 62
7
  6
BYLAYER
 70
0
 71
3
 72
19
 73
15
 74
0
 42
0.0000001
 43
0.0000001
 44
0.0000000001
 40
0.0
 40
0.0
 40
0.0
 40
0.0
 40
0.0428394104
 40
0.0874448899
 40
0.1352571039
 40
0.1871950253
 40
0.2436735499
 40
0.3046656819
 40
0.4382689093
 40
0.5825434307
 40
0.7296392143
 40
0.871166535
 40
0.9376088396
 40
1.0
 40
1.0
 40
1.0
 40
1.0
 10
37.4566218182
 20
34.4899164862
 30
0.0
 10
37.5071588172
 20
34.5190989539
 30
0.0
 10
37.6185761483
 20
34.5653628401
 30
0.0
 10
37.8024639154
 20
34.5923571764
 30
0.0
 10
37.9999408637
 20
34.5777923445
 30
0.0
 10
38.2066103352
 20
34.5228974354
 30
0.0
 10
38.4184374262
 20
34.4293041132
 30
0.0
 10
38.7108354289
 20
34.2503144932
 30
0.0
 10
39.0591743289
 20
33.9418356125
 30
0.0
 10
39.417199287
 20
33.4834641412
 30
0.0
 10
39.699116782
 20
32.9625098074
 30
0.0
 10
39.8551127949
 20
32.5014568461
 30
0.0
 10
39.9196082199
 20
32.1382891047
 30
0.0
 10
39.9311886688
 20
31.9626659967
 30
0.0
 10
39.9311886688
 20
31.8776742617
 30
0.0
  0
SPLINE
  5
27D
100
AcDbEntity
  8
0
100
AcDbSpline
 62
7
  6
BYLAYER
 70
0
 71
3
 72
17
 73
13
 74
0
 42
0.0000001
 43
0.0000001
 44
0.0000000001
 40
0.0
 40
0.0
 40
0.0
 40
0.0
 40
0.1286585904
 40
0.270314267
 40
0.4174301424
 40
0.5617701512
 40
0.6954418627
 40
0.8127138798
 40
0.8646727357
 40
0.912513532
 40
0.9571381545
 40
1.0
 40
1.0
 40
1.0
 40
1.0
 10
60.4019798842
 20
29.0405259543
 30
0.0
 10
60.4019798842
 20
29.0832523971
 30
0.0
 10
60.413959135
 20
29.173119395
 30
0.0
 10
60.4585478476
 20
29.305070251
 30
0.0
 10
60.5273479497
 20
29.4321592857
 30
0.0
 10
60.6146965718
 20
29.5439992123
 30
0.0
 10
60.7135458303
 20
29.6315331857
 30
0.0
 10
60.8030042807
 20
29.6804881914
 30
0.0
 10
60.8730006256
 20
29.6990684004
 30
0.0
 10
60.9211651207
 20
29.7026516366
 30
0.0
 10
60.9660167009
 20
29.6960423023
 30
0.0
 10
60.9931843321
 20
29.6847521526
 30
0.0
 10
61.0055168445
 20
29.6776445775
 30
0.0
  0
SPLINE
  5
27E
100
AcDbEntity
  8
0
100
AcDbSpline
 62
7
  6
BYLAYER
 70
0
 71
3
 72
15
 73
11
 74
0
 42
0.0000001
 43
0.0000001
 44
0.0000000001
 40
0.0
 40
0.0
 40
0.0
 40
0.0
 40
0.1141380891
 40
0.2373432293
 40
0.3669801044
 40
0.5000070902
 40
0.6330266923
 40
0.7626767848
 40
0.8858477817
 40
1.0
 40
1.0
 40
1.0
 40
1.0
 10
60.7555318029
 20
27.2370727131
 30
0.0
 10
60.8745352175
 20
27.3057789565
 30
0.0
 10
61.1096209259
 20
27.4706084815
 30
0.0
 10
61.4331252437
 20
27.7732069425
 30
0.0
 10
61.7311953588
 20
28.1309952741
 30
0.0
 10
61.9927000706
 20
28.5303751236
 30
0.0
 10
62.2078479023
 20
28.9565427812
 30
0.0
 10
62.3685995683
 20
29.3935601395
 30
0.0
 10
62.468936795
 20
29.8250066558
 30
0.0
 10
62.49410064
 20
30.1109917958
 30
0.0
 10
62.4941005779
 20
30.2484219081
 30
0.0
  0
SPLINE
  5
27F
100
AcDbEntity
  8
0
100
AcDbSpline
 62
7
  6
BYLAYER
 70
0
 71
3
 72
17
 73
13
 74
0
 42
0.0000001
 43
0.0000001
 44
0.0000000001
 40
0.0
 40
0.0
 40
0.0
 40
0.0
 40
0.1286585904
 40
0.270314267
 40
0.4174301424
 40
0.5617701512
 40
0.6954418627
 40
0.8127138798
 40
0.8646727357
 40
0.912513532
 40
0.9571381545
 40
1.0
 40
1.0
 40
1.0
 40
1.0
 10
60.4019798842
 20
37.2055501256
 30
0.0
 10
60.4019798842
 20
37.2482765684
 30
0.0
 10
60.413959135
 20
37.3381435663
 30
0.0
 10
60.4585478476
 20
37.4700944223
 30
0.0
 10
60.5273479497
 20
37.597183457
 30
0.0
 10
60.6146965718
 20
37.7090233836
 30
0.0
 10
60.7135458303
 20
37.7965573569
 30
0.0
 10
60.8030042807
 20
37.8455123627
 30
0.0
 10
60.8730006256
 20
37.8640925717
 30
0.0
 10
60.9211651207
 20
37.8676758079
 30
0.0
 10
60.9660167009
 20
37.8610664736
 30
0.0
 10
60.9931843321
 20
37.8497763239
 30
0.0
 10
61.0055168445
 20
37.8426687488
 30
0.0
  0
SPLINE
  5
280
100
AcDbEntity
  8
0
100
AcDbSpline
 62
7
  6
BYLAYER
 70
0
 71
3
 72
15
 73
11
 74
0
 42
0.0000001
 43
0.0000001
 44
0.0000000001
 40
0.0
 40
0.0
 40
0.0
 40
0.0
 40
0.1141380891
 40
0.2373432293
 40
0.3669801044
 40
0.5000070902
 40
0.6330266923
 40
0.7626767848
 40
0.8858477817
 40
1.0
 40
1.0
 40
1.0
 40
1.0
 10
60.7555318029
 20
35.4020968844
 30
0.0
 10
60.8745352175
 20
35.4708031278
 30
0.0
 10
61.1096209259
 20
35.6356326528
 30
0.0
 10
61.4331252437
 20
35.9382311138
 30
0.0
 10
61.7311953588
 20
36.2960194454
 30
0.0
 10
61.9927000706
 20
36.6953992949
 30
0.0
 10
62.2078479023
 20
37.1215669525
 30
0.0
 10
62.3685995683
 20
37.5585843108
 30
0.0
 10
62.468936795
 20
37.9900308271
 30
0.0
 10
62.49410064
 20
38.2760159671
 30
0.0
 10
62.4941005779
 20
38.4134460794
 30
0.0
  0
SPLINE
  5
281
100
AcDbEntity
  8
0
100
AcDbSpline
 62
7
  6
BYLAYER
 70
0
 71
3
 72
12
 73
8
 74
0
 42
0.0000001
 43
0.0000001
 44
0.0000000001
 40
0.0
 40
0.0
 40
0.0
 40
0.0
 40
0.2894832083
 40
0.5486755374
 40
0.7816290778
 40
0.8918324007
 40
1.0
 40
1.0
 40
1.0
 40
1.0
 10
19.071451777
 20
43.92077652
 30
0.0
 10
19.071451777
 20
44.0246458502
 30
0.0
 10
19.0872497022
 20
44.2222113309
 30
0.0
 10
19.1670477736
 20
44.4935134326
 30
0.0
 10
19.281892324
 20
44.6807050573
 30
0.0
 10
19.397827457
 20
44.7946849939
 30
0.0
 10
19.4624244153
 20
44.8398234161
 30
0.0
 10
19.4960347994
 20
44.859231651
 30
0.0
  0
SPLINE
  5
282
100
AcDbEntity
  8
0
100
AcDbSpline
 62
7
  6
BYLAYER
 70
0
 71
3
 72
19
 73
15
 74
0
 42
0.0000001
 43
0.0000001
 44
0.0000000001
 40
0.0
 40
0.0
 40
0.0
 40
0.0
 40
0.0428394104
 40
0.0874448899
 40
0.1352571039
 40
0.1871950253
 40
0.2436735499
 40
0.3046656819
 40
0.4382689093
 40
0.5825434307
 40
0.7296392143
 40
0.871166535
 40
0.9376088396
 40
1.0
 40
1.0
 40
1.0
 40
1.0
 10
21.5460186277
 20
41.3085342955
 30
0.0
 10
21.4954816286
 20
41.2793518278
 30
0.0
 10
21.3840642975
 20
41.2330879416
 30
0.0
 10
21.2001765304
 20
41.2060936054
 30
0.0
 10
21.0026995821
 20
41.2206584372
 30
0.0
 10
20.7960301107
 20
41.2755533463
 30
0.0
 10
20.5842030196
 20
41.3691466685
 30
0.0
 10
20.291805017
 20
41.5481362885
 30
0.0
 10
19.943466117
 20
41.8566151693
 30
0.0
 10
19.5854411589
 20
42.3149866406
 30
0.0
 10
19.3035236639
 20
42.8359409743
 30
0.0
 10
19.1475276509
 20
43.2969939356
 30
0.0
 10
19.0830322259
 20
43.660161677
 30
0.0
 10
19.071451777
 20
43.835784785
 30
0.0
 10
19.071451777
 20
43.92077652
 30
0.0
  0
SPLINE
  5
283
100
AcDbEntity
  8
0
100
AcDbSpline
 62
7
  6
BYLAYER
 70
0
 71
3
 72
9
 73
5
 74
0
 42
0.0000001
 43
0.0000001
 44
0.0000000001
 40
0.0
 40
0.0
 40
0.0
 40
0.0
 40
0.2622765502
 40
1.0
 40
1.0
 40
1.0
 40
1.0
 10
62.4941005779
 20
38.4134460794
 30
0.0
 10
62.4941005604
 20
38.4521411096
 30
0.0
 10
62.4904273804
 20
38.5996162597
 30
0.0
 10
62.4713269455
 20
38.7469903907
 30
0.0
 10
62.4463969511
 20
38.8529369983
 30
0.0
  0
SPLINE
  5
284
100
AcDbEntity
  8
0
100
AcDbSpline
 62
7
  6
BYLAYER
 70
0
 71
3
 72
16
 73
12
 74
0
 42
0.0000001
 43
0.0000001
 44
0.0000000001
 40
0.0
 40
0.0
 40
0.0
 40
0.0
 40
0.1311831056
 40
0.2511156593
 40
0.3636949838
 40
0.4744751343
 40
0.5894499032
 40
0.7135740027
 40
0.7802299627
 40
0.8502194699
 40
1.0
 40
1.0
 40
1.0
 40
1.0
 10
62.4463969511
 20
38.8529369983
 30
0.0
 10
62.4249635101
 20
38.944024077
 30
0.0
 10
62.3683234666
 20
39.1154823885
 30
0.0
 10
62.2325133515
 20
39.3395351663
 30
0.0
 10
62.0522310961
 20
39.5101263525
 30
0.0
 10
61.8331822436
 20
39.6195228337
 30
0.0
 10
61.5844761657
 20
39.6637853505
 30
0.0
 10
61.3649910111
 20
39.647163313
 30
0.0
 10
61.1836001751
 20
39.6050104545
 30
0.0
 10
60.9896647392
 20
39.5399160602
 30
0.0
 10
60.8480586512
 20
39.4706676026
 30
0.0
 10
60.7555318029
 20
39.4172475207
 30
0.0
  0
SPLINE
  5
285
100
AcDbEntity
  8
0
100
AcDbSpline
 62
7
  6
BYLAYER
 70
0
 71
3
 72
12
 73
8
 74
0
 42
0.0000001
 43
0.0000001
 44
0.0000000001
 40
0.0
 40
0.0
 40
0.0
 40
0.0
 40
0.2894832083
 40
0.5486755374
 40
0.7816290778
 40
0.8918324007
 40
1.0
 40
1.0
 40
1.0
 40
1.0
 10
37.0320387957
 20
33.5514613552
 30
0.0
 10
37.0320387957
 20
33.6553306854
 30
0.0
 10
37.047836721
 20
33.8528961661
 30
0.0
 10
37.1276347923
 20
34.1241982678
 30
0.0
 10
37.2424793427
 20
34.3113898925
 30
0.0
 10
37.3584144757
 20
34.4253698291
 30
0.0
 10
37.423011434
 20
34.4705082513
 30
0.0
 10
37.4566218182
 20
34.4899164862
 30
0.0
  0
SPLINE
  5
286
100
AcDbEntity
  8
0
100
AcDbSpline
 62
7
  6
BYLAYER
 70
0
 71
3
 72
19
 73
15
 74
0
 42
0.0000001
 43
0.0000001
 44
0.0000000001
 40
0.0
 40
0.0
 40
0.0
 40
0.0
 40
0.0428394104
 40
0.0874448899
 40
0.1352571039
 40
0.1871950253
 40
0.2436735499
 40
0.3046656819
 40
0.4382689093
 40
0.5825434307
 40
0.7296392143
 40
0.871166535
 40
0.9376088396
 40
1.0
 40
1.0
 40
1.0
 40
1.0
 10
39.5066056464
 20
30.9392191307
 30
0.0
 10
39.4560686474
 20
30.910036663
 30
0.0
 10
39.3446513163
 20
30.8637727768
 30
0.0
 10
39.1607635491
 20
30.8367784405
 30
0.0
 10
38.9632866009
 20
30.8513432724
 30
0.0
 10
38.7566171294
 20
30.9062381815
 30
0.0
 10
38.5447900384
 20
30.9998315037
 30
0.0
 10
38.2523920357
 20
31.1788211237
 30
0.0
 10
37.9040531357
 20
31.4873000045
 30
0.0
 10
37.5460281776
 20
31.9456714758
 30
0.0
 10
37.2641106826
 20
32.4666258095
 30
0.0
 10
37.1081146696
 20
32.9276787708
 30
0.0
 10
37.0436192447
 20
33.2908465122
 30
0.0
 10
37.0320387957
 20
33.4664696202
 30
0.0
 10
37.0320387957
 20
33.5514613552
 30
0.0
  0
SPLINE
  5
287
100
AcDbEntity
  8
0
100
AcDbSpline
 62
7
  6
BYLAYER
 70
0
 71
3
 72
13
 73
9
 74
0
 42
0.0000001
 43
0.0000001
 44
0.0000000001
 40
0.0
 40
0.0
 40
0.0
 40
0.0
 40
0.1080968892
 40
0.2182376624
 40
0.3322630296
 40
0.4516926385
 40
0.7106275011
 40
1.0
 40
1.0
 40
1.0
 40
1.0
 10
61.872774695
 20
40.2287086611
 30
0.0
 10
61.8235896845
 20
40.2571054754
 30
0.0
 10
61.7191702616
 20
40.3060395996
 30
0.0
 10
61.550181934
 20
40.3527090554
 30
0.0
 10
61.3700639295
 20
40.3728246057
 30
0.0
 10
61.110728145
 20
40.3638128142
 30
0.0
 10
60.7661659524
 20
40.2807813238
 30
0.0
 10
60.5044756351
 20
40.1561572697
 30
0.0
 10
60.3728086641
 20
40.0801397623
 30
0.0
  0
SPLINE
  5
288
100
AcDbEntity
  8
0
100
AcDbSpline
 62
7
  6
BYLAYER
 70
0
 71
3
 72
9
 73
5
 74
0
 42
0.0000001
 43
0.0000001
 44
0.0000000001
 40
0.0
 40
0.0
 40
0.0
 40
0.0
 40
0.2430315084
 40
1.0
 40
1.0
 40
1.0
 40
1.0
 10
60.4039592429
 20
29.0416920761
 30
0.0
 10
60.4088586621
 20
29.0445521852
 30
0.0
 10
60.4288078179
 20
29.0566792908
 30
0.0
 10
60.4479148119
 20
29.0701773016
 30
0.0
 10
60.4618759683
 20
29.081008658
 30
0.0
  0
SPLINE
  5
289
100
AcDbEntity
  8
0
100
AcDbSpline
 62
7
  6
BYLAYER
 70
0
 71
3
 72
11
 73
7
 74
0
 42
0.0000001
 43
0.0000001
 44
0.0000000001
 40
0.0
 40
0.0
 40
0.0
 40
0.0
 40
0.2469500706
 40
0.5096330929
 40
0.7671918978
 40
1.0
 40
1.0
 40
1.0
 40
1.0
 10
60.4618759683
 20
29.081008658
 30
0.0
 10
60.5048806436
 20
29.1143725823
 30
0.0
 10
60.5845261822
 20
29.1952403701
 30
0.0
 10
60.6768050091
 20
29.3381577412
 30
0.0
 10
60.7383804998
 20
29.4933965982
 30
0.0
 10
60.7555288589
 20
29.6015781194
 30
0.0
 10
60.7555288589
 20
29.6528904855
 30
0.0
  0
SPLINE
  5
28A
100
AcDbEntity
  8
0
100
AcDbSpline
 62
7
  6
BYLAYER
 70
0
 71
3
 72
17
 73
13
 74
0
 42
0.0000001
 43
0.0000001
 44
0.0000000001
 40
0.0
 40
0.0
 40
0.0
 40
0.0
 40
0.1286585904
 40
0.270314267
 40
0.4174301424
 40
0.5617701512
 40
0.6954418627
 40
0.8127138798
 40
0.8646727357
 40
0.912513532
 40
0.9571381545
 40
1.0
 40
1.0
 40
1.0
 40
1.0
 10
61.1090837215
 20
29.4487701082
 30
0.0
 10
61.1090837215
 20
29.4060436654
 30
0.0
 10
61.0971044707
 20
29.3161766675
 30
0.0
 10
61.0525157581
 20
29.1842258115
 30
0.0
 10
60.983715656
 20
29.0571367768
 30
0.0
 10
60.8963670339
 20
28.9452968502
 30
0.0
 10
60.7975177754
 20
28.8577628769
 30
0.0
 10
60.708059325
 20
28.8088078711
 30
0.0
 10
60.6380629801
 20
28.7902276621
 30
0.0
 10
60.589898485
 20
28.786644426
 30
0.0
 10
60.5450469048
 20
28.7932537603
 30
0.0
 10
60.5178792736
 20
28.8045439099
 30
0.0
 10
60.5055467612
 20
28.811651485
 30
0.0
  0
SPLINE
  5
28B
100
AcDbEntity
  8
0
100
AcDbSpline
 62
7
  6
BYLAYER
 70
0
 71
3
 72
11
 73
7
 74
0
 42
0.0000001
 43
0.0000001
 44
0.0000000001
 40
0.0
 40
0.0
 40
0.0
 40
0.0
 40
0.2895453772
 40
0.5491366158
 40
0.7822776227
 40
1.0
 40
1.0
 40
1.0
 40
1.0
 10
11.2658922264
 20
56.2580079953
 30
0.0
 10
11.2658922264
 20
56.2962744302
 30
0.0
 10
11.2717352817
 20
56.3690897385
 30
0.0
 10
11.3011713539
 20
56.4691520504
 30
0.0
 10
11.3508295757
 20
56.550364844
 30
0.0
 10
11.3974947146
 20
56.5895235603
 30
0.0
 10
11.4224137437
 20
56.6039110919
 30
0.0
  0
SPLINE
  5
28C
100
AcDbEntity
  8
0
100
AcDbSpline
 62
7
  6
BYLAYER
 70
0
 71
3
 72
11
 73
7
 74
0
 42
0.0000001
 43
0.0000001
 44
0.0000000001
 40
0.0
 40
0.0
 40
0.0
 40
0.0
 40
0.2176899422
 40
0.4508856506
 40
0.7106204681
 40
1.0
 40
1.0
 40
1.0
 40
1.0
 10
61.0055168445
 20
29.6776445775
 30
0.0
 10
61.0220098655
 20
29.6681391839
 30
0.0
 10
61.0528708627
 20
29.6422041671
 30
0.0
 10
61.0857581791
 20
29.5884731711
 30
0.0
 10
61.1051938381
 20
29.5222472197
 30
0.0
 10
61.1090837215
 20
29.4740751415
 30
0.0
 10
61.1090837215
 20
29.4487701082
 30
0.0
  0
SPLINE
  5
28D
100
AcDbEntity
  8
0
100
AcDbSpline
 62
7
  6
BYLAYER
 70
0
 71
3
 72
22
 73
18
 74
0
 42
0.0000001
 43
0.0000001
 44
0.0000000001
 40
0.0
 40
0.0
 40
0.0
 40
0.0
 40
0.0428174407
 40
0.0874047064
 40
0.135194266
 40
0.1871093318
 40
0.2435643696
 40
0.3045306074
 40
0.3696362086
 40
0.438254017
 40
0.5095608433
 40
0.5826047634
 40
0.7296226846
 40
0.8016207743
 40
0.8712279698
 40
0.9376184973
 40
1.0
 40
1.0
 40
1.0
 40
1.0
 10
55.7200187766
 20
36.8528026508
 30
0.0
 10
55.6460612983
 20
36.8955018404
 30
0.0
 10
55.5058553196
 20
37.0027987721
 30
0.0
 10
55.3371297716
 20
37.2161441087
 30
0.0
 10
55.211071829
 20
37.4770682524
 30
0.0
 10
55.1294068029
 20
37.7791763031
 30
0.0
 10
55.093065755
 20
38.1161254916
 30
0.0
 10
55.102362748
 20
38.4809712955
 30
0.0
 10
55.1568652824
 20
38.8661991148
 30
0.0
 10
55.2554191736
 20
39.263733585
 30
0.0
 10
55.3958925807
 20
39.6652476873
 30
0.0
 10
55.6354472517
 20
40.1952829996
 30
0.0
 10
55.9422979919
 20
40.6944234601
 30
0.0
 10
56.3049425522
 20
41.1422228692
 30
0.0
 10
56.5948475681
 20
41.4398980308
 30
0.0
 10
56.8981171295
 20
41.6950289608
 30
0.0
 10
57.1122331443
 20
41.8381740875
 30
0.0
 10
57.2199831771
 20
41.9003832265
 30
0.0
  0
SPLINE
  5
28E
100
AcDbEntity
  8
0
100
AcDbSpline
 62
7
  6
BYLAYER
 70
0
 71
3
 72
25
 73
21
 74
0
 42
0.0000001
 43
0.0000001
 44
0.0000000001
 40
0.0
 40
0.0
 40
0.0
 40
0.0
 40
0.0660571513
 40
0.1370740687
 40
0.2117606762
 40
0.2886770536
 40
0.3661634834
 40
0.4425429985
 40
0.5162122291
 40
0.585753534
 40
0.6500718962
 40
0.7085603212
 40
0.7612938895
 40
0.8092438925
 40
0.8320722923
 40
0.8545252123
 40
0.8769618403
 40
0.8997447513
 40
0.9475098133
 40
1.0
 40
1.0
 40
1.0
 40
1.0
 10
60.7555318029
 20
31.2522233494
 30
0.0
 10
60.6462387051
 20
31.1891233266
 30
0.0
 10
60.4298859988
 20
31.0396639207
 30
0.0
 10
60.1292833946
 20
30.7675157556
 30
0.0
 10
59.8487489849
 20
30.4466418439
 30
0.0
 10
59.5972071199
 20
30.0875014352
 30
0.0
 10
59.3826872065
 20
29.7013948597
 30
0.0
 10
59.2120234954
 20
29.300702507
 30
0.0
 10
59.0906294848
 20
28.8981730201
 30
0.0
 10
59.0224053217
 20
28.5065062962
 30
0.0
 10
59.0096305114
 20
28.1378919054
 30
0.0
 10
59.0531559354
 20
27.8035040094
 30
0.0
 10
59.1525281945
 20
27.5135393074
 30
0.0
 10
59.2837781208
 20
27.3134743402
 30
0.0
 10
59.4128306766
 20
27.1897961998
 30
0.0
 10
59.519312726
 20
27.1153774448
 30
0.0
 10
59.636107117
 20
27.0586823013
 30
0.0
 10
59.8066126106
 20
27.0065851474
 30
0.0
 10
60.0443338408
 20
26.9898268616
 30
0.0
 10
60.2344605497
 20
27.025068062
 30
0.0
 10
60.330859599
 20
27.0527005089
 30
0.0
  0
SPLINE
  5
28F
100
AcDbEntity
  8
0
100
AcDbSpline
 62
7
  6
BYLAYER
 70
0
 71
3
 72
9
 73
5
 74
0
 42
0.0000001
 43
0.0000001
 44
0.0000000001
 40
0.0
 40
0.0
 40
0.0
 40
0.0
 40
0.2377115502
 40
1.0
 40
1.0
 40
1.0
 40
1.0
 10
60.330859599
 20
27.0527005089
 30
0.0
 10
60.366174335
 20
27.0628233533
 30
0.0
 10
60.5131964389
 20
27.1107400511
 30
0.0
 10
60.6535075832
 20
27.1781693541
 30
0.0
 10
60.7555318029
 20
27.2370727131
 30
0.0
  0
SPLINE
  5
290
100
AcDbEntity
  8
0
100
AcDbSpline
 62
7
  6
BYLAYER
 70
0
 71
3
 72
22
 73
18
 74
0
 42
0.0000001
 43
0.0000001
 44
0.0000000001
 40
0.0
 40
0.0
 40
0.0
 40
0.0
 40
0.06238032
 40
0.1287678448
 40
0.1983725876
 40
0.2703687439
 40
0.4173885192
 40
0.4904339969
 40
0.5617416019
 40
0.6303601184
 40
0.6954660964
 40
0.7564323727
 40
0.8128875031
 40
0.8648025827
 40
0.9125923521
 40
0.9571806018
 40
1.0
 40
1.0
 40
1.0
 40
1.0
 10
60.3728086641
 20
31.915115591
 30
0.0
 10
60.2650604843
 20
31.8529075218
 30
0.0
 10
60.0509495383
 20
31.7097690571
 30
0.0
 10
59.7476900074
 20
31.454645619
 30
0.0
 10
59.4577920019
 20
31.156983531
 30
0.0
 10
59.0951421479
 20
30.7091934718
 30
0.0
 10
58.7882875147
 20
30.210050472
 30
0.0
 10
58.5487234309
 20
29.6800091221
 30
0.0
 10
58.4082469552
 20
29.2784888444
 30
0.0
 10
58.3096878181
 20
28.8809511671
 30
0.0
 10
58.2551826334
 20
28.4957206301
 30
0.0
 10
58.2458848441
 20
28.1308732845
 30
0.0
 10
58.2822214492
 20
27.7939228491
 30
0.0
 10
58.363884661
 20
27.4918127141
 30
0.0
 10
58.4899434669
 20
27.2308863605
 30
0.0
 10
58.6586675143
 20
27.0175304896
 30
0.0
 10
58.7988816145
 20
26.9102333558
 30
0.0
 10
58.8728426333
 20
26.8675321895
 30
0.0
  0
SPLINE
  5
291
100
AcDbEntity
  8
0
100
AcDbSpline
 62
7
  6
BYLAYER
 70
0
 71
3
 72
9
 73
5
 74
0
 42
0.0000001
 43
0.0000001
 44
0.0000000001
 40
0.0
 40
0.0
 40
0.0
 40
0.0
 40
0.2622765502
 40
1.0
 40
1.0
 40
1.0
 40
1.0
 10
62.4941005779
 20
30.2484219081
 30
0.0
 10
62.4941005604
 20
30.2871169383
 30
0.0
 10
62.4904273804
 20
30.4345920884
 30
0.0
 10
62.4713269455
 20
30.5819662194
 30
0.0
 10
62.4463969511
 20
30.687912827
 30
0.0
  0
SPLINE
  5
292
100
AcDbEntity
  8
0
100
AcDbSpline
 62
7
  6
BYLAYER
 70
0
 71
3
 72
16
 73
12
 74
0
 42
0.0000001
 43
0.0000001
 44
0.0000000001
 40
0.0
 40
0.0
 40
0.0
 40
0.0
 40
0.1311831056
 40
0.2511156593
 40
0.3636949838
 40
0.4744751343
 40
0.5894499032
 40
0.7135740027
 40
0.7802299627
 40
0.8502194699
 40
1.0
 40
1.0
 40
1.0
 40
1.0
 10
62.4463969511
 20
30.687912827
 30
0.0
 10
62.4249635101
 20
30.7789999057
 30
0.0
 10
62.3683234666
 20
30.9504582172
 30
0.0
 10
62.2325133515
 20
31.174510995
 30
0.0
 10
62.0522310961
 20
31.3451021812
 30
0.0
 10
61.8331822436
 20
31.4544986624
 30
0.0
 10
61.5844761657
 20
31.4987611792
 30
0.0
 10
61.3649910111
 20
31.4821391417
 30
0.0
 10
61.1836001751
 20
31.4399862833
 30
0.0
 10
60.9896647392
 20
31.3748918889
 30
0.0
 10
60.8480586512
 20
31.3056434313
 30
0.0
 10
60.7555318029
 20
31.2522233494
 30
0.0
  0
SPLINE
  5
293
100
AcDbEntity
  8
0
100
AcDbSpline
 62
7
  6
BYLAYER
 70
0
 71
3
 72
9
 73
5
 74
0
 42
0.0000001
 43
0.0000001
 44
0.0000000001
 40
0.0
 40
0.0
 40
0.0
 40
0.0
 40
0.2432981191
 40
1.0
 40
1.0
 40
1.0
 40
1.0
 10
8.2006999924
 20
64.4855953449
 30
0.0
 10
8.2006996839
 20
64.5284533236
 30
0.0
 10
8.2036941894
 20
64.7046013213
 30
0.0
 10
8.2183197889
 20
64.8804977006
 30
0.0
 10
8.2350225346
 20
65.0127432806
 30
0.0
  0
SPLINE
  5
294
100
AcDbEntity
  8
0
100
AcDbSpline
 62
7
  6
BYLAYER
 70
0
 71
3
 72
11
 73
7
 74
0
 42
0.0000001
 43
0.0000001
 44
0.0000000001
 40
0.0
 40
0.0
 40
0.0
 40
0.0
 40
0.2386346702
 40
0.4932886565
 40
0.7514422267
 40
1.0
 40
1.0
 40
1.0
 40
1.0
 10
8.2350225346
 20
65.0127432806
 30
0.0
 10
8.2777410176
 20
65.3509709382
 30
0.0
 10
8.4414368961
 20
66.0415130087
 30
0.0
 10
8.8640390961
 20
67.0330783729
 30
0.0
 10
9.4443490509
 20
67.9581014172
 30
0.0
 10
9.9254229396
 20
68.5047490344
 30
0.0
 10
10.1843125432
 20
68.7477833945
 30
0.0
  0
SPLINE
  5
295
100
AcDbEntity
  8
0
100
AcDbSpline
 62
7
  6
BYLAYER
 70
0
 71
3
 72
17
 73
13
 74
0
 42
0.0000001
 43
0.0000001
 44
0.0000000001
 40
0.0
 40
0.0
 40
0.0
 40
0.0
 40
0.1286585904
 40
0.270314267
 40
0.4174301424
 40
0.5617701512
 40
0.6954418627
 40
0.8127138798
 40
0.8646727357
 40
0.912513532
 40
0.9571381545
 40
1.0
 40
1.0
 40
1.0
 40
1.0
 10
61.1090837215
 20
37.6137942795
 30
0.0
 10
61.1090837215
 20
37.5710678367
 30
0.0
 10
61.0971044707
 20
37.4812008388
 30
0.0
 10
61.0525157581
 20
37.3492499828
 30
0.0
 10
60.983715656
 20
37.2221609481
 30
0.0
 10
60.8963670339
 20
37.1103210215
 30
0.0
 10
60.7975177754
 20
37.0227870482
 30
0.0
 10
60.708059325
 20
36.9738320424
 30
0.0
 10
60.6380629801
 20
36.9552518334
 30
0.0
 10
60.589898485
 20
36.9516685973
 30
0.0
 10
60.5450469048
 20
36.9582779316
 30
0.0
 10
60.5178792736
 20
36.9695680812
 30
0.0
 10
60.5055467612
 20
36.9766756563
 30
0.0
  0
SPLINE
  5
296
100
AcDbEntity
  8
0
100
AcDbSpline
 62
7
  6
BYLAYER
 70
0
 71
3
 72
13
 73
9
 74
0
 42
0.0000001
 43
0.0000001
 44
0.0000000001
 40
0.0
 40
0.0
 40
0.0
 40
0.0
 40
0.1080968892
 40
0.2182376624
 40
0.3322630296
 40
0.4516926385
 40
0.7106275011
 40
1.0
 40
1.0
 40
1.0
 40
1.0
 10
61.872774695
 20
32.0636844898
 30
0.0
 10
61.8235896845
 20
32.0920813041
 30
0.0
 10
61.7191702616
 20
32.1410154283
 30
0.0
 10
61.550181934
 20
32.1876848841
 30
0.0
 10
61.3700639295
 20
32.2078004344
 30
0.0
 10
61.110728145
 20
32.1987886429
 30
0.0
 10
60.7661659524
 20
32.1157571525
 30
0.0
 10
60.5044756351
 20
31.9911330984
 30
0.0
 10
60.3728086641
 20
31.915115591
 30
0.0
  0
SPLINE
  5
297
100
AcDbEntity
  8
0
100
AcDbSpline
 62
7
  6
BYLAYER
 70
0
 71
3
 72
25
 73
21
 74
0
 42
0.0000001
 43
0.0000001
 44
0.0000000001
 40
0.0
 40
0.0
 40
0.0
 40
0.0
 40
0.0660571513
 40
0.1370740687
 40
0.2117606762
 40
0.2886770536
 40
0.3661634834
 40
0.4425429985
 40
0.5162122291
 40
0.585753534
 40
0.6500718962
 40
0.7085603212
 40
0.7612938895
 40
0.8092438925
 40
0.8320722923
 40
0.8545252123
 40
0.8769618403
 40
0.8997447513
 40
0.9475098133
 40
1.0
 40
1.0
 40
1.0
 40
1.0
 10
60.7555318029
 20
39.4172475207
 30
0.0
 10
60.6462387051
 20
39.3541474979
 30
0.0
 10
60.4298859988
 20
39.204688092
 30
0.0
 10
60.1292833946
 20
38.9325399269
 30
0.0
 10
59.8487489849
 20
38.6116660152
 30
0.0
 10
59.5972071199
 20
38.2525256065
 30
0.0
 10
59.3826872065
 20
37.866419031
 30
0.0
 10
59.2120234954
 20
37.4657266783
 30
0.0
 10
59.0906294848
 20
37.0631971914
 30
0.0
 10
59.0224053217
 20
36.6715304675
 30
0.0
 10
59.0096305114
 20
36.3029160767
 30
0.0
 10
59.0531559354
 20
35.9685281807
 30
0.0
 10
59.1525281945
 20
35.6785634787
 30
0.0
 10
59.2837781208
 20
35.4784985115
 30
0.0
 10
59.4128306766
 20
35.3548203711
 30
0.0
 10
59.519312726
 20
35.2804016161
 30
0.0
 10
59.636107117
 20
35.2237064726
 30
0.0
 10
59.8066126106
 20
35.1716093187
 30
0.0
 10
60.0443338408
 20
35.1548510329
 30
0.0
 10
60.2344605497
 20
35.1900922333
 30
0.0
 10
60.330859599
 20
35.2177246802
 30
0.0
  0
SPLINE
  5
298
100
AcDbEntity
  8
0
100
AcDbSpline
 62
7
  6
BYLAYER
 70
0
 71
3
 72
9
 73
5
 74
0
 42
0.0000001
 43
0.0000001
 44
0.0000000001
 40
0.0
 40
0.0
 40
0.0
 40
0.0
 40
0.2377115502
 40
1.0
 40
1.0
 40
1.0
 40
1.0
 10
60.330859599
 20
35.2177246802
 30
0.0
 10
60.366174335
 20
35.2278475246
 30
0.0
 10
60.5131964389
 20
35.2757642224
 30
0.0
 10
60.6535075832
 20
35.3431935254
 30
0.0
 10
60.7555318029
 20
35.4020968844
 30
0.0
  0
SPLINE
  5
299
100
AcDbEntity
  8
0
100
AcDbSpline
 62
7
  6
BYLAYER
 70
0
 71
3
 72
22
 73
18
 74
0
 42
0.0000001
 43
0.0000001
 44
0.0000000001
 40
0.0
 40
0.0
 40
0.0
 40
0.0
 40
0.06238032
 40
0.1287678448
 40
0.1983725876
 40
0.2703687439
 40
0.4173885192
 40
0.4904339969
 40
0.5617416019
 40
0.6303601184
 40
0.6954660964
 40
0.7564323727
 40
0.8128875031
 40
0.8648025827
 40
0.9125923521
 40
0.9571806018
 40
1.0
 40
1.0
 40
1.0
 40
1.0
 10
60.3728086641
 20
40.0801397623
 30
0.0
 10
60.2650604843
 20
40.0179316931
 30
0.0
 10
60.0509495383
 20
39.8747932284
 30
0.0
 10
59.7476900074
 20
39.6196697903
 30
0.0
 10
59.4577920019
 20
39.3220077023
 30
0.0
 10
59.0951421479
 20
38.8742176431
 30
0.0
 10
58.7882875147
 20
38.3750746433
 30
0.0
 10
58.5487234309
 20
37.8450332934
 30
0.0
 10
58.4082469552
 20
37.4435130157
 30
0.0
 10
58.3096878181
 20
37.0459753384
 30
0.0
 10
58.2551826334
 20
36.6607448014
 30
0.0
 10
58.2458848441
 20
36.2958974558
 30
0.0
 10
58.2822214492
 20
35.9589470204
 30
0.0
 10
58.363884661
 20
35.6568368854
 30
0.0
 10
58.4899434669
 20
35.3959105318
 30
0.0
 10
58.6586675143
 20
35.1825546609
 30
0.0
 10
58.7988816145
 20
35.0752575271
 30
0.0
 10
58.8728426333
 20
35.0325563608
 30
0.0
  0
SPLINE
  5
29A
100
AcDbEntity
  8
0
100
AcDbSpline
 62
7
  6
BYLAYER
 70
0
 71
3
 72
13
 73
9
 74
0
 42
0.0000001
 43
0.0000001
 44
0.0000000001
 40
0.0
 40
0.0
 40
0.0
 40
0.0
 40
0.2893772482
 40
0.548314465
 40
0.6677436665
 40
0.7817685269
 40
0.8919074287
 40
1.0
 40
1.0
 40
1.0
 40
1.0
 10
57.2199831771
 20
41.9003832265
 30
0.0
 10
57.3516520897
 20
41.9764018549
 30
0.0
 10
57.6133462401
 20
42.1010254209
 30
0.0
 10
57.957911588
 20
42.1840570548
 30
0.0
 10
58.2172479692
 20
42.1930651643
 30
0.0
 10
58.3973637717
 20
42.1729461689
 30
0.0
 10
58.5663479548
 20
42.1262767886
 30
0.0
 10
58.6707646332
 20
42.0773449658
 30
0.0
 10
58.7199475776
 20
42.0489492996
 30
0.0
  0
SPLINE
  5
29B
100
AcDbEntity
  8
0
100
AcDbSpline
 62
7
  6
BYLAYER
 70
0
 71
3
 72
13
 73
9
 74
0
 42
0.0000001
 43
0.0000001
 44
0.0000000001
 40
0.0
 40
0.0
 40
0.0
 40
0.0
 40
0.2893772482
 40
0.548314465
 40
0.6677436665
 40
0.7817685269
 40
0.8919074287
 40
1.0
 40
1.0
 40
1.0
 40
1.0
 10
57.2199831771
 20
33.7353590553
 30
0.0
 10
57.3516520897
 20
33.8113776836
 30
0.0
 10
57.6133462401
 20
33.9360012496
 30
0.0
 10
57.957911588
 20
34.0190328835
 30
0.0
 10
58.2172479692
 20
34.028040993
 30
0.0
 10
58.3973637717
 20
34.0079219976
 30
0.0
 10
58.5663479548
 20
33.9612526173
 30
0.0
 10
58.6707646332
 20
33.9123207945
 30
0.0
 10
58.7199475776
 20
33.8839251283
 30
0.0
  0
SPLINE
  5
29C
100
AcDbEntity
  8
0
100
AcDbSpline
 62
7
  6
BYLAYER
 70
0
 71
3
 72
22
 73
18
 74
0
 42
0.0000001
 43
0.0000001
 44
0.0000000001
 40
0.0
 40
0.0
 40
0.0
 40
0.0
 40
0.0428174407
 40
0.0874047064
 40
0.135194266
 40
0.1871093318
 40
0.2435643696
 40
0.3045306074
 40
0.3696362086
 40
0.438254017
 40
0.5095608433
 40
0.5826047634
 40
0.7296226846
 40
0.8016207743
 40
0.8712279698
 40
0.9376184973
 40
1.0
 40
1.0
 40
1.0
 40
1.0
 10
55.7200187766
 20
28.6877784795
 30
0.0
 10
55.6460612983
 20
28.7304776691
 30
0.0
 10
55.5058553196
 20
28.8377746008
 30
0.0
 10
55.3371297716
 20
29.0511199374
 30
0.0
 10
55.211071829
 20
29.3120440811
 30
0.0
 10
55.1294068029
 20
29.6141521318
 30
0.0
 10
55.093065755
 20
29.9511013203
 30
0.0
 10
55.102362748
 20
30.3159471242
 30
0.0
 10
55.1568652824
 20
30.7011749435
 30
0.0
 10
55.2554191736
 20
31.0987094137
 30
0.0
 10
55.3958925807
 20
31.500223516
 30
0.0
 10
55.6354472517
 20
32.0302588283
 30
0.0
 10
55.9422979919
 20
32.5293992888
 30
0.0
 10
56.3049425522
 20
32.9771986979
 30
0.0
 10
56.5948475681
 20
33.2748738595
 30
0.0
 10
56.8981171295
 20
33.5300047895
 30
0.0
 10
57.1122331443
 20
33.6731499162
 30
0.0
 10
57.2199831771
 20
33.7353590553
 30
0.0
  0
SPLINE
  5
29D
100
AcDbEntity
  8
0
100
AcDbSpline
 62
7
  6
BYLAYER
 70
0
 71
3
 72
9
 73
5
 74
0
 42
0.0000001
 43
0.0000001
 44
0.0000000001
 40
0.0
 40
0.0
 40
0.0
 40
0.0
 40
0.2430315084
 40
1.0
 40
1.0
 40
1.0
 40
1.0
 10
60.4039592429
 20
37.2067162474
 30
0.0
 10
60.4088586621
 20
37.2095763565
 30
0.0
 10
60.4288078179
 20
37.2217034621
 30
0.0
 10
60.4479148119
 20
37.2352014729
 30
0.0
 10
60.4618759683
 20
37.2460328293
 30
0.0
  0
SPLINE
  5
29E
100
AcDbEntity
  8
0
100
AcDbSpline
 62
7
  6
BYLAYER
 70
0
 71
3
 72
11
 73
7
 74
0
 42
0.0000001
 43
0.0000001
 44
0.0000000001
 40
0.0
 40
0.0
 40
0.0
 40
0.0
 40
0.2469500706
 40
0.5096330929
 40
0.7671918978
 40
1.0
 40
1.0
 40
1.0
 40
1.0
 10
60.4618759683
 20
37.2460328293
 30
0.0
 10
60.5048806436
 20
37.2793967536
 30
0.0
 10
60.5845261822
 20
37.3602645414
 30
0.0
 10
60.6768050091
 20
37.5031819125
 30
0.0
 10
60.7383804998
 20
37.6584207695
 30
0.0
 10
60.7555288589
 20
37.7666022907
 30
0.0
 10
60.7555288589
 20
37.8179146568
 30
0.0
  0
SPLINE
  5
29F
100
AcDbEntity
  8
0
100
AcDbSpline
 62
7
  6
BYLAYER
 70
0
 71
3
 72
11
 73
7
 74
0
 42
0.0000001
 43
0.0000001
 44
0.0000000001
 40
0.0
 40
0.0
 40
0.0
 40
0.0
 40
0.2176899422
 40
0.4508856506
 40
0.7106204681
 40
1.0
 40
1.0
 40
1.0
 40
1.0
 10
61.0055168445
 20
37.8426687488
 30
0.0
 10
61.0220098655
 20
37.8331633552
 30
0.0
 10
61.0528708627
 20
37.8072283384
 30
0.0
 10
61.0857581791
 20
37.7534973424
 30
0.0
 10
61.1051938381
 20
37.687271391
 30
0.0
 10
61.1090837215
 20
37.6390993128
 30
0.0
 10
61.1090837215
 20
37.6137942795
 30
0.0
  0
ENDSEC
  0
SECTION
  2
OBJECTS
  0
DICTIONARY
  5
C
100
AcDbDictionary
280
0
281
1
  3
ACAD_GROUP
350
D
  3
ACAD_MLINESTYLE
350
17
  3
ACAD_LAYOUT
350
1A
  3
ACAD_PLOTSETTINGS
350
19
  3
ACAD_PLOTSTYLENAME
350
E
  0
DICTIONARY
  5
D
102
{ACAD_REACTORS
330
C
102
}
100
AcDbDictionary
280
0
281
1
  0
ACDBDICTIONARYWDFLT
  5
E
102
{ACAD_REACTORS
330
C
102
}
100
AcDbDictionary
281
1
  3
Normal
350
F
100
AcDbDictionaryWithDefault
340
F
  0
DICTIONARY
  5
17
102
{ACAD_REACTORS
330
C
102
}
100
AcDbDictionary
280
0
281
1
  3
Standard
350
18
  0
DICTIONARY
  5
19
102
{ACAD_REACTORS
330
C
102
}
100
AcDbDictionary
281
1
  0
DICTIONARY
  5
1A
102
{ACAD_REACTORS
330
C
102
}
100
AcDbDictionary
281
1
  3
Model
350
2A0
  3
Layout1
350
2A1
  0
ACDBPLACEHOLDER
  5
F
102
{ACAD_REACTORS
330
E
102
}
  0
MLINESTYLE
  5
18
102
{ACAD_REACTORS
330
17
102
}
100
AcDbMlineStyle
  2
STANDARD
 70
0
  3

 62
256
 51
90.0
 52
90.0
 71
2
 49
0.5
 62
256
  6
BYLAYER
 49
-0.5
 62
256
  6
BYLAYER
  0
LAYOUT
  5
2A0
102
{ACAD_REACTORS
330
1A
102
}
100
AcDbPlotSettings
  1

  2
none_device
  4

  6

 40
0.0
 41
0.0
 42
0.0
 43
0.0
 44
210.0
 45
297.0
 46
0.0
 47
0.0
 48
0.0
 49
0.0
140
0.0
141
0.0
142
1.0
143
1.0
 70
1024
 72
1
 73
0
 74
0
  7

 75
0
147
1.0
148
0.0
149
0.0
100
AcDbLayout
  1
Model
 70
0
 71
0
 10
0.0
 20
0.0
 11
210.0
 21
297.0
 12
0.0
 22
0.0
 32
0.0
 14
0.0
 24
0.0
 34
0.0
 15
0.0
 25
0.0
 35
0.0
146
0.0
 13
0.0
 23
0.0
 33
0.0
 16
1.0
 26
0.0
 36
0.0
 17
0.0
 27
1.0
 37
0.0
 76
0
330
210
345
0
346
0
  0
LAYOUT
  5
2A1
102
{ACAD_REACTORS
330
1A
102
}
100
AcDbPlotSettings
  1

  2
none_device
  4

  6

 40
0.0
 41
0.0
 42
0.0
 43
0.0
 44
210.0
 45
297.0
 46
0.0
 47
0.0
 48
0.0
 49
0.0
140
0.0
141
0.0
142
1.0
143
1.0
 70
0
 72
1
 73
0
 74
0
  7

 75
0
147
1.0
148
0.0
149
0.0
100
AcDbLayout
  1
Layout1
 70
0
 71
1
 10
0.0
 20
0.0
 11
210.0
 21
297.0
 12
0.0
 22
0.0
 32
0.0
 14
0.0
 24
0.0
 34
0.0
 15
0.0
 25
0.0
 35
0.0
146
0.0
 13
0.0
 23
0.0
 33
0.0
 16
1.0
 26
0.0
 36
0.0
 17
0.0
 27
1.0
 37
0.0
 76
0
330
211
345
0
346
0
  0
ENDSEC
  0
EOF
