999
DXF file: C:\Users\sesa63760\Dev\_Creo\CAD\MCADID0004828_3D-CAD\drw0001_7.dxf
999
Pro/ENGINEER 2019471 by Parametric Technology Corporation
  0
SECTION
  2
HEADER
  9
$ACADVER
  1
AC1024
  9
$DWGCODEPAGE
  3
ANSI_1252
  9
$EXTMAX
 10
53.8699360065
 20
76.1874809234
 30
0.0
  9
$EXTMIN
 10
0.0
 20
0.0
 30
0.0
  9
$LIMMIN
 10
0.0
 20
0.0
  9
$LIMMAX
 10
53.8699360065
 20
76.1874809234
  9
$VIEWCTR
 10
26.9349680032
 20
38.0937404617
  9
$VIEWSIZE
 40
76.1874809234
  9
$CLAYER
  8
0
  9
$LTSCALE
 40
4.9662950528
  9
$CELTYPE
  6
BYLAYER
  9
$DIMSCALE
 40
1.0
  9
$DIMASZ
 40
0.641308762
  9
$DIMEXO
 40
1.0
  9
$DIMDLI
 40
3.4312584001
  9
$DIMEXE
 40
1.0
  9
$DIMCEN
 40
0.8126664632
  9
$DIMLFAC
 40
1.0
  9
$DIMBLK
  1
_FILLED
  9
$DIMALT
 70
0
  9
$DIMALTF
 40
0.0393700787
  9
$DIMTXT
 40
0.8978322668
  9
$DIMTOL
 70
1
  9
$DIMLIM
 70
0
  9
$DIMTFAC
 40
1.0
  9
$DIMTP
 40
0.01
  9
$DIMTM
 40
0.01
  9
$DIMGAP
 40
0.625
  9
$DIMDSEP
 70
46
  9
$AUNITS
 70
0
  9
$PDMODE
 70
3
  9
$PDSIZE
 40
0.3125
  9
$HANDSEED
  5
2A2
  9
$TILEMODE
 70
1
  9
$MEASUREMENT
 70
1
  9
$INSUNITS
 70
4
  0
ENDSEC
  0
SECTION
  2
CLASSES
  0
CLASS
  1
ACDBDICTIONARYWDFLT
  2
AcDbDictionaryWithDefault
  3
AutoCAD 2000
 90
0
 91
1
280
0
281
0
  0
CLASS
  1
ACDBPLACEHOLDER
  2
AcDbPlaceHolder
  3
AutoCAD 2000
 90
0
 91
1
280
0
281
0
  0
CLASS
  1
LAYOUT
  2
AcDbLayout
  3
AutoCAD 2000
 90
0
 91
0
280
0
281
0
  0
ENDSEC
  0
SECTION
  2
TABLES
  0
TABLE
  2
VPORT
  5
8
100
AcDbSymbolTable
 70
2
  0
VPORT
  5
1F4
100
AcDbSymbolTableRecord
100
AcDbViewportTableRecord
  2
*ACTIVE
 70
0
 10
0.0
 20
0.0
 11
1.0
 21
1.0
 12
26.9349680032
 22
38.0937404617
 13
0.0
 23
0.0
 14
1.0
 24
1.0
 15
0.0
 25
0.0
 16
0.0
 26
0.0
 36
1.0
 17
0.0
 27
0.0
 37
0.0
 40
76.1874809234
 41
0.7070707071
 42
50.0
 43
0.0
 44
0.0
 50
0.0
 51
0.0
 71
0
 72
100
 73
1
 74
1
 75
0
 76
0
 77
0
 78
0
  0
ENDTAB
  0
TABLE
  2
LTYPE
  5
5
100
AcDbSymbolTable
 70
6
  0
LTYPE
  5
14
100
AcDbSymbolTableRecord
100
AcDbLinetypeTableRecord
  2
BYBLOCK
 70
0
  3

 72
65
 73
0
 40
0.0
  0
LTYPE
  5
15
100
AcDbSymbolTableRecord
100
AcDbLinetypeTableRecord
  2
BYLAYER
 70
0
  3

 72
65
 73
0
 40
0.0
  0
LTYPE
  5
16
100
AcDbSymbolTableRecord
100
AcDbLinetypeTableRecord
  2
CONTINUOUS
 70
64
  3
Solid line
 72
65
 73
0
 40
0.0
  0
LTYPE
  5
1F5
100
AcDbSymbolTableRecord
100
AcDbLinetypeTableRecord
  2
CENTER
 70
64
  3
____ _ ____ _ ____ _ ____ _ ____ _ ____ _ ____
 72
65
 73
4
 40
0.6
 49
0.375
 74
0
 49
-0.075
 74
0
 49
0.075
 74
0
 49
-0.075
 74
0
  0
LTYPE
  5
1F6
100
AcDbSymbolTableRecord
100
AcDbLinetypeTableRecord
  2
HIDDEN
 70
64
  3
- - - - - - - - - - - - - - - - - - - -
 72
65
 73
2
 40
0.2
 49
0.1
 74
0
 49
-0.1
 74
0
  0
LTYPE
  5
1F7
100
AcDbSymbolTableRecord
100
AcDbLinetypeTableRecord
  2
PHANTOM
 70
64
  3
_____ _ _ _____ _ _ _____ _ _ _____
 72
65
 73
6
 40
0.8
 49
0.45
 74
0
 49
-0.05
 74
0
 49
0.1
 74
0
 49
-0.05
 74
0
 49
0.1
 74
0
 49
-0.05
 74
0
  0
LTYPE
  5
1F8
100
AcDbSymbolTableRecord
100
AcDbLinetypeTableRecord
  2
DOT
 70
64
  3
. . . . . . . . . . . . . . . . . . . .
 72
65
 73
2
 40
0.2
 49
0.1
 74
0
 49
-0.1
 74
0
  0
LTYPE
  5
1F9
100
AcDbSymbolTableRecord
100
AcDbLinetypeTableRecord
  2
DASHED
 70
64
  3
- - - - - - - - - - - - - - - - - - - -
 72
65
 73
2
 40
0.2
 49
0.1
 74
0
 49
-0.1
 74
0
  0
ENDTAB
  0
TABLE
  2
LAYER
  5
2
100
AcDbSymbolTable
 70
36
  0
LAYER
  5
10
100
AcDbSymbolTableRecord
100
AcDbLayerTableRecord
  2
0
 70
0
 62
7
  6
CONTINUOUS
370
-3
390
F
  0
LAYER
  5
1FA
100
AcDbSymbolTableRecord
100
AcDbLayerTableRecord
  2
DEFAULT_1
 70
0
 62
7
  6
CENTER
370
-3
390
F
  0
LAYER
  5
1FB
100
AcDbSymbolTableRecord
100
AcDbLayerTableRecord
  2
DEFAULT_2
 70
0
 62
7
  6
HIDDEN
370
-3
390
F
  0
LAYER
  5
1FC
100
AcDbSymbolTableRecord
100
AcDbLayerTableRecord
  2
DEFAULT_3
 70
0
 62
7
  6
PHANTOM
370
-3
390
F
  0
LAYER
  5
1FD
100
AcDbSymbolTableRecord
100
AcDbLayerTableRecord
  2
00_COMPONENTS
 70
0
 62
7
  6
CONTINUOUS
370
-3
390
F
  0
LAYER
  5
1FE
100
AcDbSymbolTableRecord
100
AcDbLayerTableRecord
  2
01_1_DEFAULT_DATUMS
 70
0
 62
7
  6
CONTINUOUS
370
-3
390
F
  0
LAYER
  5
1FF
100
AcDbSymbolTableRecord
100
AcDbLayerTableRecord
  2
01_PLANES
 70
0
 62
7
  6
CONTINUOUS
370
-3
390
F
  0
LAYER
  5
200
100
AcDbSymbolTableRecord
100
AcDbLayerTableRecord
  2
02_COORD_SYS
 70
0
 62
7
  6
CONTINUOUS
370
-3
390
F
  0
LAYER
  5
201
100
AcDbSymbolTableRecord
100
AcDbLayerTableRecord
  2
03_AXES
 70
0
 62
7
  6
CONTINUOUS
370
-3
390
F
  0
LAYER
  5
202
100
AcDbSymbolTableRecord
100
AcDbLayerTableRecord
  2
04_POINTS
 70
0
 62
7
  6
CONTINUOUS
370
-3
390
F
  0
LAYER
  5
203
100
AcDbSymbolTableRecord
100
AcDbLayerTableRecord
  2
05_CURVES
 70
0
 62
7
  6
CONTINUOUS
370
-3
390
F
  0
LAYER
  5
204
100
AcDbSymbolTableRecord
100
AcDbLayerTableRecord
  2
06_SURFS
 70
0
 62
7
  6
CONTINUOUS
370
-3
390
F
  0
LAYER
  5
205
100
AcDbSymbolTableRecord
100
AcDbLayerTableRecord
  2
07_COSMETICS
 70
0
 62
7
  6
CONTINUOUS
370
-3
390
F
  0
LAYER
  5
206
100
AcDbSymbolTableRecord
100
AcDbLayerTableRecord
  2
10_NOTES
 70
0
 62
7
  6
CONTINUOUS
370
-3
390
F
  0
LAYER
  5
207
100
AcDbSymbolTableRecord
100
AcDbLayerTableRecord
  2
11_NOTES_PUB
 70
0
 62
7
  6
CONTINUOUS
370
-3
390
F
  0
LAYER
  5
208
100
AcDbSymbolTableRecord
100
AcDbLayerTableRecord
  2
13_REF_GTOL
 70
0
 62
7
  6
CONTINUOUS
370
-3
390
F
  0
LAYER
  5
209
100
AcDbSymbolTableRecord
100
AcDbLayerTableRecord
  2
16_MISC
 70
0
 62
7
  6
CONTINUOUS
370
-3
390
F
  0
LAYER
  5
20A
100
AcDbSymbolTableRecord
100
AcDbLayerTableRecord
  2
17_NO_PRINT
 70
0
 62
7
  6
CONTINUOUS
370
-3
390
F
  0
LAYER
  5
20B
100
AcDbSymbolTableRecord
100
AcDbLayerTableRecord
  2
18_DATUM_CAMS_JOINTS
 70
0
 62
7
  6
CONTINUOUS
370
-3
390
F
  0
LAYER
  5
20C
100
AcDbSymbolTableRecord
100
AcDbLayerTableRecord
  2
19_DATUM_FUNCTIONAL
 70
0
 62
7
  6
CONTINUOUS
370
-3
390
F
  0
LAYER
  5
20D
100
AcDbSymbolTableRecord
100
AcDbLayerTableRecord
  2
20_DATUM_KINEMATIC_SCHEME
 70
0
 62
7
  6
CONTINUOUS
370
-3
390
F
  0
ENDTAB
  0
TABLE
  2
STYLE
  5
3
100
AcDbSymbolTable
 70
1
  0
STYLE
  5
11
100
AcDbSymbolTableRecord
100
AcDbTextStyleTableRecord
  2
STANDARD
 70
0
 40
0.0
 41
1.0
 50
0.0
 71
0
 42
0.2
  3
ARIAL.TTF
  4

  0
STYLE
  5
20E
100
AcDbSymbolTableRecord
100
AcDbTextStyleTableRecord
  2
TEXTSTYLE_1
 70
0
 40
0.0
 41
0.8
 50
0.0
 71
0
 42
0.2
  3
gdt
  4

  0
ENDTAB
  0
TABLE
  2
VIEW
  5
6
100
AcDbSymbolTable
 70
0
  0
ENDTAB
  0
TABLE
  2
UCS
  5
7
100
AcDbSymbolTable
 70
0
  0
ENDTAB
  0
TABLE
  2
APPID
  5
9
100
AcDbSymbolTable
 70
1
  0
APPID
  5
20F
100
AcDbSymbolTableRecord
100
AcDbRegAppTableRecord
  2
ACAD
 70
0
  0
ENDTAB
  0
TABLE
  2
BLOCK_RECORD
  5
1
100
AcDbSymbolTable
 70
0
  0
BLOCK_RECORD
  5
210
100
AcDbSymbolTableRecord
100
AcDbBlockTableRecord
  2
*Model_Space
  0
BLOCK_RECORD
  5
211
100
AcDbSymbolTableRecord
100
AcDbBlockTableRecord
  2
*Paper_Space
  0
BLOCK_RECORD
  5
212
100
AcDbSymbolTableRecord
100
AcDbBlockTableRecord
  2
_FILLED
  0
ENDTAB
  0
TABLE
  2
DIMSTYLE
  5
A
100
AcDbSymbolTable
 70
1
100
AcDbDimStyleTable
 71
0
  0
DIMSTYLE
105
213
100
AcDbSymbolTableRecord
100
AcDbDimStyleTableRecord
  2
STANDARD
 70
0
  3

  4

 40
1.0
 41
0.641308762
 42
1.0
 43
0.38
 44
1.0
 45
0.0
 46
0.0
 47
0.01
 48
0.01
140
0.8978322668
141
0.09
142
0.0
143
25.4
144
1.0
145
0.0
146
1.0
147
0.625
 71
1
 72
0
 73
0
 74
0
 75
0
 76
0
 77
1
 78
8
 79
2
170
0
171
1
172
0
173
0
174
0
175
0
176
0
177
0
178
0
270
2
179
2
271
2
272
2
273
2
274
2
275
0
280
0
281
0
282
0
283
1
284
8
285
0
286
0
287
3
288
0
340
11
278
46
341
212
342
212
343
212
344
212
  0
ENDTAB
  0
ENDSEC
  0
SECTION
  2
BLOCKS
  0
BLOCK
  5
20
100
AcDbEntity
  8
0
100
AcDbBlockBegin
  2
*Model_Space
 70
0
 10
0.0
 20
0.0
 30
0.0
  3
*Model_Space
  1

  0
ENDBLK
  5
21
100
AcDbEntity
  8
0
100
AcDbBlockEnd
  0
BLOCK
  5
1C
100
AcDbEntity
  8
0
100
AcDbBlockBegin
  2
*Paper_Space
 70
0
 10
0.0
 20
0.0
 30
0.0
  3
*Paper_Space
  1

  0
ENDBLK
  5
1D
100
AcDbEntity
  8
0
100
AcDbBlockEnd
  0
BLOCK
  5
214
100
AcDbEntity
  8
0
100
AcDbBlockBegin
  2
_FILLED
 70
64
 10
0.0
 20
0.0
  3
_FILLED
  1

  0
SOLID
  5
215
100
AcDbEntity
  8
0
  6
BYBLOCK
 62
0
100
AcDbTrace
 10
0.0
 20
0.0
 11
-1.0
 21
0.25
 12
-1.0
 22
-0.25
 13
-1.0
 23
-0.25
  0
ENDBLK
  5
216
100
AcDbEntity
  8
0
  6
BYBLOCK
 62
0
100
AcDbBlockEnd
  0
ENDSEC
  0
SECTION
  2
ENTITIES
  0
LINE
  5
217
100
AcDbEntity
  8
0
100
AcDbLine
 62
7
  6
BYLAYER
 10
11.6282197982
 20
5.6417902565
 11
14.6282197982
 21
5.6417902565
  0
LINE
  5
218
100
AcDbEntity
  8
0
100
AcDbLine
 62
7
  6
BYLAYER
 10
39.4282197982
 20
5.6417902565
 11
42.4282197982
 21
5.6417902565
  0
LINE
  5
219
100
AcDbEntity
  8
0
100
AcDbLine
 62
7
  6
BYLAYER
 10
42.3928614421
 20
5.6772017407
 11
39.4282197982
 21
5.6772017357
  0
LINE
  5
21A
100
AcDbEntity
  8
0
100
AcDbLine
 62
7
  6
BYLAYER
 10
11.6635781542
 20
5.6772017407
 11
14.6282197982
 21
5.6772017407
  0
LINE
  5
21B
100
AcDbEntity
  8
0
100
AcDbLine
 62
7
  6
BYLAYER
 10
39.2282197982
 20
5.9417902565
 11
14.8282197982
 21
5.9417902565
  0
LINE
  5
21C
100
AcDbEntity
  8
0
100
AcDbLine
 62
7
  6
BYLAYER
 10
15.9664308036
 20
6.3886034926
 11
38.0900087927
 21
6.3886034926
  0
LINE
  5
21D
100
AcDbEntity
  8
0
100
AcDbLine
 62
7
  6
BYLAYER
 10
38.169368891
 20
6.763210086
 11
15.8870707069
 21
6.763210086
  0
LINE
  5
21E
100
AcDbEntity
  8
0
100
AcDbLine
 62
7
  6
BYLAYER
 10
15.5151081911
 20
7.6511114036
 11
38.5413314085
 21
7.6511114036
  0
LINE
  5
21F
100
AcDbEntity
  8
0
100
AcDbLine
 62
7
  6
BYLAYER
 10
38.770959267
 20
8.7749311839
 11
15.2854803293
 21
8.7749311839
  0
LINE
  5
220
100
AcDbEntity
  8
0
100
AcDbLine
 62
7
  6
BYLAYER
 10
14.6282197982
 20
8.8417902565
 11
39.4282197982
 21
8.8417902565
  0
LINE
  5
221
100
AcDbEntity
  8
0
100
AcDbLine
 62
7
  6
BYLAYER
 10
28.9050766633
 20
66.9932769527
 11
28.8683526239
 21
66.9609626907
  0
LINE
  5
222
100
AcDbEntity
  8
0
100
AcDbLine
 62
7
  6
BYLAYER
 10
11.6282199705
 20
53.0781873833
 11
11.6280947839
 21
53.0991870143
  0
LINE
  5
223
100
AcDbEntity
  8
0
100
AcDbLine
 62
7
  6
BYLAYER
 10
11.6281298392
 20
9.988924968
 11
11.6274093064
 21
28.347985751
  0
LINE
  5
224
100
AcDbEntity
  8
0
100
AcDbLine
 62
7
  6
BYLAYER
 10
11.6274093064
 20
28.347985751
 11
11.6280918734
 21
53.0781873878
  0
LINE
  5
225
100
AcDbEntity
  8
0
100
AcDbLine
 62
7
  6
BYLAYER
 10
11.6281625555
 20
55.101979154
 11
11.6281639355
 21
55.1414915144
  0
LINE
  5
226
100
AcDbEntity
  8
0
100
AcDbLine
 62
7
  6
BYLAYER
 10
11.6281298392
 20
9.988924968
 11
11.6280979182
 21
53.1064939164
  0
LINE
  5
227
100
AcDbEntity
  8
0
100
AcDbLine
 62
7
  6
BYLAYER
 10
11.6282197982
 20
5.641790203
 11
11.6282197982
 21
9.6629989576
  0
LINE
  5
228
100
AcDbEntity
  8
0
100
AcDbLine
 62
7
  6
BYLAYER
 10
11.6282199705
 20
53.0781873833
 11
11.6291772284
 21
27.2989543993
  0
LINE
  5
229
100
AcDbEntity
  8
0
100
AcDbLine
 62
7
  6
BYLAYER
 10
11.6291772284
 20
27.2989543993
 11
11.6286743432
 21
9.6628152154
  0
LINE
  5
22A
100
AcDbEntity
  8
0
100
AcDbLine
 62
7
  6
BYLAYER
 10
11.6282199705
 20
53.0781873833
 11
11.6286917217
 21
9.8601507309
  0
LINE
  5
22B
100
AcDbEntity
  8
0
100
AcDbLine
 62
7
  6
BYLAYER
 10
11.6775907711
 20
68.1826227124
 11
11.633061671
 21
55.1423672941
  0
LINE
  5
22C
100
AcDbEntity
  8
0
100
AcDbLine
 62
7
  6
BYLAYER
 10
13.9282197982
 20
62.9417902565
 11
13.9282197982
 21
60.9417902565
  0
LINE
  5
22D
100
AcDbEntity
  8
0
100
AcDbLine
 62
7
  6
BYLAYER
 10
14.6282197982
 20
8.8417902565
 11
14.6282197982
 21
5.6417902565
  0
LINE
  5
22E
100
AcDbEntity
  8
0
100
AcDbLine
 62
7
  6
BYLAYER
 10
14.8282197982
 20
5.9417902565
 11
14.8282197982
 21
8.8417902565
  0
LINE
  5
22F
100
AcDbEntity
  8
0
100
AcDbLine
 62
7
  6
BYLAYER
 10
42.4282197982
 20
5.6417902565
 11
42.3928614421
 21
5.6772017407
  0
LINE
  5
230
100
AcDbEntity
  8
0
100
AcDbLine
 62
7
  6
BYLAYER
 10
18.1282197982
 20
62.7306446385
 11
18.1282197982
 21
62.9417902565
  0
LINE
  5
231
100
AcDbEntity
  8
0
100
AcDbLine
 62
7
  6
BYLAYER
 10
11.6563847255
 20
55.0737428317
 11
11.676598428
 21
55.0596173182
  0
LINE
  5
232
100
AcDbEntity
  8
0
100
AcDbLine
 62
7
  6
BYLAYER
 10
35.9282197982
 20
62.9417902565
 11
35.9282197982
 21
62.7306446385
  0
LINE
  5
233
100
AcDbEntity
  8
0
100
AcDbLine
 62
7
  6
BYLAYER
 10
39.2282197982
 20
8.8417902565
 11
39.2282197982
 21
5.9417902565
  0
LINE
  5
234
100
AcDbEntity
  8
0
100
AcDbLine
 62
7
  6
BYLAYER
 10
11.6635781542
 20
5.6772017407
 11
11.6282197982
 21
5.6417902565
  0
LINE
  5
235
100
AcDbEntity
  8
0
100
AcDbLine
 62
7
  6
BYLAYER
 10
39.4282197982
 20
5.6417902565
 11
39.4282197982
 21
8.8417902565
  0
LINE
  5
236
100
AcDbEntity
  8
0
100
AcDbLine
 62
7
  6
BYLAYER
 10
40.1282197982
 20
60.9417902565
 11
40.1282197982
 21
62.9417902565
  0
LINE
  5
237
100
AcDbEntity
  8
0
100
AcDbLine
 62
7
  6
BYLAYER
 10
42.4233779253
 20
55.1423672941
 11
42.3788488252
 21
68.1826227124
  0
LINE
  5
238
100
AcDbEntity
  8
0
100
AcDbLine
 62
7
  6
BYLAYER
 10
42.427765502
 20
9.6628116695
 11
42.4277368149
 21
9.9904737207
  0
LINE
  5
239
100
AcDbEntity
  8
0
100
AcDbLine
 62
7
  6
BYLAYER
 10
42.427765502
 20
9.6628116695
 11
42.427262365
 21
27.2989510486
  0
LINE
  5
23A
100
AcDbEntity
  8
0
100
AcDbLine
 62
7
  6
BYLAYER
 10
42.427262365
 20
27.2989510486
 11
42.4282214972
 21
53.0781873833
  0
LINE
  5
23B
100
AcDbEntity
  8
0
100
AcDbLine
 62
7
  6
BYLAYER
 10
42.4277368149
 20
9.9904737207
 11
42.4282214972
 21
53.0781873833
  0
LINE
  5
23C
100
AcDbEntity
  8
0
100
AcDbLine
 62
7
  6
BYLAYER
 10
42.4282197982
 20
9.6628927891
 11
42.4282197982
 21
5.6417904848
  0
LINE
  5
23D
100
AcDbEntity
  8
0
100
AcDbLine
 62
7
  6
BYLAYER
 10
42.4283440172
 20
53.1064857415
 11
42.428309775
 21
9.988924968
  0
LINE
  5
23E
100
AcDbEntity
  8
0
100
AcDbLine
 62
7
  6
BYLAYER
 10
42.4282783766
 20
55.1406155516
 11
42.4282797202
 21
55.1019791559
  0
LWPOLYLINE
  5
23F
100
AcDbEntity
  8
0
100
AcDbPolyline
 62
7
  6
BYLAYER
 90
3
 70
0
 10
42.4283500994
 20
53.0781873868
 10
42.429030322
 20
28.3479857511
 10
42.428309775
 20
9.988924968
  0
LINE
  5
240
100
AcDbEntity
  8
0
100
AcDbLine
 62
7
  6
BYLAYER
 10
42.4283471462
 20
53.099577649
 11
42.4282196304
 21
53.0781873833
  0
LINE
  5
241
100
AcDbEntity
  8
0
100
AcDbLine
 62
7
  6
BYLAYER
 10
16.0282197982
 20
58.8417902565
 11
17.0282197982
 21
58.8417902565
  0
LINE
  5
242
100
AcDbEntity
  8
0
100
AcDbLine
 62
7
  6
BYLAYER
 10
37.0282197982
 20
58.8417902565
 11
38.0282197982
 21
58.8417902565
  0
LINE
  5
243
100
AcDbEntity
  8
0
100
AcDbLine
 62
7
  6
BYLAYER
 10
25.1513628698
 20
66.9932768808
 11
25.1880884751
 21
66.9609612339
  0
ARC
  5
244
100
AcDbEntity
  8
0
100
AcDbCircle
 62
7
  6
BYLAYER
 10
-10314.9685207093
 20
-8.6116041341
 40
10326.8579782263
100
AcDbArc
 50
0.1002300977
 51
0.3476722785
  0
ARC
  5
245
100
AcDbEntity
  8
0
100
AcDbCircle
 62
7
  6
BYLAYER
 10
27.0282197982
 20
10.6517902565
 40
60.29
100
AcDbArc
 50
75.9929796327
 51
104.0070203673
  0
ARC
  5
246
100
AcDbEntity
  8
0
100
AcDbCircle
 62
7
  6
BYLAYER
 10
67.0594819496
 20
9.9923651725
 40
55.4312606592
100
AcDbArc
 50
180.0035560012
 51
180.1504776076
  0
ARC
  5
247
100
AcDbEntity
  8
0
100
AcDbCircle
 62
7
  6
BYLAYER
 10
-10.3414474129
 20
9.9887978852
 40
52.7696654381
100
AcDbArc
 50
359.845954886
 51
0.0001378989
  0
ARC
  5
248
100
AcDbEntity
  8
0
100
AcDbCircle
 62
7
  6
BYLAYER
 10
27.028219798
 20
11.7462399148
 40
45.9510718609
100
AcDbArc
 50
82.2420770631
 51
97.757852011
  0
ARC
  5
249
100
AcDbEntity
  8
0
100
AcDbCircle
 62
7
  6
BYLAYER
 10
27.0329352491
 20
12.0249083983
 40
45.6893169476
100
AcDbArc
 50
70.3729074363
 51
78.6912570934
  0
ARC
  5
24A
100
AcDbEntity
  8
0
100
AcDbCircle
 62
7
  6
BYLAYER
 10
27.0233915952
 20
12.0253144325
 40
45.6889005963
100
AcDbArc
 50
101.308706801
 51
109.6271339518
  0
ARC
  5
24B
100
AcDbEntity
  8
0
100
AcDbCircle
 62
7
  6
BYLAYER
 10
27.0161318864
 20
11.3214474085
 40
45.3924790023
100
AcDbArc
 50
101.224080748
 51
109.7202573712
  0
ARC
  5
24C
100
AcDbEntity
  8
0
100
AcDbCircle
 62
7
  6
BYLAYER
 10
27.0403070013
 20
11.3214407182
 40
45.3924292526
100
AcDbArc
 50
70.2796551342
 51
78.7876381639
  0
ARC
  5
24D
100
AcDbEntity
  8
0
100
AcDbCircle
 62
7
  6
BYLAYER
 10
27.0282197982
 20
12.5917902565
 40
45.25
100
AcDbArc
 50
70.1029311284
 51
80.5449247927
  0
ARC
  5
24E
100
AcDbEntity
  8
0
100
AcDbCircle
 62
7
  6
BYLAYER
 10
27.0282197982
 20
12.5917902565
 40
45.25
100
AcDbArc
 50
99.4567981482
 51
109.8970700635
  0
ARC
  5
24F
100
AcDbEntity
  8
0
100
AcDbCircle
 62
7
  6
BYLAYER
 10
56.4525333507
 20
8.6380369243
 40
17.6821009688
100
AcDbArc
 50
179.3397572827
 51
179.5564135499
  0
ARC
  5
250
100
AcDbEntity
  8
0
100
AcDbCircle
 62
7
  6
BYLAYER
 10
-2.3427913818
 20
8.6384677873
 40
17.6287998421
100
AcDbArc
 50
0.4436056315
 51
0.660838631
  0
ARC
  5
251
100
AcDbEntity
  8
0
100
AcDbCircle
 62
7
  6
BYLAYER
 10
35.7919200397
 20
8.7982753239
 40
2.9791337281
100
AcDbArc
 50
337.3531077841
 51
359.5510320184
  0
ARC
  5
252
100
AcDbEntity
  8
0
100
AcDbCircle
 62
7
  6
BYLAYER
 10
18.2643660561
 20
8.7982389954
 40
2.9789769617
100
AcDbArc
 50
180.4478291555
 51
202.6483337957
  0
ARC
  5
253
100
AcDbEntity
  8
0
100
AcDbCircle
 62
7
  6
BYLAYER
 10
14.9551262574
 20
6.3700600883
 40
1.0114777567
100
AcDbArc
 50
1.0504645552
 51
22.8729311102
  0
ARC
  5
254
100
AcDbEntity
  8
0
100
AcDbCircle
 62
7
  6
BYLAYER
 10
39.1011060461
 20
6.3701040064
 40
1.0112667639
100
AcDbArc
 50
157.1247938772
 51
178.9535001136
  0
ARC
  5
255
100
AcDbEntity
  8
0
100
AcDbCircle
 62
7
  6
BYLAYER
 10
-193.4086089084
 20
104.2971523587
 40
251.2791897467
100
AcDbArc
 50
337.1605824597
 51
337.3800973662
  0
ARC
  5
256
100
AcDbEntity
  8
0
100
AcDbCircle
 62
7
  6
BYLAYER
 10
247.4530299194
 20
104.2926248367
 40
251.2663531768
100
AcDbArc
 50
202.6200149749
 51
202.8395298458
  0
ARC
  5
257
100
AcDbEntity
  8
0
100
AcDbCircle
 62
7
  6
BYLAYER
 10
13.7259411804
 20
53.7328749567
 40
20.106589204
100
AcDbArc
 50
40.4866659683
 51
41.139769683
  0
ARC
  5
258
100
AcDbEntity
  8
0
100
AcDbCircle
 62
7
  6
BYLAYER
 10
40.3257450937
 20
53.7367234148
 40
20.1004754318
100
AcDbArc
 50
138.8595781434
 51
139.5128818852
  0
ARC
  5
259
100
AcDbEntity
  8
0
100
AcDbCircle
 62
7
  6
BYLAYER
 10
40.1662197982
 20
53.7813855923
 40
20.0
100
AcDbArc
 50
138.6547675006
 51
162.9716077424
  0
ARC
  5
25A
100
AcDbEntity
  8
0
100
AcDbCircle
 62
7
  6
BYLAYER
 10
13.8902197982
 20
53.7813855923
 40
20.0
100
AcDbArc
 50
17.0283922542
 51
41.3452324994
  0
ARC
  5
25B
100
AcDbEntity
  8
0
100
AcDbCircle
 62
7
  6
BYLAYER
 10
38.2598449618
 20
55.566641814
 40
16.1708559635
100
AcDbArc
 50
137.9816239601
 51
138.7686012331
  0
ARC
  5
25C
100
AcDbEntity
  8
0
100
AcDbCircle
 62
7
  6
BYLAYER
 10
15.9894825207
 20
55.725998997
 40
15.9207696367
100
AcDbArc
 50
41.2571624047
 51
42.0570835348
  0
ARC
  5
25D
100
AcDbEntity
  8
0
100
AcDbCircle
 62
7
  6
BYLAYER
 10
37.6188628478
 20
61.011864945
 40
5.8169820784
100
AcDbArc
 50
196.5438479438
 51
197.148311401
  0
ARC
  5
25E
100
AcDbEntity
  8
0
100
AcDbCircle
 62
7
  6
BYLAYER
 10
16.47306698
 20
61.0009130409
 40
5.7798399877
100
AcDbArc
 50
342.8516960183
 51
343.4600393477
  0
ARC
  5
25F
100
AcDbEntity
  8
0
100
AcDbCircle
 62
7
  6
BYLAYER
 10
36.8578148292
 20
60.8321160018
 40
5.0821936044
100
AcDbArc
 50
257.7790469016
 51
258.754144597
  0
ARC
  5
260
100
AcDbEntity
  8
0
100
AcDbCircle
 62
7
  6
BYLAYER
 10
17.1986301875
 20
60.8320893645
 40
5.0821664213
100
AcDbArc
 50
281.1411905725
 51
282.2223352725
  0
ARC
  5
261
100
AcDbEntity
  8
0
100
AcDbCircle
 62
7
  6
BYLAYER
 10
36.8562138419
 20
60.8252330873
 40
5.0751291991
100
AcDbArc
 50
248.628891569
 51
257.7802629806
  0
ARC
  5
262
100
AcDbEntity
  8
0
100
AcDbCircle
 62
7
  6
BYLAYER
 10
17.2002296752
 20
60.8252197413
 40
5.0751125816
100
AcDbArc
 50
282.221105926
 51
291.374902543
  0
ARC
  5
263
100
AcDbEntity
  8
0
100
AcDbCircle
 62
7
  6
BYLAYER
 10
17.2822562016
 20
60.7562097608
 40
4.0044595909
100
AcDbArc
 50
281.253134449
 51
282.2671953355
  0
ARC
  5
264
100
AcDbEntity
  8
0
100
AcDbCircle
 62
7
  6
BYLAYER
 10
36.774036701
 20
60.7554952075
 40
4.0037296418
100
AcDbArc
 50
257.7326794027
 51
258.7469289883
  0
ARC
  5
265
100
AcDbEntity
  8
0
100
AcDbCircle
 62
7
  6
BYLAYER
 10
17.2828282526
 20
60.7536715731
 40
4.0018578125
100
AcDbArc
 50
282.2669133071
 51
291.4869177813
  0
ARC
  5
266
100
AcDbEntity
  8
0
100
AcDbCircle
 62
7
  6
BYLAYER
 10
36.7733474931
 20
60.7527201173
 40
4.0008714782
100
AcDbArc
 50
248.5113667659
 51
257.7338800491
  0
ARC
  5
267
100
AcDbEntity
  8
0
100
AcDbCircle
 62
7
  6
BYLAYER
 10
36.8373402349
 20
60.8094685451
 40
3.9992754051
100
AcDbArc
 50
197.0285051776
 51
257.044433112
  0
ARC
  5
268
100
AcDbEntity
  8
0
100
AcDbCircle
 62
7
  6
BYLAYER
 10
17.219099973
 20
60.8094682547
 40
3.9992747521
100
AcDbArc
 50
282.9608528968
 51
342.9714962504
  0
ARC
  5
269
100
AcDbEntity
  8
0
100
AcDbCircle
 62
7
  6
BYLAYER
 10
36.7709401061
 20
60.7473102444
 40
3.9949557866
100
AcDbArc
 50
224.0353212842
 51
248.5150716527
  0
ARC
  5
26A
100
AcDbEntity
  8
0
100
AcDbCircle
 62
7
  6
BYLAYER
 10
17.2855049173
 20
60.7473031558
 40
3.9949515633
100
AcDbArc
 50
291.4846523118
 51
315.9645552692
  0
ARC
  5
26B
100
AcDbEntity
  8
0
100
AcDbCircle
 62
7
  6
BYLAYER
 10
17.2892714498
 20
60.7374878789
 40
3.9853289975
100
AcDbArc
 50
342.4511073668
 51
343.1366755833
  0
ARC
  5
26C
100
AcDbEntity
  8
0
100
AcDbCircle
 62
7
  6
BYLAYER
 10
36.7667110194
 20
60.7373435254
 40
3.9848496189
100
AcDbArc
 50
196.863244131
 51
197.5488955233
  0
ARC
  5
26D
100
AcDbEntity
  8
0
100
AcDbCircle
 62
7
  6
BYLAYER
 10
17.2953947052
 20
60.7379492454
 40
3.981339766
100
AcDbArc
 50
315.9623994196
 51
342.4182822847
  0
ARC
  5
26E
100
AcDbEntity
  8
0
100
AcDbCircle
 62
7
  6
BYLAYER
 10
36.760837006
 20
60.7378382189
 40
3.9811085373
100
AcDbArc
 50
197.5810982261
 51
224.0383887003
  0
ARC
  5
26F
100
AcDbEntity
  8
0
100
AcDbCircle
 62
7
  6
BYLAYER
 10
27.0282197982
 20
65.3417902565
 40
2.5
100
AcDbArc
 50
41.3452324996
 51
138.6547675004
  0
ARC
  5
270
100
AcDbEntity
  8
0
100
AcDbCircle
 62
7
  6
BYLAYER
 10
37.0282197982
 20
60.9417902565
 40
2.1
100
AcDbArc
 50
121.5881355052
 51
270.0
  0
ARC
  5
271
100
AcDbEntity
  8
0
100
AcDbCircle
 62
7
  6
BYLAYER
 10
38.0282197982
 20
60.9417902565
 40
2.1
100
AcDbArc
 50
270.0
 51
360.0
  0
ARC
  5
272
100
AcDbEntity
  8
0
100
AcDbCircle
 62
7
  6
BYLAYER
 10
38.0282197982
 20
62.9417902565
 40
2.1
100
AcDbArc
 50
0.0
 51
180.0
  0
ARC
  5
273
100
AcDbEntity
  8
0
100
AcDbCircle
 62
7
  6
BYLAYER
 10
17.0282197982
 20
60.9417902565
 40
2.1
100
AcDbArc
 50
270.0
 51
58.4118644948
  0
ARC
  5
274
100
AcDbEntity
  8
0
100
AcDbCircle
 62
7
  6
BYLAYER
 10
16.0282197982
 20
62.9417902565
 40
2.1
100
AcDbArc
 50
0.0
 51
180.0
  0
ARC
  5
275
100
AcDbEntity
  8
0
100
AcDbCircle
 62
7
  6
BYLAYER
 10
16.0282197982
 20
60.9417902565
 40
2.1
100
AcDbArc
 50
180.0
 51
270.0
  0
ARC
  5
276
100
AcDbEntity
  8
0
100
AcDbCircle
 62
7
  6
BYLAYER
 10
41.3787435914
 20
68.1787683421
 40
1.0001203318
100
AcDbArc
 50
0.2208148227
 51
75.9902078317
  0
ARC
  5
277
100
AcDbEntity
  8
0
100
AcDbCircle
 62
7
  6
BYLAYER
 10
12.6776584783
 20
68.1787962327
 40
1.0000783053
100
AcDbArc
 50
104.0080929975
 51
179.7807747728
  0
SPLINE
  5
278
100
AcDbEntity
  8
0
100
AcDbSpline
 62
7
  6
BYLAYER
 70
0
 71
3
 72
13
 73
9
 74
0
 42
0.0000001
 43
0.0000001
 44
0.0000000001
 40
0.0
 40
0.0
 40
0.0
 40
0.0
 40
0.2500113513
 40
0.374996642
 40
0.5000006795
 40
0.6250041342
 40
0.7499893617
 40
1.0
 40
1.0
 40
1.0
 40
1.0
 10
38.0816971517
 20
5.9417902565
 30
0.0
 10
38.0824240876
 20
5.9790266267
 30
0.0
 10
38.0849019903
 20
6.0348411584
 30
0.0
 10
38.0862411677
 20
6.1093200616
 30
0.0
 10
38.085839752
 20
6.1651819926
 30
0.0
 10
38.0854495312
 20
6.2210442849
 30
0.0
 10
38.0868445868
 20
6.2955217892
 30
0.0
 10
38.0893495035
 20
6.3513360961
 30
0.0
 10
38.0900079595
 20
6.388573634
 30
0.0
  0
SPLINE
  5
279
100
AcDbEntity
  8
0
100
AcDbSpline
 62
7
  6
BYLAYER
 70
0
 71
3
 72
13
 73
9
 74
0
 42
0.0000001
 43
0.0000001
 44
0.0000000001
 40
0.0
 40
0.0
 40
0.0
 40
0.0
 40
0.250010627
 40
0.3749958814
 40
0.4999993401
 40
0.6250033622
 40
0.7499886488
 40
1.0
 40
1.0
 40
1.0
 40
1.0
 10
15.9664340208
 20
6.3886035485
 30
0.0
 10
15.9670925207
 20
6.3513635262
 30
0.0
 10
15.9695954149
 20
6.2955454175
 30
0.0
 10
15.9709895544
 20
6.2210629279
 30
0.0
 10
15.9705994695
 20
6.165196906
 30
0.0
 10
15.9701983163
 20
6.1093312461
 30
0.0
 10
15.9715374943
 20
6.0348473745
 30
0.0
 10
15.9740154602
 20
5.9790291127
 30
0.0
 10
15.9747424446
 20
5.9417902565
 30
0.0
  0
SPLINE
  5
27A
100
AcDbEntity
  8
0
100
AcDbSpline
 62
7
  6
BYLAYER
 70
0
 71
3
 72
11
 73
7
 74
0
 42
0.0000001
 43
0.0000001
 44
0.0000000001
 40
0.0
 40
0.0
 40
0.0
 40
0.0
 40
0.2484073063
 40
0.4970882895
 40
0.7473739332
 40
1.0
 40
1.0
 40
1.0
 40
1.0
 10
25.0382890541
 20
66.7875011856
 30
0.0
 10
24.5939467431
 20
66.266980434
 30
0.0
 10
23.7580778533
 20
65.1785065172
 30
0.0
 10
22.676622362
 20
63.4221807029
 30
0.0
 10
21.7761582133
 20
61.5535985308
 30
0.0
 10
21.3052671772
 20
60.247416081
 30
0.0
 10
21.1032248444
 20
59.5813791316
 30
0.0
  0
SPLINE
  5
27B
100
AcDbEntity
  8
0
100
AcDbSpline
 62
7
  6
BYLAYER
 70
0
 71
3
 72
18
 73
14
 74
0
 42
0.0000001
 43
0.0000001
 44
0.0000000001
 40
0.0
 40
0.0
 40
0.0
 40
0.0
 40
0.178069193
 40
0.3543400155
 40
0.5209919352
 40
0.6698359899
 40
0.7936240977
 40
0.8449204347
 40
0.8887581516
 40
0.9251612081
 40
0.9548831922
 40
0.9791933953
 40
1.0
 40
1.0
 40
1.0
 40
1.0
 10
26.0984930968
 20
66.2248814904
 30
0.0
 10
26.0420533706
 20
66.2720531764
 30
0.0
 10
25.9281178154
 20
66.3639967821
 30
0.0
 10
25.7555987677
 20
66.4927556987
 30
0.0
 10
25.5871857126
 20
66.6065191464
 30
0.0
 10
25.4311617329
 20
66.69937661
 30
0.0
 10
25.3107081009
 20
66.7583044287
 30
0.0
 10
25.2258863867
 20
66.7898747949
 30
0.0
 10
25.1734776673
 20
66.804541195
 30
0.0
 10
25.1284654442
 20
66.8116089966
 30
0.0
 10
25.0908807064
 20
66.8113217059
 30
0.0
 10
25.060478712
 20
66.8039199878
 30
0.0
 10
25.0443977335
 20
66.7935482726
 30
0.0
 10
25.0382896444
 20
66.7875016402
 30
0.0
  0
SPLINE
  5
27C
100
AcDbEntity
  8
0
100
AcDbSpline
 62
7
  6
BYLAYER
 70
0
 71
3
 72
11
 73
7
 74
0
 42
0.0000001
 43
0.0000001
 44
0.0000000001
 40
0.0
 40
0.0
 40
0.0
 40
0.0
 40
0.2488932391
 40
0.4376906493
 40
0.6247500809
 40
1.0
 40
1.0
 40
1.0
 40
1.0
 10
21.0413235107
 20
59.6387966436
 30
0.0
 10
21.0468044504
 20
59.6342287243
 30
0.0
 10
21.0559341172
 20
59.6256057203
 30
0.0
 10
21.0690643635
 20
59.6134294306
 30
0.0
 10
21.0851410947
 20
59.5991072606
 30
0.0
 10
21.0966214142
 20
59.5877545603
 30
0.0
 10
21.1048882895
 20
59.5808717124
 30
0.0
  0
SPLINE
  5
27D
100
AcDbEntity
  8
0
100
AcDbSpline
 62
7
  6
BYLAYER
 70
0
 71
3
 72
24
 73
20
 74
0
 42
0.0000001
 43
0.0000001
 44
0.0000000001
 40
0.0
 40
0.0
 40
0.0
 40
0.0
 40
0.0019634799
 40
0.0062304739
 40
0.0128677716
 40
0.0218847065
 40
0.0332808511
 40
0.0470484954
 40
0.0631476859
 40
0.0815241558
 40
0.1248899195
 40
0.1766900921
 40
0.2363332113
 40
0.3031612918
 40
0.3764545716
 40
0.4553590459
 40
0.6265738704
 40
0.8103473962
 40
1.0
 40
1.0
 40
1.0
 40
1.0
 10
11.676598428
 20
55.0596173182
 30
0.0
 10
11.6771435555
 20
55.0592450088
 30
0.0
 10
11.6776335733
 20
55.0569403298
 30
0.0
 10
11.6785233592
 20
55.0529143767
 30
0.0
 10
11.6792886893
 20
55.0461456586
 30
0.0
 10
11.6801681979
 20
55.037141576
 30
0.0
 10
11.6810271112
 20
55.0256628576
 30
0.0
 10
11.6819066088
 20
55.0118242998
 30
0.0
 10
11.6827856385
 20
54.9956260045
 30
0.0
 10
11.684030436
 20
54.9694856247
 30
0.0
 10
11.685535779
 20
54.9313404811
 30
0.0
 10
11.6872349423
 20
54.8793203929
 30
0.0
 10
11.688889695
 20
54.8194069316
 30
0.0
 10
11.6904812553
 20
54.7522635393
 30
0.0
 10
11.6919906528
 20
54.6786409548
 30
0.0
 10
11.6939320023
 20
54.569924732
 30
0.0
 10
11.6960289883
 20
54.4240616876
 30
0.0
 10
11.6979985299
 20
54.2409600683
 30
0.0
 10
11.6989488517
 20
54.1154150763
 30
0.0
 10
11.6993357953
 20
54.051653784
 30
0.0
  0
SPLINE
  5
27E
100
AcDbEntity
  8
0
100
AcDbSpline
 62
7
  6
BYLAYER
 70
0
 71
3
 72
18
 73
14
 74
0
 42
0.0000001
 43
0.0000001
 44
0.0000000001
 40
0.0
 40
0.0
 40
0.0
 40
0.0
 40
0.1799450223
 40
0.3630242299
 40
0.5390756845
 40
0.6966886415
 40
0.8253607104
 40
0.8769920325
 40
0.919416217
 40
0.9522919757
 40
0.9760535881
 40
0.9914700656
 40
1.0
 40
1.0
 40
1.0
 40
1.0
 10
18.1870631331
 20
55.846998356
 30
0.0
 10
18.1754446492
 20
55.9054257745
 30
0.0
 10
18.1527776177
 20
56.0234533115
 30
0.0
 10
18.1214894571
 20
56.1991579982
 30
0.0
 10
18.0942794124
 20
56.3680608871
 30
0.0
 10
18.072856662
 20
56.5196187427
 30
0.0
 10
18.0602983055
 20
56.630817647
 30
0.0
 10
18.0545642186
 20
56.7043233339
 30
0.0
 10
18.0525991891
 20
56.7463367548
 30
0.0
 10
18.0524923497
 20
56.7790704459
 30
0.0
 10
18.0543382872
 20
56.8030766308
 30
0.0
 10
18.0572168705
 20
56.8182638425
 30
0.0
 10
18.0614536826
 20
56.8259714864
 30
0.0
 10
18.0640159929
 20
56.827158403
 30
0.0
  0
SPLINE
  5
27F
100
AcDbEntity
  8
0
100
AcDbSpline
 62
7
  6
BYLAYER
 70
0
 71
3
 72
15
 73
11
 74
0
 42
0.0000001
 43
0.0000001
 44
0.0000000001
 40
0.0
 40
0.0
 40
0.0
 40
0.0
 40
0.1233465005
 40
0.2407743153
 40
0.3322757233
 40
0.4313901247
 40
0.6355695429
 40
0.7294955553
 40
0.8180444712
 40
1.0
 40
1.0
 40
1.0
 40
1.0
 10
18.0637023719
 20
56.8287374823
 30
0.0
 10
18.0614579454
 20
56.8310730892
 30
0.0
 10
18.0575477186
 20
56.8360764609
 30
0.0
 10
18.0527330613
 20
56.8433494375
 30
0.0
 10
18.0475680397
 20
56.8496086566
 30
0.0
 10
18.0398912506
 20
56.8566021548
 30
0.0
 10
18.0316732798
 20
56.8630555129
 30
0.0
 10
18.0247638168
 20
56.8705470955
 30
0.0
 10
18.0192597116
 20
56.8783750523
 30
0.0
 10
18.01518755
 20
56.8842501959
 30
0.0
 10
18.0118757443
 20
56.8876946971
 30
0.0
  0
LINE
  5
280
100
AcDbEntity
  8
0
100
AcDbLine
 62
7
  6
BYLAYER
 10
11.6281622561
 20
55.0934585454
 11
11.6563847255
 21
55.0737428317
  0
SPLINE
  5
281
100
AcDbEntity
  8
0
100
AcDbSpline
 62
7
  6
BYLAYER
 70
0
 71
3
 72
15
 73
11
 74
0
 42
0.0000001
 43
0.0000001
 44
0.0000000001
 40
0.0
 40
0.0
 40
0.0
 40
0.0
 40
0.1247993326
 40
0.2497406678
 40
0.3748150579
 40
0.5000020054
 40
0.625188089
 40
0.7502618733
 40
0.8752019105
 40
1.0
 40
1.0
 40
1.0
 40
1.0
 10
25.1880884751
 20
66.9609612339
 30
0.0
 10
25.3021246177
 20
67.0909717271
 30
0.0
 10
25.558835388
 20
67.3276235249
 30
0.0
 10
26.0096370845
 20
67.5930364489
 30
0.0
 10
26.5069957414
 20
67.7576727296
 30
0.0
 10
27.0282278245
 20
67.8135366737
 30
0.0
 10
27.5494587955
 20
67.7576710423
 30
0.0
 10
28.0468134512
 20
67.5930350466
 30
0.0
 10
28.4976103229
 20
67.3276217192
 30
0.0
 10
28.7543157031
 20
67.090970206
 30
0.0
 10
28.8683527229
 20
66.9609627735
 30
0.0
  0
SPLINE
  5
282
100
AcDbEntity
  8
0
100
AcDbSpline
 62
7
  6
BYLAYER
 70
0
 71
3
 72
11
 73
7
 74
0
 42
0.0000001
 43
0.0000001
 44
0.0000000001
 40
0.0
 40
0.0
 40
0.0
 40
0.0
 40
0.2484710121
 40
0.4971430208
 40
0.7474002539
 40
1.0
 40
1.0
 40
1.0
 40
1.0
 10
29.0181500818
 20
66.7875015824
 30
0.0
 10
29.4626057944
 20
66.2668453724
 30
0.0
 10
30.2986163486
 20
65.1782849584
 30
0.0
 10
31.3800431989
 20
63.4218488078
 30
0.0
 10
32.2803928125
 20
61.5534040387
 30
0.0
 10
32.7511942135
 20
60.24734815
 30
0.0
 10
32.9532147786
 20
59.5813791685
 30
0.0
  0
SPLINE
  5
283
100
AcDbEntity
  8
0
100
AcDbSpline
 62
7
  6
BYLAYER
 70
0
 71
3
 72
11
 73
7
 74
0
 42
0.0000001
 43
0.0000001
 44
0.0000000001
 40
0.0
 40
0.0
 40
0.0
 40
0.0
 40
0.2489156984
 40
0.4377057037
 40
0.6247409907
 40
1.0
 40
1.0
 40
1.0
 40
1.0
 10
32.9515508639
 20
59.5808716057
 30
0.0
 10
32.95703513
 20
59.5854377054
 30
0.0
 10
32.9661588639
 20
59.5940702268
 30
0.0
 10
32.9792851691
 20
59.6062529884
 30
0.0
 10
32.9953672232
 20
59.6205718639
 30
0.0
 10
33.0068448908
 20
59.6319288787
 30
0.0
 10
33.0151094291
 20
59.6388166998
 30
0.0
  0
SPLINE
  5
284
100
AcDbEntity
  8
0
100
AcDbSpline
 62
7
  6
BYLAYER
 70
0
 71
3
 72
18
 73
14
 74
0
 42
0.0000001
 43
0.0000001
 44
0.0000000001
 40
0.0
 40
0.0
 40
0.0
 40
0.0
 40
0.1800377205
 40
0.3631656228
 40
0.5392277859
 40
0.6968292837
 40
0.825483246
 40
0.8771051339
 40
0.9195200593
 40
0.9523859238
 40
0.9761335544
 40
0.9915247137
 40
1.0
 40
1.0
 40
1.0
 40
1.0
 10
35.7819058839
 20
55.8651122444
 30
0.0
 10
35.7945435407
 20
55.9232788896
 30
0.0
 10
35.8192780008
 20
56.040776632
 30
0.0
 10
35.8536756767
 20
56.2157109059
 30
0.0
 10
35.8839106206
 20
56.3838858332
 30
0.0
 10
35.9080875839
 20
56.5348181265
 30
0.0
 10
35.9227120575
 20
56.6456022983
 30
0.0
 10
35.9298490042
 20
56.7188746193
 30
0.0
 10
35.9326351116
 20
56.7607775892
 30
0.0
 10
35.9334019461
 20
56.7934450786
 30
0.0
 10
35.9320699684
 20
56.8174427293
 30
0.0
 10
35.9295409539
 20
56.8326270171
 30
0.0
 10
35.9255316827
 20
56.840416733
 30
0.0
 10
35.9230164724
 20
56.8416517937
 30
0.0
  0
SPLINE
  5
285
100
AcDbEntity
  8
0
100
AcDbSpline
 62
7
  6
BYLAYER
 70
0
 71
3
 72
20
 73
16
 74
0
 42
0.0000001
 43
0.0000001
 44
0.0000000001
 40
0.0
 40
0.0
 40
0.0
 40
0.0
 40
0.1807809692
 40
0.3642905901
 40
0.5404260937
 40
0.6979252763
 40
0.7662301957
 40
0.8264338684
 40
0.8779799418
 40
0.9203208833
 40
0.9531064994
 40
0.9767363177
 40
0.9919052363
 40
0.9966798582
 40
1.0
 40
1.0
 40
1.0
 40
1.0
 10
35.0060350281
 20
56.0994622856
 30
0.0
 10
35.0276655908
 20
56.1544855172
 30
0.0
 10
35.0706351367
 20
56.2656063813
 30
0.0
 10
35.1324788739
 20
56.4311783992
 30
0.0
 10
35.1894091043
 20
56.5904400366
 30
0.0
 10
35.231631907
 20
56.7149350411
 30
0.0
 10
35.2599425658
 20
56.8040867661
 30
0.0
 10
35.2768984008
 20
56.8604790187
 30
0.0
 10
35.2904832484
 20
56.9090150513
 30
0.0
 10
35.3006020604
 20
56.9491827488
 30
0.0
 10
35.307277431
 20
56.9808228392
 30
0.0
 10
35.3106021791
 20
57.003960003
 30
0.0
 10
35.3111629499
 20
57.0183512847
 30
0.0
 10
35.3096095768
 20
57.0258207466
 30
0.0
 10
35.3081901308
 20
57.0282073247
 30
0.0
 10
35.3073410212
 20
57.0288840823
 30
0.0
  0
SPLINE
  5
286
100
AcDbEntity
  8
0
100
AcDbSpline
 62
7
  6
BYLAYER
 70
0
 71
3
 72
22
 73
18
 74
0
 42
0.0000001
 43
0.0000001
 44
0.0000000001
 40
0.0
 40
0.0
 40
0.0
 40
0.0
 40
0.182170064
 40
0.3665588918
 40
0.5431067955
 40
0.6249831442
 40
0.7006980717
 40
0.7689745411
 40
0.8291122537
 40
0.8805562248
 40
0.9227545264
 40
0.9553364408
 40
0.9786426156
 40
0.9869905592
 40
0.9932401116
 40
0.9975018876
 40
1.0
 40
1.0
 40
1.0
 40
1.0
 10
33.2311674606
 20
57.2768956607
 30
0.0
 10
33.273258161
 20
57.317616045
 30
0.0
 10
33.3576897384
 20
57.3998245914
 30
0.0
 10
33.4819694256
 20
57.5224613419
 30
0.0
 10
33.5824834583
 20
57.6232723197
 30
0.0
 10
33.6577502602
 20
57.6999140988
 30
0.0
 10
33.7083203103
 20
57.7520226556
 30
0.0
 10
33.7536701747
 20
57.799456151
 30
0.0
 10
33.7932543632
 20
57.8416050762
 30
0.0
 10
33.8266887536
 20
57.8780220027
 30
0.0
 10
33.8536827943
 20
57.9083278518
 30
0.0
 10
33.8740880615
 20
57.932361798
 30
0.0
 10
33.8869006683
 20
57.9485900937
 30
0.0
 10
33.8938527173
 20
57.9585818192
 30
0.0
 10
33.8970182283
 20
57.9637963263
 30
0.0
 10
33.8987773858
 20
57.9675300293
 30
0.0
 10
33.8992916416
 20
57.9697810379
 30
0.0
 10
33.8990882274
 20
57.9705579465
 30
0.0
  0
SPLINE
  5
287
100
AcDbEntity
  8
0
100
AcDbSpline
 62
7
  6
BYLAYER
 70
0
 71
3
 72
21
 73
17
 74
0
 42
0.0000001
 43
0.0000001
 44
0.0000000001
 40
0.0
 40
0.0
 40
0.0
 40
0.0
 40
0.1837573917
 40
0.3687725375
 40
0.5451284961
 40
0.6267051046
 40
0.7020495113
 40
0.7699303153
 40
0.8296774156
 40
0.880762996
 40
0.9226644798
 40
0.9550387344
 40
0.9782374812
 40
0.9928548622
 40
0.9972318366
 40
1.0
 40
1.0
 40
1.0
 40
1.0
 10
32.0603865094
 20
59.2967228535
 30
0.0
 10
32.1153513235
 20
59.3139369588
 30
0.0
 10
32.2257983327
 20
59.3480341873
 30
0.0
 10
32.3894894805
 20
59.3970373107
 30
0.0
 10
32.5229087892
 20
59.4354619026
 30
0.0
 10
32.6235718072
 20
59.4633845455
 30
0.0
 10
32.6916141979
 20
59.4816955664
 30
0.0
 10
32.7532075404
 20
59.4976325973
 30
0.0
 10
32.8075978512
 20
59.5110322216
 30
0.0
 10
32.8542502323
 20
59.5218030996
 30
0.0
 10
32.8926991535
 20
59.5298704485
 30
0.0
 10
32.922808621
 20
59.5352578612
 30
0.0
 10
32.9445863252
 20
59.5380188423
 30
0.0
 10
32.9579329805
 20
59.5386286932
 30
0.0
 10
32.9646384963
 20
59.5375688583
 30
0.0
 10
32.9667743432
 20
59.5365216121
 30
0.0
 10
32.9673118002
 20
59.535840456
 30
0.0
  0
SPLINE
  5
288
100
AcDbEntity
  8
0
100
AcDbSpline
 62
7
  6
BYLAYER
 70
0
 71
3
 72
18
 73
14
 74
0
 42
0.0000001
 43
0.0000001
 44
0.0000000001
 40
0.0
 40
0.0
 40
0.0
 40
0.0
 40
0.1799474327
 40
0.3630302593
 40
0.5390855275
 40
0.6967011266
 40
0.8253734415
 40
0.8770038757
 40
0.9194264868
 40
0.9523000136
 40
0.9760588897
 40
0.9914724009
 40
1.0
 40
1.0
 40
1.0
 40
1.0
 10
35.8693710924
 20
55.8469709872
 30
0.0
 10
35.8809901877
 20
55.9054009838
 30
0.0
 10
35.903658462
 20
56.0234341153
 30
0.0
 10
35.9349483384
 20
56.1991474361
 30
0.0
 10
35.9621598249
 20
56.3680588532
 30
0.0
 10
35.9835835163
 20
56.5196236169
 30
0.0
 10
35.9961421194
 20
56.6308266632
 30
0.0
 10
36.0018759824
 20
56.704333927
 30
0.0
 10
36.0038405815
 20
56.7463471289
 30
0.0
 10
36.0039470504
 20
56.7790796559
 30
0.0
 10
36.0021001659
 20
56.8030839599
 30
0.0
 10
35.9992215689
 20
56.8182688129
 30
0.0
 10
35.9949830857
 20
56.8259745456
 30
0.0
 10
35.9924207465
 20
56.827159768
 30
0.0
  0
SPLINE
  5
289
100
AcDbEntity
  8
0
100
AcDbSpline
 62
7
  6
BYLAYER
 70
0
 71
3
 72
24
 73
20
 74
0
 42
0.0000001
 43
0.0000001
 44
0.0000000001
 40
0.0
 40
0.0
 40
0.0
 40
0.0
 40
0.1895384744
 40
0.3734123398
 40
0.5446574001
 40
0.6235063438
 40
0.6967660134
 40
0.7636391474
 40
0.8233297598
 40
0.8751280597
 40
0.9185068655
 40
0.9368819026
 40
0.9529638822
 40
0.9667032613
 40
0.9780850728
 40
0.9871012253
 40
0.9937466112
 40
0.9980257851
 40
1.0
 40
1.0
 40
1.0
 40
1.0
 10
42.3571035906
 20
54.0516537896
 30
0.0
 10
42.3574902409
 20
54.1153765984
 30
0.0
 10
42.3584416064
 20
54.240916722
 30
0.0
 10
42.3604096117
 20
54.42402356
 30
0.0
 10
42.3625065635
 20
54.56991158
 30
0.0
 10
42.3644482522
 20
54.6786077986
 30
0.0
 10
42.3659600984
 20
54.7522153753
 30
0.0
 10
42.3675504699
 20
54.819378491
 30
0.0
 10
42.369203073
 20
54.8793224052
 30
0.0
 10
42.3709039008
 20
54.9313620851
 30
0.0
 10
42.3724088552
 20
54.9695104401
 30
0.0
 10
42.3736539457
 20
54.9956488956
 30
0.0
 10
42.3745332716
 20
55.0118313043
 30
0.0
 10
42.3754142206
 20
55.0256497602
 30
0.0
 10
42.376273525
 20
55.0371133538
 30
0.0
 10
42.3771531457
 20
55.0461161158
 30
0.0
 10
42.377918151
 20
55.0528890717
 30
0.0
 10
42.3788082943
 20
55.056929711
 30
0.0
 10
42.3792965111
 20
55.0592379811
 30
0.0
 10
42.3798411744
 20
55.0596173182
 30
0.0
  0
LINE
  5
28A
100
AcDbEntity
  8
0
100
AcDbLine
 62
7
  6
BYLAYER
 10
42.3798411744
 20
55.0596173182
 11
42.4282800178
 21
55.0934598093
  0
SPLINE
  5
28B
100
AcDbEntity
  8
0
100
AcDbSpline
 62
7
  6
BYLAYER
 70
0
 71
3
 72
15
 73
11
 74
0
 42
0.0000001
 43
0.0000001
 44
0.0000000001
 40
0.0
 40
0.0
 40
0.0
 40
0.0
 40
0.1233446131
 40
0.2407831837
 40
0.3322902116
 40
0.43140495
 40
0.635584366
 40
0.7295066298
 40
0.8180466796
 40
1.0
 40
1.0
 40
1.0
 40
1.0
 10
36.0445639527
 20
56.887695191
 30
0.0
 10
36.0423189319
 20
56.8853602175
 30
0.0
 10
36.0384091573
 20
56.8803558481
 30
0.0
 10
36.0335990305
 20
56.8730794637
 30
0.0
 10
36.0284371934
 20
56.8668169291
 30
0.0
 10
36.0207619455
 20
56.8598212791
 30
0.0
 10
36.0125438084
 20
56.8533684966
 30
0.0
 10
36.0056312522
 20
56.8458804189
 30
0.0
 10
36.0001221389
 20
56.8380563401
 30
0.0
 10
35.9960481705
 20
56.8321833314
 30
0.0
 10
35.9927373235
 20
56.8287379796
 30
0.0
  0
SPLINE
  5
28C
100
AcDbEntity
  8
0
100
AcDbSpline
 62
7
  6
BYLAYER
 70
0
 71
3
 72
23
 73
19
 74
0
 42
0.0000001
 43
0.0000001
 44
0.0000000001
 40
0.0
 40
0.0
 40
0.0
 40
0.0
 40
0.2224084797
 40
0.4186003972
 40
0.5874448395
 40
0.6613643734
 40
0.7281683848
 40
0.7877769071
 40
0.8401286922
 40
0.8851687726
 40
0.922845584
 40
0.9531205142
 40
0.965482046
 40
0.9759970448
 40
0.9846737379
 40
0.9915293374
 40
0.996602831
 40
1.0
 40
1.0
 40
1.0
 40
1.0
 10
11.8732610184
 20
9.4536280562
 30
0.0
 10
11.8661913023
 20
9.172913556
 30
0.0
 10
11.8518689011
 20
8.6445983082
 30
0.0
 10
11.8279902129
 20
7.9032965072
 30
0.0
 10
11.8064826849
 20
7.3495000887
 30
0.0
 10
11.7884867877
 20
6.9590655204
 30
0.0
 10
11.7754024859
 20
6.706471788
 30
0.0
 10
11.7621474746
 20
6.4811586644
 30
0.0
 10
11.7487432238
 20
6.2833874452
 30
0.0
 10
11.7352278042
 20
6.1133855265
 30
0.0
 10
11.7216244934
 20
5.9713717101
 30
0.0
 10
11.7096250033
 20
5.8706631954
 30
0.0
 10
11.6996503867
 20
5.8042984252
 30
0.0
 10
11.6926845539
 20
5.7650630351
 30
0.0
 10
11.6857438215
 20
5.7329211415
 30
0.0
 10
11.6788467186
 20
5.7077777987
 30
0.0
 10
11.6720559688
 20
5.6897046993
 30
0.0
 10
11.6666089253
 20
5.6802367019
 30
0.0
 10
11.6635781542
 20
5.6772017407
 30
0.0
  0
SPLINE
  5
28D
100
AcDbEntity
  8
0
100
AcDbSpline
 62
7
  6
BYLAYER
 70
0
 71
3
 72
11
 73
7
 74
0
 42
0.0000001
 43
0.0000001
 44
0.0000000001
 40
0.0
 40
0.0
 40
0.0
 40
0.0
 40
0.2494937517
 40
0.4999999968
 40
0.7505062446
 40
1.0
 40
1.0
 40
1.0
 40
1.0
 10
42.1832196966
 20
9.4536254758
 30
0.0
 10
39.6682235048
 20
9.6627884869
 30
0.0
 10
34.6203220957
 20
9.9980682839
 30
0.0
 10
27.0282404805
 20
10.175350105
 30
0.0
 10
19.436158775
 20
9.9980703048
 30
0.0
 10
14.3882572398
 20
9.6627911623
 30
0.0
 10
11.8732610184
 20
9.4536280562
 30
0.0
  0
SPLINE
  5
28E
100
AcDbEntity
  8
0
100
AcDbSpline
 62
7
  6
BYLAYER
 70
0
 71
3
 72
23
 73
19
 74
0
 42
0.0000001
 43
0.0000001
 44
0.0000000001
 40
0.0
 40
0.0
 40
0.0
 40
0.0
 40
0.0033971641
 40
0.0084706482
 40
0.0153262373
 40
0.0240029204
 40
0.0345179103
 40
0.0468794344
 40
0.0771543541
 40
0.1148311614
 40
0.1598712416
 40
0.2122230287
 40
0.2718315543
 40
0.3386355698
 40
0.4125551088
 40
0.5813995648
 40
0.7775915006
 40
1.0
 40
1.0
 40
1.0
 40
1.0
 10
42.3929022924
 20
5.6772017382
 30
0.0
 10
42.3898715274
 20
5.6802366922
 30
0.0
 10
42.3844245226
 20
5.6897046877
 30
0.0
 10
42.3776338839
 20
5.7077777789
 30
0.0
 10
42.3707369376
 20
5.7329211061
 30
0.0
 10
42.3637963964
 20
5.7650629776
 30
0.0
 10
42.3568307739
 20
5.8042983406
 30
0.0
 10
42.346856465
 20
5.8706630715
 30
0.0
 10
42.3348573131
 20
5.97137152
 30
0.0
 10
42.3212542348
 20
6.1133852318
 30
0.0
 10
42.307738941
 20
6.2833870295
 30
0.0
 10
42.2943347409
 20
6.4811581104
 30
0.0
 10
42.2810797444
 20
6.7064710782
 30
0.0
 10
42.2679954561
 20
6.9590646383
 30
0.0
 10
42.2499995224
 20
7.3494989419
 30
0.0
 10
42.2284917207
 20
7.903294982
 30
0.0
 10
42.2046121477
 20
8.6445962664
 30
0.0
 10
42.1902894112
 20
9.1729111601
 30
0.0
 10
42.1832196966
 20
9.4536254758
 30
0.0
  0
SPLINE
  5
28F
100
AcDbEntity
  8
0
100
AcDbSpline
 62
7
  6
BYLAYER
 70
0
 71
3
 72
20
 73
16
 74
0
 42
0.0000001
 43
0.0000001
 44
0.0000000001
 40
0.0
 40
0.0
 40
0.0
 40
0.0
 40
0.1836755469
 40
0.3686125854
 40
0.5448979819
 40
0.7017596855
 40
0.7696184581
 40
0.8293498141
 40
0.8804276234
 40
0.9223318223
 40
0.9547235621
 40
0.9779622528
 40
0.9926605256
 40
0.9971117243
 40
1.0
 40
1.0
 40
1.0
 40
1.0
 10
22.0138358093
 20
59.3554585256
 30
0.0
 10
21.9586701917
 20
59.3720673437
 30
0.0
 10
21.847813089
 20
59.4049127279
 30
0.0
 10
21.6834995127
 20
59.4519575184
 30
0.0
 10
21.526772014
 20
59.4949053623
 30
0.0
 10
21.4050278706
 20
59.5265359012
 30
0.0
 10
21.318325667
 20
59.5475968236
 30
0.0
 10
21.2637052823
 20
59.5601369884
 30
0.0
 10
21.2168504279
 20
59.5701195822
 30
0.0
 10
21.1782271792
 20
59.5774796859
 30
0.0
 10
21.1479724041
 20
59.5822452688
 30
0.0
 10
21.1260707989
 20
59.584478171
 30
0.0
 10
21.1126410731
 20
59.5846778302
 30
0.0
 10
21.1058823978
 20
59.5833105652
 30
0.0
 10
21.1037586579
 20
59.5821111589
 30
0.0
 10
21.1032248607
 20
59.581379189
 30
0.0
  0
SPLINE
  5
290
100
AcDbEntity
  8
0
100
AcDbSpline
 62
7
  6
BYLAYER
 70
0
 71
3
 72
21
 73
17
 74
0
 42
0.0000001
 43
0.0000001
 44
0.0000000001
 40
0.0
 40
0.0
 40
0.0
 40
0.0
 40
0.183040004
 40
0.367563637
 40
0.543740377
 40
0.6253411735
 40
0.7007787738
 40
0.7688138002
 40
0.8287568395
 40
0.8800579403
 40
0.9221724123
 40
0.9547366699
 40
0.978088483
 40
0.9928097745
 40
0.9972167753
 40
1.0
 40
1.0
 40
1.0
 40
1.0
 10
21.9960525894
 20
59.2967225556
 30
0.0
 10
21.9413024338
 20
59.3138694681
 30
0.0
 10
21.8312182671
 20
59.3478569273
 30
0.0
 10
21.6679463811
 20
59.3967426387
 30
0.0
 10
21.5347252554
 20
59.4351223806
 30
0.0
 10
21.4340844213
 20
59.4630519906
 30
0.0
 10
21.3659625654
 20
59.4813949743
 30
0.0
 10
21.3042376086
 20
59.4973777768
 30
0.0
 10
21.2496782196
 20
59.5108319776
 30
0.0
 10
21.2028382006
 20
59.5216600159
 30
0.0
 10
21.1642025724
 20
59.5297808974
 30
0.0
 10
21.1339237619
 20
59.5352126663
 30
0.0
 10
21.1120095235
 20
59.5380050179
 30
0.0
 10
21.0985723515
 20
59.5386315539
 30
0.0
 10
21.0918204072
 20
59.5375751779
 30
0.0
 10
21.0896681709
 20
59.5365253019
 30
0.0
 10
21.089127791
 20
59.53584044
 30
0.0
  0
SPLINE
  5
291
100
AcDbEntity
  8
0
100
AcDbSpline
 62
7
  6
BYLAYER
 70
0
 71
3
 72
22
 73
18
 74
0
 42
0.0000001
 43
0.0000001
 44
0.0000000001
 40
0.0
 40
0.0
 40
0.0
 40
0.0
 40
0.1817119853
 40
0.3657860628
 40
0.5422197568
 40
0.6241122111
 40
0.6998876474
 40
0.7682638721
 40
0.8285280125
 40
0.8801106596
 40
0.9224454691
 40
0.9551484373
 40
0.978551393
 40
0.9869362255
 40
0.9932137436
 40
0.9974937098
 40
1.0
 40
1.0
 40
1.0
 40
1.0
 10
20.8253318467
 20
57.2768366572
 30
0.0
 10
20.7833433055
 20
57.3174581547
 30
0.0
 10
20.6990815975
 20
57.3994996803
 30
0.0
 10
20.5749912203
 20
57.5219438667
 30
0.0
 10
20.474557799
 20
57.622665254
 30
0.0
 10
20.3992881907
 20
57.6993004356
 30
0.0
 10
20.3486704115
 20
57.7514504934
 30
0.0
 10
20.3032486203
 20
57.7989506414
 30
0.0
 10
20.2635759159
 20
57.8411842662
 30
0.0
 10
20.2300461265
 20
57.877694719
 30
0.0
 10
20.2029595702
 20
57.9080935257
 30
0.0
 10
20.182473378
 20
57.9322117119
 30
0.0
 10
20.1696038146
 20
57.9485018743
 30
0.0
 10
20.1626171397
 20
57.9585338214
 30
0.0
 10
20.1594342329
 20
57.963770114
 30
0.0
 10
20.1576651871
 20
57.9675179297
 30
0.0
 10
20.1571462574
 20
57.969778053
 30
0.0
 10
20.1573507657
 20
57.9705574652
 30
0.0
  0
SPLINE
  5
292
100
AcDbEntity
  8
0
100
AcDbSpline
 62
7
  6
BYLAYER
 70
0
 71
3
 72
20
 73
16
 74
0
 42
0.0000001
 43
0.0000001
 44
0.0000000001
 40
0.0
 40
0.0
 40
0.0
 40
0.0
 40
0.1804407007
 40
0.3637147784
 40
0.5397631862
 40
0.6973175213
 40
0.7656961273
 40
0.8259936195
 40
0.8776428823
 40
0.9200856381
 40
0.9529618177
 40
0.9766644333
 40
0.9918828025
 40
0.9966719288
 40
1.0
 40
1.0
 40
1.0
 40
1.0
 10
19.0504338098
 20
56.099385205
 30
0.0
 10
19.0288419849
 20
56.1543093794
 30
0.0
 10
18.9859351369
 20
56.2652632023
 30
0.0
 10
18.9241569342
 20
56.4306439541
 30
0.0
 10
18.8672423448
 20
56.589833226
 30
0.0
 10
18.8250016495
 20
56.7143481138
 30
0.0
 10
18.7966564021
 20
56.803573433
 30
0.0
 10
18.7796655669
 20
56.8600527294
 30
0.0
 10
18.7660445209
 20
56.9086844803
 30
0.0
 10
18.7558921465
 20
56.9489469446
 30
0.0
 10
18.7491892538
 20
56.9806726848
 30
0.0
 10
18.7458452452
 20
57.003879171
 30
0.0
 10
18.7452743457
 20
57.0183163599
 30
0.0
 10
18.7468258305
 20
57.0258105461
 30
0.0
 10
18.748247384
 20
57.0282055703
 30
0.0
 10
18.7490985673
 20
57.0288840323
 30
0.0
  0
SPLINE
  5
293
100
AcDbEntity
  8
0
100
AcDbSpline
 62
7
  6
BYLAYER
 70
0
 71
3
 72
18
 73
14
 74
0
 42
0.0000001
 43
0.0000001
 44
0.0000000001
 40
0.0
 40
0.0
 40
0.0
 40
0.0
 40
0.1799953452
 40
0.3630935863
 40
0.5391445404
 40
0.6967527229
 40
0.82542767
 40
0.8770625462
 40
0.9194903064
 40
0.9523676006
 40
0.9761244275
 40
0.9915218462
 40
1.0
 40
1.0
 40
1.0
 40
1.0
 10
18.2745332209
 20
55.8651136049
 30
0.0
 10
18.2618985825
 20
55.9232664712
 30
0.0
 10
18.237168909
 20
56.0407406832
 30
0.0
 10
18.202775932
 20
56.2156475365
 30
0.0
 10
18.1725417683
 20
56.3838108378
 30
0.0
 10
18.1483623229
 20
56.5347479916
 30
0.0
 10
18.133734328
 20
56.6455450755
 30
0.0
 10
18.1265940559
 20
56.7188324853
 30
0.0
 10
18.1238057989
 20
56.7607476225
 30
0.0
 10
18.1230374021
 20
56.7934259926
 30
0.0
 10
18.1243685423
 20
56.8174327831
 30
0.0
 10
18.1268973006
 20
56.8326227546
 30
0.0
 10
18.1309070486
 20
56.8404163028
 30
0.0
 10
18.1334231026
 20
56.8416517859
 30
0.0
  0
SPLINE
  5
294
100
AcDbEntity
  8
0
100
AcDbSpline
 62
7
  6
BYLAYER
 70
0
 71
3
 72
9
 73
5
 74
0
 42
0.0000001
 43
0.0000001
 44
0.0000000001
 40
0.0
 40
0.0
 40
0.0
 40
0.0
 40
0.4999386674
 40
1.0
 40
1.0
 40
1.0
 40
1.0
 10
20.8253368987
 20
57.2769795869
 30
0.0
 10
20.5763476293
 20
57.0210689593
 30
0.0
 10
20.0213293128
 20
56.561971459
 30
0.0
 10
19.3825114965
 20
56.2293944369
 30
0.0
 10
19.0499455783
 20
56.09920848
 30
0.0
  0
SPLINE
  5
295
100
AcDbEntity
  8
0
100
AcDbSpline
 62
7
  6
BYLAYER
 70
0
 71
3
 72
9
 73
5
 74
0
 42
0.0000001
 43
0.0000001
 44
0.0000000001
 40
0.0
 40
0.0
 40
0.0
 40
0.0
 40
0.500075879
 40
1.0
 40
1.0
 40
1.0
 40
1.0
 10
35.0067951723
 20
56.0990590542
 30
0.0
 10
34.6741640818
 20
56.2292446883
 30
0.0
 10
34.0352442316
 20
56.561848307
 30
0.0
 10
33.4801314755
 20
57.0209914643
 30
0.0
 10
33.2311128308
 20
57.2769290104
 30
0.0
  0
SPLINE
  5
296
100
AcDbEntity
  8
0
100
AcDbSpline
 62
7
  6
BYLAYER
 70
0
 71
3
 72
10
 73
6
 74
0
 42
0.0000001
 43
0.0000001
 44
0.0000000001
 40
0.0
 40
0.0
 40
0.0
 40
0.0
 40
0.4999999974
 40
0.7500000138
 40
1.0
 40
1.0
 40
1.0
 40
1.0
 10
42.1833202631
 20
9.453618961
 30
0.0
 10
42.1963236556
 20
16.8866533984
 30
0.0
 10
42.2285173532
 20
28.0361872089
 30
0.0
 10
42.2939292764
 20
42.9021362285
 30
0.0
 10
42.3344620454
 20
50.3350737017
 30
0.0
 10
42.3570141005
 20
54.0515279966
 30
0.0
  0
SPLINE
  5
297
100
AcDbEntity
  8
0
100
AcDbSpline
 62
7
  6
BYLAYER
 70
0
 71
3
 72
14
 73
10
 74
0
 42
0.0000001
 43
0.0000001
 44
0.0000000001
 40
0.0
 40
0.0
 40
0.0
 40
0.0
 40
0.2523505381
 40
0.3779389147
 40
0.5030710071
 40
0.6277377874
 40
0.7519771246
 40
0.875901466
 40
1.0
 40
1.0
 40
1.0
 40
1.0
 10
32.0426011048
 20
59.355457893
 30
0.0
 10
31.8496505823
 20
60.0046421256
 30
0.0
 10
31.4817414484
 20
60.9550625928
 30
0.0
 10
30.8704651794
 20
62.1593469466
 30
0.0
 10
30.3623371699
 20
63.0299509155
 30
0.0
 10
29.8130111032
 20
63.8705716178
 30
0.0
 10
29.2276249489
 20
64.6824493737
 30
0.0
 10
28.6101380809
 20
65.4681978202
 30
0.0
 10
28.1778779563
 20
65.9745992844
 30
0.0
 10
27.9580341084
 20
66.2247844347
 30
0.0
  0
SPLINE
  5
298
100
AcDbEntity
  8
0
100
AcDbSpline
 62
7
  6
BYLAYER
 70
0
 71
3
 72
9
 73
5
 74
0
 42
0.0000001
 43
0.0000001
 44
0.0000000001
 40
0.0
 40
0.0
 40
0.0
 40
0.0
 40
0.499010058
 40
1.0
 40
1.0
 40
1.0
 40
1.0
 10
33.2313408136
 20
57.2767115875
 30
0.0
 10
32.9633321825
 20
57.5612796086
 30
0.0
 10
32.4917201114
 20
58.1966279766
 30
0.0
 10
32.1761013692
 20
58.9217126832
 30
0.0
 10
32.0603866153
 20
59.2967228858
 30
0.0
  0
SPLINE
  5
299
100
AcDbEntity
  8
0
100
AcDbSpline
 62
7
  6
BYLAYER
 70
0
 71
3
 72
9
 73
5
 74
0
 42
0.0000001
 43
0.0000001
 44
0.0000000001
 40
0.0
 40
0.0
 40
0.0
 40
0.0
 40
0.5009879197
 40
1.0
 40
1.0
 40
1.0
 40
1.0
 10
21.9960527162
 20
59.2967229667
 30
0.0
 10
21.8803384683
 20
58.9217140732
 30
0.0
 10
21.5647193679
 20
58.196629253
 30
0.0
 10
21.0931084383
 20
57.5612796286
 30
0.0
 10
20.8250990259
 20
57.2767099154
 30
0.0
  0
SPLINE
  5
29A
100
AcDbEntity
  8
0
100
AcDbSpline
 62
7
  6
BYLAYER
 70
0
 71
3
 72
14
 73
10
 74
0
 42
0.0000001
 43
0.0000001
 44
0.0000000001
 40
0.0
 40
0.0
 40
0.0
 40
0.0
 40
0.1240971745
 40
0.2480197158
 40
0.3722582401
 40
0.4969273483
 40
0.6220614667
 40
0.7476477021
 40
1.0
 40
1.0
 40
1.0
 40
1.0
 10
26.0984915873
 20
66.2248797715
 30
0.0
 10
25.8787070359
 20
65.9745991605
 30
0.0
 10
25.4450488159
 20
65.4693300929
 30
0.0
 10
24.8264817255
 20
64.6842688589
 30
0.0
 10
24.2409222441
 20
63.8723706764
 30
0.0
 10
23.6918740724
 20
63.0314215683
 30
0.0
 10
23.1839998417
 20
62.160540408
 30
0.0
 10
22.5733638518
 20
60.955726422
 30
0.0
 10
22.2067572679
 20
60.0047332474
 30
0.0
 10
22.0138364558
 20
59.3554583911
 30
0.0
  0
SPLINE
  5
29B
100
AcDbEntity
  8
0
100
AcDbSpline
 62
7
  6
BYLAYER
 70
0
 71
3
 72
15
 73
11
 74
0
 42
0.0000001
 43
0.0000001
 44
0.0000000001
 40
0.0
 40
0.0
 40
0.0
 40
0.0
 40
0.1248601386
 40
0.2491412748
 40
0.3736860593
 40
0.4999691528
 40
0.6262617267
 40
0.7508254481
 40
0.8751273508
 40
1.0
 40
1.0
 40
1.0
 40
1.0
 10
27.8102978037
 20
66.3908532057
 30
0.0
 10
27.7615960149
 20
66.4447841281
 30
0.0
 10
27.6522814653
 20
66.5421114934
 30
0.0
 10
27.4605486363
 20
66.6484502918
 30
0.0
 10
27.2482124702
 20
66.7078287923
 30
0.0
 10
27.0281968212
 20
66.7190746491
 30
0.0
 10
26.8081635584
 20
66.7079401163
 30
0.0
 10
26.5957754592
 20
66.6486126218
 30
0.0
 10
26.404032962
 20
66.5422163991
 30
0.0
 10
26.2947283426
 20
66.4448521027
 30
0.0
 10
26.246027108
 20
66.3909108699
 30
0.0
  0
SPLINE
  5
29C
100
AcDbEntity
  8
0
100
AcDbSpline
 62
7
  6
BYLAYER
 70
0
 71
3
 72
20
 73
16
 74
0
 42
0.0000001
 43
0.0000001
 44
0.0000000001
 40
0.0
 40
0.0
 40
0.0
 40
0.0
 40
0.183670564
 40
0.3686024021
 40
0.5448828142
 40
0.7017403049
 40
0.7695974872
 40
0.8293277169
 40
0.8804049757
 40
0.9223093682
 40
0.9547023301
 40
0.9779437731
 40
0.9926475514
 40
0.9971037494
 40
1.0
 40
1.0
 40
1.0
 40
1.0
 10
32.0426010211
 20
59.3554581746
 30
0.0
 10
32.0977628696
 20
59.3720797236
 30
0.0
 10
32.2086131565
 20
59.4049483979
 30
0.0
 10
32.3729189749
 20
59.4520206206
 30
0.0
 10
32.5296416977
 20
59.4949862652
 30
0.0
 10
32.651384446
 20
59.5266230945
 30
0.0
 10
32.7380874898
 20
59.5476820861
 30
0.0
 10
32.7927094665
 20
59.5602178898
 30
0.0
 10
32.8395667603
 20
59.5701933655
 30
0.0
 10
32.8781933049
 20
59.5775438619
 30
0.0
 10
32.9084521819
 20
59.5822975016
 30
0.0
 10
32.9303590661
 20
59.5845166215
 30
0.0
 10
32.9437936152
 20
59.5847022152
 30
0.0
 10
32.9505566124
 20
59.5833211574
 30
0.0
 10
32.9526805245
 20
59.5821139848
 30
0.0
 10
32.9532147651
 20
59.5813792117
 30
0.0
  0
SPLINE
  5
29D
100
AcDbEntity
  8
0
100
AcDbSpline
 62
7
  6
BYLAYER
 70
0
 71
3
 72
18
 73
14
 74
0
 42
0.0000001
 43
0.0000001
 44
0.0000000001
 40
0.0
 40
0.0
 40
0.0
 40
0.0
 40
0.1816618742
 40
0.3602859341
 40
0.5277612779
 40
0.6760442947
 40
0.7982261312
 40
0.8485396152
 40
0.8914009978
 40
0.9269175147
 40
0.9558974476
 40
0.9796353025
 40
1.0
 40
1.0
 40
1.0
 40
1.0
 10
27.9579538659
 20
66.2248844549
 30
0.0
 10
28.0155211109
 20
66.2730315353
 30
0.0
 10
28.13138777
 20
66.3665175773
 30
0.0
 10
28.3062705749
 20
66.4968219448
 30
0.0
 10
28.4758080302
 20
66.6108908544
 30
0.0
 10
28.6316374747
 20
66.7030252859
 30
0.0
 10
28.7511943207
 20
66.7608677772
 30
0.0
 10
28.8348425827
 20
66.7913903118
 30
0.0
 10
28.8862340006
 20
66.8053430267
 30
0.0
 10
28.9302468946
 20
66.8118464553
 30
0.0
 10
28.9669184568
 20
66.8111872882
 30
0.0
 10
28.9965273236
 20
66.8036422769
 30
0.0
 10
29.0121711189
 20
66.7934221507
 30
0.0
 10
29.0181492129
 20
66.7875026216
 30
0.0
  0
SPLINE
  5
29E
100
AcDbEntity
  8
0
100
AcDbSpline
 62
7
  6
BYLAYER
 70
0
 71
3
 72
18
 73
14
 74
0
 42
0.0000001
 43
0.0000001
 44
0.0000000001
 40
0.0
 40
0.0
 40
0.0
 40
0.0
 40
0.181471084
 40
0.3598023242
 40
0.5269465805
 40
0.6749463928
 40
0.796987091
 40
0.8473089142
 40
0.8902457607
 40
0.9259186868
 40
0.9551453996
 40
0.9792229615
 40
1.0
 40
1.0
 40
1.0
 40
1.0
 10
27.8103004372
 20
66.3908485617
 30
0.0
 10
27.8674151513
 20
66.4396849004
 30
0.0
 10
27.9824106754
 20
66.5344851331
 30
0.0
 10
28.1561691685
 20
66.6665896334
 30
0.0
 10
28.3248109184
 20
66.7821817733
 30
0.0
 10
28.480066699
 20
66.8755184888
 30
0.0
 10
28.5994425134
 20
66.9340870803
 30
0.0
 10
28.6831598878
 20
66.9649753287
 30
0.0
 10
28.7347424451
 20
66.9790983528
 30
0.0
 10
28.7790562789
 20
66.9856702284
 30
0.0
 10
28.8161267155
 20
66.9849772247
 30
0.0
 10
28.8462021583
 20
66.9772947802
 30
0.0
 10
28.8621808017
 20
66.9669569223
 30
0.0
 10
28.8683528601
 20
66.9609627313
 30
0.0
  0
SPLINE
  5
29F
100
AcDbEntity
  8
0
100
AcDbSpline
 62
7
  6
BYLAYER
 70
0
 71
3
 72
18
 73
14
 74
0
 42
0.0000001
 43
0.0000001
 44
0.0000000001
 40
0.0
 40
0.0
 40
0.0
 40
0.0
 40
0.1813732441
 40
0.3596429311
 40
0.5267693961
 40
0.6747897901
 40
0.7968783594
 40
0.8472279252
 40
0.8901912299
 40
0.9258867029
 40
0.9551302547
 40
0.9792180582
 40
1.0
 40
1.0
 40
1.0
 40
1.0
 10
26.2460280595
 20
66.390910197
 30
0.0
 10
26.1889463975
 20
66.4397072845
 30
0.0
 10
26.0740087842
 20
66.5344423001
 30
0.0
 10
25.9003254997
 20
66.6664756766
 30
0.0
 10
25.7317270375
 20
66.7820388219
 30
0.0
 10
25.5764801033
 20
66.8753832268
 30
0.0
 10
25.4570935602
 20
66.9339785523
 30
0.0
 10
25.3733556122
 20
66.9648980873
 30
0.0
 10
25.3217539819
 20
66.9790441831
 30
0.0
 10
25.2774218473
 20
66.9856368703
 30
0.0
 10
25.2403355817
 20
66.9849611725
 30
0.0
 10
25.2102472329
 20
66.9772915048
 30
0.0
 10
25.1942615383
 20
66.9669558298
 30
0.0
 10
25.1880885828
 20
66.9609613113
 30
0.0
  0
ENDSEC
  0
SECTION
  2
OBJECTS
  0
DICTIONARY
  5
C
100
AcDbDictionary
280
0
281
1
  3
ACAD_GROUP
350
D
  3
ACAD_MLINESTYLE
350
17
  3
ACAD_LAYOUT
350
1A
  3
ACAD_PLOTSETTINGS
350
19
  3
ACAD_PLOTSTYLENAME
350
E
  0
DICTIONARY
  5
D
102
{ACAD_REACTORS
330
C
102
}
100
AcDbDictionary
280
0
281
1
  0
ACDBDICTIONARYWDFLT
  5
E
102
{ACAD_REACTORS
330
C
102
}
100
AcDbDictionary
281
1
  3
Normal
350
F
100
AcDbDictionaryWithDefault
340
F
  0
DICTIONARY
  5
17
102
{ACAD_REACTORS
330
C
102
}
100
AcDbDictionary
280
0
281
1
  3
Standard
350
18
  0
DICTIONARY
  5
19
102
{ACAD_REACTORS
330
C
102
}
100
AcDbDictionary
281
1
  0
DICTIONARY
  5
1A
102
{ACAD_REACTORS
330
C
102
}
100
AcDbDictionary
281
1
  3
Model
350
2A0
  3
Layout1
350
2A1
  0
ACDBPLACEHOLDER
  5
F
102
{ACAD_REACTORS
330
E
102
}
  0
MLINESTYLE
  5
18
102
{ACAD_REACTORS
330
17
102
}
100
AcDbMlineStyle
  2
STANDARD
 70
0
  3

 62
256
 51
90.0
 52
90.0
 71
2
 49
0.5
 62
256
  6
BYLAYER
 49
-0.5
 62
256
  6
BYLAYER
  0
LAYOUT
  5
2A0
102
{ACAD_REACTORS
330
1A
102
}
100
AcDbPlotSettings
  1

  2
none_device
  4

  6

 40
0.0
 41
0.0
 42
0.0
 43
0.0
 44
210.0
 45
297.0
 46
0.0
 47
0.0
 48
0.0
 49
0.0
140
0.0
141
0.0
142
1.0
143
1.0
 70
1024
 72
1
 73
0
 74
0
  7

 75
0
147
1.0
148
0.0
149
0.0
100
AcDbLayout
  1
Model
 70
0
 71
0
 10
0.0
 20
0.0
 11
210.0
 21
297.0
 12
0.0
 22
0.0
 32
0.0
 14
0.0
 24
0.0
 34
0.0
 15
0.0
 25
0.0
 35
0.0
146
0.0
 13
0.0
 23
0.0
 33
0.0
 16
1.0
 26
0.0
 36
0.0
 17
0.0
 27
1.0
 37
0.0
 76
0
330
210
345
0
346
0
  0
LAYOUT
  5
2A1
102
{ACAD_REACTORS
330
1A
102
}
100
AcDbPlotSettings
  1

  2
none_device
  4

  6

 40
0.0
 41
0.0
 42
0.0
 43
0.0
 44
210.0
 45
297.0
 46
0.0
 47
0.0
 48
0.0
 49
0.0
140
0.0
141
0.0
142
1.0
143
1.0
 70
0
 72
1
 73
0
 74
0
  7

 75
0
147
1.0
148
0.0
149
0.0
100
AcDbLayout
  1
Layout1
 70
0
 71
1
 10
0.0
 20
0.0
 11
210.0
 21
297.0
 12
0.0
 22
0.0
 32
0.0
 14
0.0
 24
0.0
 34
0.0
 15
0.0
 25
0.0
 35
0.0
146
0.0
 13
0.0
 23
0.0
 33
0.0
 16
1.0
 26
0.0
 36
0.0
 17
0.0
 27
1.0
 37
0.0
 76
0
330
211
345
0
346
0
  0
ENDSEC
  0
EOF
