999
DXF file: C:\Users\sesa63760\Dev\_Creo\CAD\MCADID0004530_3D-CAD\drw0001_3.dxf
999
Pro/ENGINEER 2019471 by Parametric Technology Corporation
  0
SECTION
  2
HEADER
  9
$ACADVER
  1
AC1024
  9
$DWGCODEPAGE
  3
ANSI_1252
  9
$EXTMAX
 10
66.007627081
 20
93.3536440145
 30
0.0
  9
$EXTMIN
 10
0.0
 20
0.0
 30
0.0
  9
$LIMMIN
 10
0.0
 20
0.0
  9
$LIMMAX
 10
66.007627081
 20
93.3536440145
  9
$VIEWCTR
 10
33.0038135405
 20
46.6768220073
  9
$VIEWSIZE
 40
93.3536440145
  9
$CLAYER
  8
0
  9
$LTSCALE
 40
6.0852745728
  9
$CELTYPE
  6
BYLAYER
  9
$DIMSCALE
 40
1.0
  9
$DIMASZ
 40
0.7858050843
  9
$DIMEXO
 40
1.0
  9
$DIMDLI
 40
4.204371523
  9
$DIMEXE
 40
1.0
  9
$DIMCEN
 40
0.9957722028
  9
$DIMLFAC
 40
1.0
  9
$DIMBLK
  1
_FILLED
  9
$DIMALT
 70
0
  9
$DIMALTF
 40
0.0393700787
  9
$DIMTXT
 40
1.100127118
  9
$DIMTOL
 70
1
  9
$DIMLIM
 70
0
  9
$DIMTFAC
 40
1.0
  9
$DIMTP
 40
0.01
  9
$DIMTM
 40
0.01
  9
$DIMGAP
 40
0.625
  9
$DIMDSEP
 70
46
  9
$AUNITS
 70
0
  9
$PDMODE
 70
3
  9
$PDSIZE
 40
0.3125
  9
$HANDSEED
  5
29C
  9
$TILEMODE
 70
1
  9
$MEASUREMENT
 70
1
  9
$INSUNITS
 70
4
  0
ENDSEC
  0
SECTION
  2
CLASSES
  0
CLASS
  1
ACDBDICTIONARYWDFLT
  2
AcDbDictionaryWithDefault
  3
AutoCAD 2000
 90
0
 91
1
280
0
281
0
  0
CLASS
  1
ACDBPLACEHOLDER
  2
AcDbPlaceHolder
  3
AutoCAD 2000
 90
0
 91
1
280
0
281
0
  0
CLASS
  1
LAYOUT
  2
AcDbLayout
  3
AutoCAD 2000
 90
0
 91
0
280
0
281
0
  0
ENDSEC
  0
SECTION
  2
TABLES
  0
TABLE
  2
VPORT
  5
8
100
AcDbSymbolTable
 70
2
  0
VPORT
  5
1F4
100
AcDbSymbolTableRecord
100
AcDbViewportTableRecord
  2
*ACTIVE
 70
0
 10
0.0
 20
0.0
 11
1.0
 21
1.0
 12
33.0038135405
 22
46.6768220073
 13
0.0
 23
0.0
 14
1.0
 24
1.0
 15
0.0
 25
0.0
 16
0.0
 26
0.0
 36
1.0
 17
0.0
 27
0.0
 37
0.0
 40
93.3536440145
 41
0.7070707071
 42
50.0
 43
0.0
 44
0.0
 50
0.0
 51
0.0
 71
0
 72
100
 73
1
 74
1
 75
0
 76
0
 77
0
 78
0
  0
ENDTAB
  0
TABLE
  2
LTYPE
  5
5
100
AcDbSymbolTable
 70
6
  0
LTYPE
  5
14
100
AcDbSymbolTableRecord
100
AcDbLinetypeTableRecord
  2
BYBLOCK
 70
0
  3

 72
65
 73
0
 40
0.0
  0
LTYPE
  5
15
100
AcDbSymbolTableRecord
100
AcDbLinetypeTableRecord
  2
BYLAYER
 70
0
  3

 72
65
 73
0
 40
0.0
  0
LTYPE
  5
16
100
AcDbSymbolTableRecord
100
AcDbLinetypeTableRecord
  2
CONTINUOUS
 70
64
  3
Solid line
 72
65
 73
0
 40
0.0
  0
LTYPE
  5
1F5
100
AcDbSymbolTableRecord
100
AcDbLinetypeTableRecord
  2
CENTER
 70
64
  3
____ _ ____ _ ____ _ ____ _ ____ _ ____ _ ____
 72
65
 73
4
 40
0.6
 49
0.375
 74
0
 49
-0.075
 74
0
 49
0.075
 74
0
 49
-0.075
 74
0
  0
LTYPE
  5
1F6
100
AcDbSymbolTableRecord
100
AcDbLinetypeTableRecord
  2
HIDDEN
 70
64
  3
- - - - - - - - - - - - - - - - - - - -
 72
65
 73
2
 40
0.2
 49
0.1
 74
0
 49
-0.1
 74
0
  0
LTYPE
  5
1F7
100
AcDbSymbolTableRecord
100
AcDbLinetypeTableRecord
  2
PHANTOM
 70
64
  3
_____ _ _ _____ _ _ _____ _ _ _____
 72
65
 73
6
 40
0.8
 49
0.45
 74
0
 49
-0.05
 74
0
 49
0.1
 74
0
 49
-0.05
 74
0
 49
0.1
 74
0
 49
-0.05
 74
0
  0
LTYPE
  5
1F8
100
AcDbSymbolTableRecord
100
AcDbLinetypeTableRecord
  2
DOT
 70
64
  3
. . . . . . . . . . . . . . . . . . . .
 72
65
 73
2
 40
0.2
 49
0.1
 74
0
 49
-0.1
 74
0
  0
LTYPE
  5
1F9
100
AcDbSymbolTableRecord
100
AcDbLinetypeTableRecord
  2
DASHED
 70
64
  3
- - - - - - - - - - - - - - - - - - - -
 72
65
 73
2
 40
0.2
 49
0.1
 74
0
 49
-0.1
 74
0
  0
ENDTAB
  0
TABLE
  2
LAYER
  5
2
100
AcDbSymbolTable
 70
36
  0
LAYER
  5
10
100
AcDbSymbolTableRecord
100
AcDbLayerTableRecord
  2
0
 70
0
 62
7
  6
CONTINUOUS
370
-3
390
F
  0
LAYER
  5
1FA
100
AcDbSymbolTableRecord
100
AcDbLayerTableRecord
  2
DEFAULT_1
 70
0
 62
7
  6
CENTER
370
-3
390
F
  0
LAYER
  5
1FB
100
AcDbSymbolTableRecord
100
AcDbLayerTableRecord
  2
DEFAULT_2
 70
0
 62
7
  6
HIDDEN
370
-3
390
F
  0
LAYER
  5
1FC
100
AcDbSymbolTableRecord
100
AcDbLayerTableRecord
  2
DEFAULT_3
 70
0
 62
7
  6
PHANTOM
370
-3
390
F
  0
LAYER
  5
1FD
100
AcDbSymbolTableRecord
100
AcDbLayerTableRecord
  2
00_COMPONENTS
 70
0
 62
7
  6
CONTINUOUS
370
-3
390
F
  0
LAYER
  5
1FE
100
AcDbSymbolTableRecord
100
AcDbLayerTableRecord
  2
01_1_DEFAULT_DATUMS
 70
0
 62
7
  6
CONTINUOUS
370
-3
390
F
  0
LAYER
  5
1FF
100
AcDbSymbolTableRecord
100
AcDbLayerTableRecord
  2
01_PLANES
 70
0
 62
7
  6
CONTINUOUS
370
-3
390
F
  0
LAYER
  5
200
100
AcDbSymbolTableRecord
100
AcDbLayerTableRecord
  2
02_COORD_SYS
 70
0
 62
7
  6
CONTINUOUS
370
-3
390
F
  0
LAYER
  5
201
100
AcDbSymbolTableRecord
100
AcDbLayerTableRecord
  2
03_AXES
 70
0
 62
7
  6
CONTINUOUS
370
-3
390
F
  0
LAYER
  5
202
100
AcDbSymbolTableRecord
100
AcDbLayerTableRecord
  2
04_POINTS
 70
0
 62
7
  6
CONTINUOUS
370
-3
390
F
  0
LAYER
  5
203
100
AcDbSymbolTableRecord
100
AcDbLayerTableRecord
  2
05_CURVES
 70
0
 62
7
  6
CONTINUOUS
370
-3
390
F
  0
LAYER
  5
204
100
AcDbSymbolTableRecord
100
AcDbLayerTableRecord
  2
06_SURFS
 70
0
 62
7
  6
CONTINUOUS
370
-3
390
F
  0
LAYER
  5
205
100
AcDbSymbolTableRecord
100
AcDbLayerTableRecord
  2
07_COSMETICS
 70
0
 62
7
  6
CONTINUOUS
370
-3
390
F
  0
LAYER
  5
206
100
AcDbSymbolTableRecord
100
AcDbLayerTableRecord
  2
10_NOTES
 70
0
 62
7
  6
CONTINUOUS
370
-3
390
F
  0
LAYER
  5
207
100
AcDbSymbolTableRecord
100
AcDbLayerTableRecord
  2
11_NOTES_PUB
 70
0
 62
7
  6
CONTINUOUS
370
-3
390
F
  0
LAYER
  5
208
100
AcDbSymbolTableRecord
100
AcDbLayerTableRecord
  2
13_REF_GTOL
 70
0
 62
7
  6
CONTINUOUS
370
-3
390
F
  0
LAYER
  5
209
100
AcDbSymbolTableRecord
100
AcDbLayerTableRecord
  2
16_MISC
 70
0
 62
7
  6
CONTINUOUS
370
-3
390
F
  0
LAYER
  5
20A
100
AcDbSymbolTableRecord
100
AcDbLayerTableRecord
  2
17_NO_PRINT
 70
0
 62
7
  6
CONTINUOUS
370
-3
390
F
  0
LAYER
  5
20B
100
AcDbSymbolTableRecord
100
AcDbLayerTableRecord
  2
18_DATUM_CAMS_JOINTS
 70
0
 62
7
  6
CONTINUOUS
370
-3
390
F
  0
LAYER
  5
20C
100
AcDbSymbolTableRecord
100
AcDbLayerTableRecord
  2
19_DATUM_FUNCTIONAL
 70
0
 62
7
  6
CONTINUOUS
370
-3
390
F
  0
LAYER
  5
20D
100
AcDbSymbolTableRecord
100
AcDbLayerTableRecord
  2
20_DATUM_KINEMATIC_SCHEME
 70
0
 62
7
  6
CONTINUOUS
370
-3
390
F
  0
ENDTAB
  0
TABLE
  2
STYLE
  5
3
100
AcDbSymbolTable
 70
1
  0
STYLE
  5
11
100
AcDbSymbolTableRecord
100
AcDbTextStyleTableRecord
  2
STANDARD
 70
0
 40
0.0
 41
1.0
 50
0.0
 71
0
 42
0.2
  3
ARIAL.TTF
  4

  0
STYLE
  5
20E
100
AcDbSymbolTableRecord
100
AcDbTextStyleTableRecord
  2
TEXTSTYLE_1
 70
0
 40
0.0
 41
0.8
 50
0.0
 71
0
 42
0.2
  3
gdt
  4

  0
ENDTAB
  0
TABLE
  2
VIEW
  5
6
100
AcDbSymbolTable
 70
0
  0
ENDTAB
  0
TABLE
  2
UCS
  5
7
100
AcDbSymbolTable
 70
0
  0
ENDTAB
  0
TABLE
  2
APPID
  5
9
100
AcDbSymbolTable
 70
1
  0
APPID
  5
20F
100
AcDbSymbolTableRecord
100
AcDbRegAppTableRecord
  2
ACAD
 70
0
  0
ENDTAB
  0
TABLE
  2
BLOCK_RECORD
  5
1
100
AcDbSymbolTable
 70
0
  0
BLOCK_RECORD
  5
210
100
AcDbSymbolTableRecord
100
AcDbBlockTableRecord
  2
*Model_Space
  0
BLOCK_RECORD
  5
211
100
AcDbSymbolTableRecord
100
AcDbBlockTableRecord
  2
*Paper_Space
  0
BLOCK_RECORD
  5
212
100
AcDbSymbolTableRecord
100
AcDbBlockTableRecord
  2
_FILLED
  0
ENDTAB
  0
TABLE
  2
DIMSTYLE
  5
A
100
AcDbSymbolTable
 70
1
100
AcDbDimStyleTable
 71
0
  0
DIMSTYLE
105
213
100
AcDbSymbolTableRecord
100
AcDbDimStyleTableRecord
  2
STANDARD
 70
0
  3

  4

 40
1.0
 41
0.7858050843
 42
1.0
 43
0.38
 44
1.0
 45
0.0
 46
0.0
 47
0.01
 48
0.01
140
1.100127118
141
0.09
142
0.0
143
25.4
144
1.0
145
0.0
146
1.0
147
0.625
 71
1
 72
0
 73
0
 74
0
 75
0
 76
0
 77
1
 78
8
 79
2
170
0
171
1
172
0
173
0
174
0
175
0
176
0
177
0
178
0
270
2
179
2
271
2
272
2
273
2
274
2
275
0
280
0
281
0
282
0
283
1
284
8
285
0
286
0
287
3
288
0
340
11
278
46
341
212
342
212
343
212
344
212
  0
ENDTAB
  0
ENDSEC
  0
SECTION
  2
BLOCKS
  0
BLOCK
  5
20
100
AcDbEntity
  8
0
100
AcDbBlockBegin
  2
*Model_Space
 70
0
 10
0.0
 20
0.0
 30
0.0
  3
*Model_Space
  1

  0
ENDBLK
  5
21
100
AcDbEntity
  8
0
100
AcDbBlockEnd
  0
BLOCK
  5
1C
100
AcDbEntity
  8
0
100
AcDbBlockBegin
  2
*Paper_Space
 70
0
 10
0.0
 20
0.0
 30
0.0
  3
*Paper_Space
  1

  0
ENDBLK
  5
1D
100
AcDbEntity
  8
0
100
AcDbBlockEnd
  0
BLOCK
  5
214
100
AcDbEntity
  8
0
100
AcDbBlockBegin
  2
_FILLED
 70
64
 10
0.0
 20
0.0
  3
_FILLED
  1

  0
SOLID
  5
215
100
AcDbEntity
  8
0
  6
BYBLOCK
 62
0
100
AcDbTrace
 10
0.0
 20
0.0
 11
-1.0
 21
0.25
 12
-1.0
 22
-0.25
 13
-1.0
 23
-0.25
  0
ENDBLK
  5
216
100
AcDbEntity
  8
0
  6
BYBLOCK
 62
0
100
AcDbBlockEnd
  0
ENDSEC
  0
SECTION
  2
ENTITIES
  0
LINE
  5
217
100
AcDbEntity
  8
0
100
AcDbLine
 62
7
  6
BYLAYER
 10
11.7126113105
 20
11.7798934223
 11
9.8228259823
 21
13.1161734428
  0
LINE
  5
218
100
AcDbEntity
  8
0
100
AcDbLine
 62
7
  6
BYLAYER
 10
11.4168902455
 20
7.4792444987
 11
8.3168902455
 21
7.4792444987
  0
LINE
  5
219
100
AcDbEntity
  8
0
100
AcDbLine
 62
7
  6
BYLAYER
 10
8.3168902455
 20
7.631305532
 11
11.4168902455
 21
7.631305532
  0
LINE
  5
21A
100
AcDbEntity
  8
0
100
AcDbLine
 62
7
  6
BYLAYER
 10
20.3729056947
 20
11.36567986
 11
13.1268248729
 21
11.36567986
  0
LINE
  5
21B
100
AcDbEntity
  8
0
100
AcDbLine
 62
7
  6
BYLAYER
 10
10.2580866009
 20
12.8083977079
 11
8.3168902455
 21
12.8083977079
  0
LINE
  5
21C
100
AcDbEntity
  8
0
100
AcDbLine
 62
7
  6
BYLAYER
 10
8.3168902455
 20
13.1161734428
 11
9.8228259823
 21
13.1161734428
  0
LINE
  5
21D
100
AcDbEntity
  8
0
100
AcDbLine
 62
7
  6
BYLAYER
 10
18.7871767084
 20
84.6060249936
 11
18.7983001228
 21
84.6333508735
  0
LINE
  5
21E
100
AcDbEntity
  8
0
100
AcDbLine
 62
7
  6
BYLAYER
 10
8.3168902455
 20
7.4793082948
 11
8.3168902455
 21
13.8169907177
  0
LINE
  5
21F
100
AcDbEntity
  8
0
100
AcDbLine
 62
7
  6
BYLAYER
 10
8.3168902455
 20
13.9069851332
 11
8.3168902455
 21
82.9285169918
  0
LINE
  5
220
100
AcDbEntity
  8
0
100
AcDbLine
 62
7
  6
BYLAYER
 10
8.9026766831
 20
13.6525280023
 11
8.9026766831
 21
62.9809653862
  0
LINE
  5
221
100
AcDbEntity
  8
0
100
AcDbLine
 62
7
  6
BYLAYER
 10
11.4168902455
 20
82.9285169918
 11
11.4168902455
 21
70.4689622089
  0
LINE
  5
222
100
AcDbEntity
  8
0
100
AcDbLine
 62
7
  6
BYLAYER
 10
11.4168902455
 20
9.3946826986
 11
11.4168902455
 21
7.4793084668
  0
LINE
  5
223
100
AcDbEntity
  8
0
100
AcDbLine
 62
7
  6
BYLAYER
 10
11.5533099527
 20
66.3421846806
 11
11.5533099527
 21
66.0344089456
  0
LINE
  5
224
100
AcDbEntity
  8
0
100
AcDbLine
 62
7
  6
BYLAYER
 10
11.7126113105
 20
60.8797523067
 11
11.7126113105
 21
11.7798934223
  0
LINE
  5
225
100
AcDbEntity
  8
0
100
AcDbLine
 62
7
  6
BYLAYER
 10
12.3168902455
 20
64.1024264578
 11
12.3168902455
 21
83.4521146205
  0
LINE
  5
226
100
AcDbEntity
  8
0
100
AcDbLine
 62
7
  6
BYLAYER
 10
13.1268248729
 20
11.36567986
 11
13.1268248729
 21
60.4655387443
  0
LINE
  5
227
100
AcDbEntity
  8
0
100
AcDbLine
 62
7
  6
BYLAYER
 10
14.7983977481
 20
83.4521146205
 11
14.7983977481
 21
62.7093284829
  0
LINE
  5
228
100
AcDbEntity
  8
0
100
AcDbLine
 62
7
  6
BYLAYER
 10
15.6897867136
 20
85.1166774842
 11
15.6897867136
 21
86.3368393811
  0
LINE
  5
229
100
AcDbEntity
  8
0
100
AcDbLine
 62
7
  6
BYLAYER
 10
35.7983977481
 20
30.3026309149
 11
27.7983977481
 21
30.3026309149
  0
LINE
  5
22A
100
AcDbEntity
  8
0
100
AcDbLine
 62
7
  6
BYLAYER
 10
36.0483977481
 20
30.5526309149
 11
27.5483977481
 21
30.5526309149
  0
LINE
  5
22B
100
AcDbEntity
  8
0
100
AcDbLine
 62
7
  6
BYLAYER
 10
18.7983977481
 20
86.3368394874
 11
18.7983977481
 21
84.6412327495
  0
LINE
  5
22C
100
AcDbEntity
  8
0
100
AcDbLine
 62
7
  6
BYLAYER
 10
18.7983977481
 20
27.1467645267
 11
18.7983977481
 21
27.7846020072
  0
LINE
  5
22D
100
AcDbEntity
  8
0
100
AcDbLine
 62
7
  6
BYLAYER
 10
18.7983977481
 20
48.3599679623
 11
18.7983977481
 21
48.9978054428
  0
LINE
  5
22E
100
AcDbEntity
  8
0
100
AcDbLine
 62
7
  6
BYLAYER
 10
18.7983977481
 20
57.5527258428
 11
18.7983977481
 21
58.8969306543
  0
LINE
  5
22F
100
AcDbEntity
  8
0
100
AcDbLine
 62
7
  6
BYLAYER
 10
18.7983977481
 20
62.7093284829
 11
18.7983977481
 21
84.6060249936
  0
LINE
  5
230
100
AcDbEntity
  8
0
100
AcDbLine
 62
7
  6
BYLAYER
 10
20.2983977481
 20
62.7093284829
 11
20.2983977481
 21
62.2727320361
  0
LINE
  5
231
100
AcDbEntity
  8
0
100
AcDbLine
 62
7
  6
BYLAYER
 10
20.3729056947
 20
62.2160323272
 11
20.3729056947
 21
60.4655387443
  0
LINE
  5
232
100
AcDbEntity
  8
0
100
AcDbLine
 62
7
  6
BYLAYER
 10
22.6983977481
 20
13.0619181342
 11
22.6983977481
 21
60.9613314918
  0
LINE
  5
233
100
AcDbEntity
  8
0
100
AcDbLine
 62
7
  6
BYLAYER
 10
27.5484670853
 20
35.0526309149
 11
36.0483284109
 21
35.0526309149
  0
LINE
  5
234
100
AcDbEntity
  8
0
100
AcDbLine
 62
7
  6
BYLAYER
 10
27.5483977481
 20
30.5526309149
 11
27.5483977481
 21
35.0526309149
  0
LINE
  5
235
100
AcDbEntity
  8
0
100
AcDbLine
 62
7
  6
BYLAYER
 10
8.3629141057
 20
13.9069851332
 11
8.3168902455
 21
13.8170284115
  0
LINE
  5
236
100
AcDbEntity
  8
0
100
AcDbLine
 62
7
  6
BYLAYER
 10
29.7313977481
 20
55.0526309149
 11
29.5156040236
 21
54.8368371904
  0
LINE
  5
237
100
AcDbEntity
  8
0
100
AcDbLine
 62
7
  6
BYLAYER
 10
29.2983977481
 20
35.0526309149
 11
29.2983977481
 21
43.3207923617
  0
LINE
  5
238
100
AcDbEntity
  8
0
100
AcDbLine
 62
7
  6
BYLAYER
 10
34.2983977481
 20
35.0526309149
 11
34.2983977481
 21
42.902812421
  0
LINE
  5
239
100
AcDbEntity
  8
0
100
AcDbLine
 62
7
  6
BYLAYER
 10
43.9167656334
 20
46.3195418802
 11
25.6038035666
 21
46.3195418802
  0
LINE
  5
23A
100
AcDbEntity
  8
0
100
AcDbLine
 62
7
  6
BYLAYER
 10
9.8228259823
 20
62.2160323272
 11
11.7126113105
 21
60.8797523067
  0
LINE
  5
23B
100
AcDbEntity
  8
0
100
AcDbLine
 62
7
  6
BYLAYER
 10
36.0483977481
 20
30.5526309149
 11
36.0483977481
 21
35.0526309149
  0
LINE
  5
23C
100
AcDbEntity
  8
0
100
AcDbLine
 62
7
  6
BYLAYER
 10
38.4887075464
 20
56.3847272503
 11
38.4887075464
 21
58.1926309149
  0
LINE
  5
23D
100
AcDbEntity
  8
0
100
AcDbLine
 62
7
  6
BYLAYER
 10
38.4887075464
 20
63.1926309149
 11
38.4887075464
 21
65.0005345214
  0
LINE
  5
23E
100
AcDbEntity
  8
0
100
AcDbLine
 62
7
  6
BYLAYER
 10
33.8653977481
 20
55.0526309149
 11
34.0800407523
 21
54.8379879107
  0
LINE
  5
23F
100
AcDbEntity
  8
0
100
AcDbLine
 62
7
  6
BYLAYER
 10
43.2983977481
 20
63.1926309149
 11
43.2983977481
 21
58.1926309149
  0
LINE
  5
240
100
AcDbEntity
  8
0
100
AcDbLine
 62
7
  6
BYLAYER
 10
30.3206507817
 20
54.6196309149
 11
33.2796281507
 21
54.6196309149
  0
LINE
  5
241
100
AcDbEntity
  8
0
100
AcDbLine
 62
7
  6
BYLAYER
 10
29.7314016636
 20
55.0526309149
 11
33.8653938327
 21
55.0526309149
  0
LINE
  5
242
100
AcDbEntity
  8
0
100
AcDbLine
 62
7
  6
BYLAYER
 10
18.7983977481
 20
58.1926309149
 11
20.113777787
 21
58.1926309149
  0
LINE
  5
243
100
AcDbEntity
  8
0
100
AcDbLine
 62
7
  6
BYLAYER
 10
22.6983977481
 20
58.1926309149
 11
25.9612323402
 21
58.1926309149
  0
LINE
  5
244
100
AcDbEntity
  8
0
100
AcDbLine
 62
7
  6
BYLAYER
 10
37.6355631561
 20
58.1926309149
 11
43.2983977481
 21
58.1926309149
  0
LINE
  5
245
100
AcDbEntity
  8
0
100
AcDbLine
 62
7
  6
BYLAYER
 10
13.1268248729
 20
60.4655387443
 11
20.3729056947
 21
60.4655387443
  0
LINE
  5
246
100
AcDbEntity
  8
0
100
AcDbLine
 62
7
  6
BYLAYER
 10
9.8228259823
 20
62.2160323272
 11
20.3729056947
 21
62.2160323272
  0
LINE
  5
247
100
AcDbEntity
  8
0
100
AcDbLine
 62
7
  6
BYLAYER
 10
20.2983977481
 20
62.7093284829
 11
13.9966733539
 21
62.7093284829
  0
LINE
  5
248
100
AcDbEntity
  8
0
100
AcDbLine
 62
7
  6
BYLAYER
 10
43.2983977481
 20
63.1926309149
 11
37.6355631561
 21
63.1926309149
  0
LINE
  5
249
100
AcDbEntity
  8
0
100
AcDbLine
 62
7
  6
BYLAYER
 10
18.7983977481
 20
63.1926309149
 11
25.9612323402
 21
63.1926309149
  0
LINE
  5
24A
100
AcDbEntity
  8
0
100
AcDbLine
 62
7
  6
BYLAYER
 10
11.5533099527
 20
66.0344089456
 11
8.3168902455
 21
66.0344089456
  0
LINE
  5
24B
100
AcDbEntity
  8
0
100
AcDbLine
 62
7
  6
BYLAYER
 10
55.3534397407
 20
57.87958896
 11
55.3534397407
 21
63.5056728698
  0
LINE
  5
24C
100
AcDbEntity
  8
0
100
AcDbLine
 62
7
  6
BYLAYER
 10
56.217400985
 20
50.0820586594
 11
56.217400985
 21
71.3032031704
  0
LINE
  5
24D
100
AcDbEntity
  8
0
100
AcDbLine
 62
7
  6
BYLAYER
 10
8.3168902455
 20
66.3421846806
 11
11.5533099527
 21
66.3421846806
  0
LINE
  5
24E
100
AcDbEntity
  8
0
100
AcDbLine
 62
7
  6
BYLAYER
 10
59.5189599741
 20
65.8541154518
 11
59.5189599741
 21
55.531146378
  0
LINE
  5
24F
100
AcDbEntity
  8
0
100
AcDbLine
 62
7
  6
BYLAYER
 10
8.3168902455
 20
74.5382220741
 11
11.4168902455
 21
74.5382220741
  0
LINE
  5
250
100
AcDbEntity
  8
0
100
AcDbLine
 62
7
  6
BYLAYER
 10
43.9167656334
 20
75.0657199496
 11
25.6038035666
 21
75.0657199496
  0
LINE
  5
251
100
AcDbEntity
  8
0
100
AcDbLine
 62
7
  6
BYLAYER
 10
8.3168902455
 20
80.2659981983
 11
11.4168902455
 21
80.2659981983
  0
LINE
  5
252
100
AcDbEntity
  8
0
100
AcDbLine
 62
7
  6
BYLAYER
 10
12.3168902455
 20
83.4521146205
 11
14.7983977481
 21
83.4521146205
  0
LINE
  5
253
100
AcDbEntity
  8
0
100
AcDbLine
 62
7
  6
BYLAYER
 10
18.7726559877
 20
84.6333508735
 11
18.7983413288
 21
84.6333508735
  0
LINE
  5
254
100
AcDbEntity
  8
0
100
AcDbLine
 62
7
  6
BYLAYER
 10
11.8765475687
 20
85.1166774842
 11
18.6902199095
 21
85.1166774842
  0
LINE
  5
255
100
AcDbEntity
  8
0
100
AcDbLine
 62
7
  6
BYLAYER
 10
18.7983977481
 20
86.3369023473
 11
15.6897867136
 21
86.3369023473
  0
ARC
  5
256
100
AcDbEntity
  8
0
100
AcDbCircle
 62
7
  6
BYLAYER
 10
28.5597896946
 20
5.5407128937
 40
37.8002394633
100
AcDbArc
 50
81.2679309972
 51
82.1771867349
  0
ARC
  5
257
100
AcDbEntity
  8
0
100
AcDbCircle
 62
7
  6
BYLAYER
 10
34.7602846
 20
42.8424905845
 40
35.64295168
100
AcDbArc
 50
52.9866084866
 51
116.6043710614
  0
ARC
  5
258
100
AcDbEntity
  8
0
100
AcDbCircle
 62
7
  6
BYLAYER
 10
34.7602846
 20
78.5427712453
 40
35.64295168
100
AcDbArc
 50
269.2574995416
 51
307.0133915134
  0
ARC
  5
259
100
AcDbEntity
  8
0
100
AcDbCircle
 62
7
  6
BYLAYER
 10
34.7602846
 20
78.5427712453
 40
35.64295168
100
AcDbArc
 50
250.207017024
 51
261.1853272769
  0
ARC
  5
25A
100
AcDbEntity
  8
0
100
AcDbCircle
 62
7
  6
BYLAYER
 10
33.3035335744
 20
58.370942167
 40
14.3011220212
100
AcDbArc
 50
221.9047356191
 51
237.4251856965
  0
ARC
  5
25B
100
AcDbEntity
  8
0
100
AcDbCircle
 62
7
  6
BYLAYER
 10
-2.2216672126
 20
67.0694517463
 40
13.7941620301
100
AcDbArc
 50
356.9778039278
 51
359.9611175272
  0
ARC
  5
25C
100
AcDbEntity
  8
0
100
AcDbCircle
 62
7
  6
BYLAYER
 10
-1.6453118735
 20
12.0509505329
 40
13.2178314104
100
AcDbArc
 50
358.8110776323
 51
359.246372225
  0
ARC
  5
25D
100
AcDbEntity
  8
0
100
AcDbCircle
 62
7
  6
BYLAYER
 10
34.7614207775
 20
55.2004032035
 40
12.2568630302
100
AcDbArc
 50
265.0540506564
 51
269.9946888384
  0
ARC
  5
25E
100
AcDbEntity
  8
0
100
AcDbCircle
 62
7
  6
BYLAYER
 10
31.7466090607
 20
31.0790126382
 40
12.0700604373
100
AcDbArc
 50
80.6634167399
 51
85.1307694425
  0
ARC
  5
25F
100
AcDbEntity
  8
0
100
AcDbCircle
 62
7
  6
BYLAYER
 10
25.4025096231
 20
16.1911666703
 40
6.7149068109
100
AcDbArc
 50
177.5735882037
 51
178.4002910471
  0
ARC
  5
260
100
AcDbEntity
  8
0
100
AcDbCircle
 62
7
  6
BYLAYER
 10
31.7983977481
 20
60.6926309149
 40
6.35
100
AcDbArc
 50
23.1849701053
 51
156.8150298947
  0
ARC
  5
261
100
AcDbEntity
  8
0
100
AcDbCircle
 62
7
  6
BYLAYER
 10
31.7983977481
 20
60.6926309149
 40
6.35
100
AcDbArc
 50
203.1849701053
 51
336.8150298947
  0
ARC
  5
262
100
AcDbEntity
  8
0
100
AcDbCircle
 62
7
  6
BYLAYER
 10
53.3714325699
 20
65.8541154518
 40
6.1475274042
100
AcDbArc
 50
0.0
 51
62.4226790486
  0
ARC
  5
263
100
AcDbEntity
  8
0
100
AcDbCircle
 62
7
  6
BYLAYER
 10
53.3714325699
 20
55.531146378
 40
6.1475274042
100
AcDbArc
 50
297.5773209514
 51
360.0
  0
ARC
  5
264
100
AcDbEntity
  8
0
100
AcDbCircle
 62
7
  6
BYLAYER
 10
20.2983621247
 20
59.2925804807
 40
3.3658072861
100
AcDbArc
 50
88.788132369
 51
89.9993935855
  0
ARC
  5
265
100
AcDbEntity
  8
0
100
AcDbCircle
 62
7
  6
BYLAYER
 10
18.4669060905
 20
84.6412303037
 40
0.3314916577
100
AcDbArc
 50
358.6430824243
 51
359.9993527945
  0
ARC
  5
266
100
AcDbEntity
  8
0
100
AcDbCircle
 62
7
  6
BYLAYER
 10
35.7983977481
 20
30.5526309149
 40
0.25
100
AcDbArc
 50
270.0
 51
360.0
  0
ARC
  5
267
100
AcDbEntity
  8
0
100
AcDbCircle
 62
7
  6
BYLAYER
 10
27.7983977481
 20
30.5526309149
 40
0.25
100
AcDbArc
 50
180.0
 51
270.0
  0
SPLINE
  5
268
100
AcDbEntity
  8
0
100
AcDbSpline
 62
7
  6
BYLAYER
 70
0
 71
3
 72
9
 73
5
 74
0
 42
0.0000001
 43
0.0000001
 44
0.0000000001
 40
0.0
 40
0.0
 40
0.0
 40
0.0
 40
0.677709621
 40
1.0
 40
1.0
 40
1.0
 40
1.0
 10
32.7711380653
 20
43.1055125146
 30
0.0
 10
31.9897699817
 20
43.1927814561
 30
0.0
 10
30.8321444196
 20
43.2841775732
 30
0.0
 10
29.6722349618
 20
43.3166390135
 30
0.0
 10
29.2983977481
 20
43.3207923617
 30
0.0
  0
SPLINE
  5
269
100
AcDbEntity
  8
0
100
AcDbSpline
 62
7
  6
BYLAYER
 70
0
 71
3
 72
18
 73
14
 74
0
 42
0.0000001
 43
0.0000001
 44
0.0000000001
 40
0.0
 40
0.0
 40
0.0
 40
0.0
 40
0.2484029847
 40
0.3731041169
 40
0.4355610583
 40
0.4980893473
 40
0.5606776697
 40
0.6233148944
 40
0.6860098234
 40
0.7487556315
 40
0.811533023
 40
0.8743621616
 40
1.0
 40
1.0
 40
1.0
 40
1.0
 10
49.4541490591
 20
68.5761170607
 30
0.0
 10
48.5876670781
 20
68.1585587123
 30
0.0
 10
47.2797476384
 20
67.5442283898
 30
0.0
 10
45.7309650338
 20
66.8761001544
 30
0.0
 10
44.8345289958
 20
66.5138628147
 30
0.0
 10
44.1563835975
 20
66.2536619038
 30
0.0
 10
43.4721641694
 20
66.0077398549
 30
0.0
 10
42.7811560253
 20
65.7794433873
 30
0.0
 10
42.082952085
 20
65.571925025
 30
0.0
 10
41.3773033022
 20
65.3890181275
 30
0.0
 10
40.6640613007
 20
65.2353695166
 30
0.0
 10
39.7041146946
 20
65.0761329637
 30
0.0
 10
38.975028063
 20
65.0133353555
 30
0.0
 10
38.4887075464
 20
65.0007147745
 30
0.0
  0
SPLINE
  5
26A
100
AcDbEntity
  8
0
100
AcDbSpline
 62
7
  6
BYLAYER
 70
0
 71
3
 72
14
 73
10
 74
0
 42
0.0000001
 43
0.0000001
 44
0.0000000001
 40
0.0
 40
0.0
 40
0.0
 40
0.0
 40
0.2502634496
 40
0.3751817573
 40
0.4999996572
 40
0.6247828008
 40
0.7496234686
 40
0.8746448163
 40
1.0
 40
1.0
 40
1.0
 40
1.0
 10
49.4541359504
 20
52.8091508982
 30
0.0
 10
50.0308327598
 20
53.1219099645
 30
0.0
 10
50.8782455314
 20
53.6241235203
 30
0.0
 10
51.9575120163
 20
54.3685755651
 30
0.0
 10
52.7363082084
 20
54.9672139392
 30
0.0
 10
53.4784648727
 20
55.610595981
 30
0.0
 10
54.1750977179
 20
56.3042223262
 30
0.0
 10
54.8129630946
 20
57.0545728185
 30
0.0
 10
55.1854448205
 20
57.5971665282
 30
0.0
 10
55.3534397407
 20
57.8795876859
 30
0.0
  0
SPLINE
  5
26B
100
AcDbEntity
  8
0
100
AcDbSpline
 62
7
  6
BYLAYER
 70
0
 71
3
 72
18
 73
14
 74
0
 42
0.0000001
 43
0.0000001
 44
0.0000000001
 40
0.0
 40
0.0
 40
0.0
 40
0.0
 40
0.1256376758
 40
0.1884665493
 40
0.2512439391
 40
0.3139898053
 40
0.376684652
 40
0.4393219257
 40
0.5019103541
 40
0.5644386667
 40
0.6268956321
 40
0.7515968626
 40
1.0
 40
1.0
 40
1.0
 40
1.0
 10
38.4887075464
 20
56.3845470554
 30
0.0
 10
38.9750268285
 20
56.3719265064
 30
0.0
 10
39.7041112027
 20
56.3091313846
 30
0.0
 10
40.6640543399
 20
56.1498913319
 30
0.0
 10
41.3772947843
 20
55.9962439836
 30
0.0
 10
42.0829434137
 20
55.8133405802
 30
0.0
 10
42.7811475916
 20
55.6058257206
 30
0.0
 10
43.4721542763
 20
55.377526671
 30
0.0
 10
44.156372321
 20
55.1316015099
 30
0.0
 10
44.8345181712
 20
54.8714026795
 30
0.0
 10
45.7309537675
 20
54.5091659071
 30
0.0
 10
47.2797353882
 20
53.8410380247
 30
0.0
 10
48.587654379
 20
53.2267087012
 30
0.0
 10
49.4541359504
 20
52.8091508982
 30
0.0
  0
SPLINE
  5
26C
100
AcDbEntity
  8
0
100
AcDbSpline
 62
7
  6
BYLAYER
 70
0
 71
3
 72
15
 73
11
 74
0
 42
0.0000001
 43
0.0000001
 44
0.0000000001
 40
0.0
 40
0.0
 40
0.0
 40
0.0
 40
0.1249808981
 40
0.2500015967
 40
0.375003231
 40
0.5
 40
0.624996769
 40
0.7499984033
 40
0.8750191019
 40
1.0
 40
1.0
 40
1.0
 40
1.0
 10
55.3534397407
 20
63.5056728698
 30
0.0
 10
55.4331254145
 20
63.2802540347
 30
0.0
 10
55.5753552664
 20
62.8230276946
 30
0.0
 10
55.7320672346
 20
62.1221425949
 30
0.0
 10
55.828027975
 20
61.4102357744
 30
0.0
 10
55.8602716358
 20
60.6926309149
 30
0.0
 10
55.828027975
 20
59.9750260554
 30
0.0
 10
55.7320672346
 20
59.2631192349
 30
0.0
 10
55.5753552664
 20
58.5622341352
 30
0.0
 10
55.4331254145
 20
58.1050077952
 30
0.0
 10
55.3534397407
 20
57.87958896
 30
0.0
  0
SPLINE
  5
26D
100
AcDbEntity
  8
0
100
AcDbSpline
 62
7
  6
BYLAYER
 70
0
 71
3
 72
14
 73
10
 74
0
 42
0.0000001
 43
0.0000001
 44
0.0000000001
 40
0.0
 40
0.0
 40
0.0
 40
0.0
 40
0.2502638652
 40
0.3751822033
 40
0.5000001738
 40
0.6247832629
 40
0.7496237062
 40
0.8746448984
 40
1.0
 40
1.0
 40
1.0
 40
1.0
 10
49.4541490591
 20
68.5761170607
 30
0.0
 10
50.0308486176
 20
68.2633622188
 30
0.0
 10
50.8782492179
 20
67.7611276636
 30
0.0
 10
51.9575200988
 20
67.0166826566
 30
0.0
 10
52.7363137855
 20
66.4180422429
 30
0.0
 10
53.4784694225
 20
65.7746615587
 30
0.0
 10
54.1751004858
 20
65.0810364441
 30
0.0
 10
54.8129641395
 20
64.3306874539
 30
0.0
 10
55.1854451064
 20
63.7880948211
 30
0.0
 10
55.3534397407
 20
63.505674144
 30
0.0
  0
SPLINE
  5
26E
100
AcDbEntity
  8
0
100
AcDbSpline
 62
7
  6
BYLAYER
 70
0
 71
3
 72
13
 73
9
 74
0
 42
0.0000001
 43
0.0000001
 44
0.0000000001
 40
0.0
 40
0.0
 40
0.0
 40
0.0
 40
0.2586191757
 40
0.503087589
 40
0.62155692
 40
0.7392631122
 40
0.8602151961
 40
1.0
 40
1.0
 40
1.0
 40
1.0
 10
43.9167656334
 20
75.0657199496
 30
0.0
 10
43.2241512389
 20
75.5672489652
 30
0.0
 10
41.8270060511
 20
76.4772564165
 30
0.0
 10
39.9700696359
 20
77.3750173966
 30
0.0
 10
38.4674069106
 20
77.8971722589
 30
0.0
 10
37.322234273
 20
78.1914033639
 30
0.0
 10
36.0854562248
 20
78.3924412525
 30
0.0
 10
35.222485733
 20
78.4417216039
 30
0.0
 10
34.7602846
 20
78.4417216039
 30
0.0
  0
SPLINE
  5
26F
100
AcDbEntity
  8
0
100
AcDbSpline
 62
7
  6
BYLAYER
 70
0
 71
3
 72
13
 73
9
 74
0
 42
0.0000001
 43
0.0000001
 44
0.0000000001
 40
0.0
 40
0.0
 40
0.0
 40
0.0
 40
0.2586192427
 40
0.5030876252
 40
0.6215569345
 40
0.7392631036
 40
0.8602151409
 40
1.0
 40
1.0
 40
1.0
 40
1.0
 10
25.6038035666
 20
75.0657199496
 30
0.0
 10
26.2964181404
 20
75.5672490951
 30
0.0
 10
27.693563441
 20
76.4772565994
 30
0.0
 10
29.5504999279
 20
77.3750175351
 30
0.0
 10
31.053162422
 20
77.8971722999
 30
0.0
 10
32.1983347712
 20
78.1914033085
 30
0.0
 10
33.4351127629
 20
78.3924412305
 30
0.0
 10
34.2980832843
 20
78.4417216039
 30
0.0
 10
34.7602846
 20
78.4417216039
 30
0.0
  0
SPLINE
  5
270
100
AcDbEntity
  8
0
100
AcDbSpline
 62
7
  6
BYLAYER
 70
0
 71
3
 72
15
 73
11
 74
0
 42
0.0000001
 43
0.0000001
 44
0.0000000001
 40
0.0
 40
0.0
 40
0.0
 40
0.0
 40
0.1211516086
 40
0.2419193847
 40
0.3632478155
 40
0.4860303425
 40
0.6108876931
 40
0.7381605252
 40
0.8679508937
 40
1.0
 40
1.0
 40
1.0
 40
1.0
 10
25.6038035666
 20
75.0657199496
 30
0.0
 10
25.1693899984
 20
74.7880726613
 30
0.0
 10
24.3309934395
 20
74.1865313964
 30
0.0
 10
23.17818537
 20
73.1523719872
 30
0.0
 10
22.1383574986
 20
71.9952526887
 30
0.0
 10
21.214442327
 20
70.7223312881
 30
0.0
 10
20.4103060199
 20
69.3413711295
 30
0.0
 10
19.7310838623
 20
67.8621082562
 30
0.0
 10
19.1832831187
 20
66.2970954054
 30
0.0
 10
18.9114733491
 20
65.2147066617
 30
0.0
 10
18.7983977481
 20
64.6642657033
 30
0.0
  0
SPLINE
  5
271
100
AcDbEntity
  8
0
100
AcDbSpline
 62
7
  6
BYLAYER
 70
0
 71
3
 72
11
 73
7
 74
0
 42
0.0000001
 43
0.0000001
 44
0.0000000001
 40
0.0
 40
0.0
 40
0.0
 40
0.0
 40
0.2402398268
 40
0.4830745066
 40
0.7354608736
 40
1.0
 40
1.0
 40
1.0
 40
1.0
 10
32.7708986806
 20
43.1055372007
 30
0.0
 10
32.144733463
 20
43.2074333915
 30
0.0
 10
30.8995172907
 20
43.5073503179
 30
0.0
 10
29.0849359485
 20
44.2127065403
 30
0.0
 10
27.3085356147
 20
45.1534764971
 30
0.0
 10
26.1696115863
 20
45.9098346298
 30
0.0
 10
25.6038035666
 20
46.3195418802
 30
0.0
  0
SPLINE
  5
272
100
AcDbEntity
  8
0
100
AcDbSpline
 62
7
  6
BYLAYER
 70
0
 71
3
 72
23
 73
19
 74
0
 42
0.0000001
 43
0.0000001
 44
0.0000000001
 40
0.0
 40
0.0
 40
0.0
 40
0.0
 40
0.062577729
 40
0.1249096879
 40
0.1870411111
 40
0.2491341749
 40
0.3113335552
 40
0.373750723
 40
0.4364482642
 40
0.4993925931
 40
0.5624742896
 40
0.6255525643
 40
0.6884907314
 40
0.7511795706
 40
0.8135866811
 40
0.8757703584
 40
0.93786974
 40
1.0
 40
1.0
 40
1.0
 40
1.0
 10
25.4684652597
 20
58.1926309149
 30
0.0
 10
25.5749755181
 20
57.8706071093
 30
0.0
 10
25.8305403089
 20
57.2410598942
 30
0.0
 10
26.3381434991
 20
56.3598675869
 30
0.0
 10
26.9635740298
 20
55.5608834116
 30
0.0
 10
27.6967287992
 20
54.8604569571
 30
0.0
 10
28.5243048698
 20
54.2719333227
 30
0.0
 10
29.4301340947
 20
53.8059289881
 30
0.0
 10
30.3957222813
 20
53.4694144517
 30
0.0
 10
31.4014652197
 20
53.26647931
 30
0.0
 10
32.4272668757
 20
53.1992982186
 30
0.0
 10
33.4529044959
 20
53.2685121013
 30
0.0
 10
34.4581253449
 20
53.4735075885
 30
0.0
 10
35.4229152368
 20
53.8119256675
 30
0.0
 10
36.3274939099
 20
54.2799383058
 30
0.0
 10
37.1537135325
 20
54.8702315333
 30
0.0
 10
37.8852948531
 20
55.5719929638
 30
0.0
 10
38.3009593365
 20
56.1051651067
 30
0.0
 10
38.4887075464
 20
56.3847272503
 30
0.0
  0
SPLINE
  5
273
100
AcDbEntity
  8
0
100
AcDbSpline
 62
7
  6
BYLAYER
 70
0
 71
3
 72
13
 73
9
 74
0
 42
0.0000001
 43
0.0000001
 44
0.0000000001
 40
0.0
 40
0.0
 40
0.0
 40
0.0
 40
0.1236733984
 40
0.2468932328
 40
0.3700826709
 40
0.4937134662
 40
0.7438687687
 40
1.0
 40
1.0
 40
1.0
 40
1.0
 10
43.9167656334
 20
46.3195418802
 30
0.0
 10
44.2171016485
 20
46.511496014
 30
0.0
 10
44.8026580981
 20
46.9171701494
 30
0.0
 10
45.6322607148
 20
47.5890557067
 30
0.0
 10
46.4093142498
 20
48.3210277124
 30
0.0
 10
47.3773511999
 20
49.3782280524
 30
0.0
 10
48.4537219149
 20
50.8482175613
 30
0.0
 10
49.1471746758
 20
52.1377917014
 30
0.0
 10
49.4540791546
 20
52.8091631461
 30
0.0
  0
SPLINE
  5
274
100
AcDbEntity
  8
0
100
AcDbSpline
 62
7
  6
BYLAYER
 70
0
 71
3
 72
13
 73
9
 74
0
 42
0.0000001
 43
0.0000001
 44
0.0000000001
 40
0.0
 40
0.0
 40
0.0
 40
0.0
 40
0.256132111
 40
0.5062861863
 40
0.6299169937
 40
0.7531059403
 40
0.8763258586
 40
1.0
 40
1.0
 40
1.0
 40
1.0
 10
49.4540846297
 20
68.5761012057
 30
0.0
 10
49.1471690088
 20
69.2474709506
 30
0.0
 10
48.4536966527
 20
70.5370381742
 30
0.0
 10
47.3772855086
 20
72.0069892762
 30
0.0
 10
46.4093476718
 20
73.0642721557
 30
0.0
 10
45.6323374813
 20
73.796293928
 30
0.0
 10
44.8026867088
 20
74.4681266434
 30
0.0
 10
44.2171036769
 20
74.8737645194
 30
0.0
 10
43.9167656334
 20
75.0657199496
 30
0.0
  0
SPLINE
  5
275
100
AcDbEntity
  8
0
100
AcDbSpline
 62
7
  6
BYLAYER
 70
0
 71
3
 72
23
 73
19
 74
0
 42
0.0000001
 43
0.0000001
 44
0.0000000001
 40
0.0
 40
0.0
 40
0.0
 40
0.0
 40
0.0621298175
 40
0.1242290906
 40
0.186413319
 40
0.2488210267
 40
0.3115102059
 40
0.3744481195
 40
0.4375255769
 40
0.5006060974
 40
0.5635491192
 40
0.6262457324
 40
0.688662939
 40
0.750863169
 40
0.8129574951
 40
0.875090199
 40
0.9374225874
 40
1.0
 40
1.0
 40
1.0
 40
1.0
 10
38.4887075464
 20
65.0005345214
 30
0.0
 10
38.3009605985
 20
65.2800947866
 30
0.0
 10
37.8853015976
 20
65.8132676881
 30
0.0
 10
37.1537189159
 20
66.5150288014
 30
0.0
 10
36.3274932707
 20
67.1053239097
 30
0.0
 10
35.4229069471
 20
67.5733399894
 30
0.0
 10
34.4581131862
 20
67.9117601819
 30
0.0
 10
33.4528945156
 20
68.1167487911
 30
0.0
 10
32.4272691376
 20
68.1859625423
 30
0.0
 10
31.4014844983
 20
68.1187870886
 30
0.0
 10
30.3957597551
 20
67.9158525157
 30
0.0
 10
29.4301814505
 20
67.5793485387
 30
0.0
 10
28.5243372005
 20
67.1133731378
 30
0.0
 10
27.6967458454
 20
66.5248474423
 30
0.0
 10
26.9635852105
 20
65.8243995161
 30
0.0
 10
26.3381490785
 20
65.0253993668
 30
0.0
 10
25.830539205
 20
64.1442017409
 30
0.0
 10
25.574975021
 20
63.5146532218
 30
0.0
 10
25.4684652583
 20
63.1926309149
 30
0.0
  0
SPLINE
  5
276
100
AcDbEntity
  8
0
100
AcDbSpline
 62
7
  6
BYLAYER
 70
0
 71
3
 72
13
 73
9
 74
0
 42
0.0000001
 43
0.0000001
 44
0.0000000001
 40
0.0
 40
0.0
 40
0.0
 40
0.0
 40
0.2586192427
 40
0.5030876252
 40
0.6215569345
 40
0.7392631036
 40
0.8602151409
 40
1.0
 40
1.0
 40
1.0
 40
1.0
 10
43.9167656334
 20
46.3195418802
 30
0.0
 10
43.2241510596
 20
45.8180127348
 30
0.0
 10
41.8270057589
 20
44.9080052304
 30
0.0
 10
39.9700692721
 20
44.0102442947
 30
0.0
 10
38.4674067779
 20
43.4880895299
 30
0.0
 10
37.3222344287
 20
43.1938585213
 30
0.0
 10
36.0854564371
 20
42.9928205993
 30
0.0
 10
35.2224859156
 20
42.9435402259
 30
0.0
 10
34.7602846
 20
42.9435402259
 30
0.0
  0
SPLINE
  5
277
100
AcDbEntity
  8
0
100
AcDbSpline
 62
7
  6
BYLAYER
 70
0
 71
3
 72
11
 73
7
 74
0
 42
0.0000001
 43
0.0000001
 44
0.0000000001
 40
0.0
 40
0.0
 40
0.0
 40
0.0
 40
0.2312964577
 40
0.4758005186
 40
0.7324381615
 40
1.0
 40
1.0
 40
1.0
 40
1.0
 10
11.5724916412
 20
67.0600906538
 30
0.0
 10
11.5724916412
 20
67.3231916716
 30
0.0
 10
11.556041029
 20
67.8644321808
 30
0.0
 10
11.5004281568
 20
68.6957551134
 30
0.0
 10
11.4387117578
 20
69.5679384771
 30
0.0
 10
11.4168902455
 20
70.1641903393
 30
0.0
 10
11.4168902455
 20
70.4685434312
 30
0.0
  0
SPLINE
  5
278
100
AcDbEntity
  8
0
100
AcDbSpline
 62
7
  6
BYLAYER
 70
0
 71
3
 72
11
 73
7
 74
0
 42
0.0000001
 43
0.0000001
 44
0.0000000001
 40
0.0
 40
0.0
 40
0.0
 40
0.0
 40
0.327908526
 40
0.6075909529
 40
0.8322062019
 40
1.0
 40
1.0
 40
1.0
 40
1.0
 10
8.9029806824
 20
13.65239345
 30
0.0
 10
8.8508687419
 20
13.6758895477
 30
0.0
 10
8.7552527533
 20
13.7215349025
 30
0.0
 10
8.6263773321
 20
13.7882015862
 30
0.0
 10
8.5229777194
 20
13.8432368212
 30
0.0
 10
8.4619761852
 20
13.8743405339
 30
0.0
 10
8.4351727387
 20
13.8860544485
 30
0.0
  0
SPLINE
  5
279
100
AcDbEntity
  8
0
100
AcDbSpline
 62
7
  6
BYLAYER
 70
0
 71
3
 72
9
 73
5
 74
0
 42
0.0000001
 43
0.0000001
 44
0.0000000001
 40
0.0
 40
0.0
 40
0.0
 40
0.0
 40
0.5849273623
 40
1.0
 40
1.0
 40
1.0
 40
1.0
 10
8.4351727387
 20
13.8860544485
 30
0.0
 10
8.4216353744
 20
13.891970685
 30
0.0
 10
8.3982257649
 20
13.901356005
 30
0.0
 10
8.3731685199
 20
13.9069386906
 30
0.0
 10
8.362684905
 20
13.9069501218
 30
0.0
  0
SPLINE
  5
27A
100
AcDbEntity
  8
0
100
AcDbSpline
 62
7
  6
BYLAYER
 70
0
 71
3
 72
9
 73
5
 74
0
 42
0.0000001
 43
0.0000001
 44
0.0000000001
 40
0.0
 40
0.0
 40
0.0
 40
0.0
 40
0.5176803696
 40
1.0
 40
1.0
 40
1.0
 40
1.0
 10
9.8228259823
 20
13.1161734428
 30
0.0
 10
9.6725958815
 20
13.2224021659
 30
0.0
 10
9.3742636523
 20
13.416412016
 30
0.0
 10
9.0589520738
 20
13.582066956
 30
0.0
 10
8.9026766831
 20
13.6525280023
 30
0.0
  0
SPLINE
  5
27B
100
AcDbEntity
  8
0
100
AcDbSpline
 62
7
  6
BYLAYER
 70
0
 71
3
 72
14
 73
10
 74
0
 42
0.0000001
 43
0.0000001
 44
0.0000000001
 40
0.0
 40
0.0
 40
0.0
 40
0.0
 40
0.2870291483
 40
0.4239172407
 40
0.5536755413
 40
0.6753226558
 40
0.7890221856
 40
0.8963682838
 40
1.0
 40
1.0
 40
1.0
 40
1.0
 10
20.3695472768
 20
62.6576349173
 30
0.0
 10
20.6721213064
 20
62.6512372203
 30
0.0
 10
21.1216715431
 20
62.5822722494
 30
0.0
 10
21.6666564159
 20
62.3681827819
 30
0.0
 10
22.0206069476
 20
62.1582765661
 30
0.0
 10
22.3123889576
 20
61.9034962768
 30
0.0
 10
22.5312191825
 20
61.6120998674
 30
0.0
 10
22.6672450437
 20
61.2941300192
 30
0.0
 10
22.6983977481
 20
61.0706000965
 30
0.0
 10
22.6983977481
 20
60.9613314918
 30
0.0
  0
SPLINE
  5
27C
100
AcDbEntity
  8
0
100
AcDbSpline
 62
7
  6
BYLAYER
 70
0
 71
3
 72
15
 73
11
 74
0
 42
0.0000001
 43
0.0000001
 44
0.0000000001
 40
0.0
 40
0.0
 40
0.0
 40
0.0
 40
0.2359831039
 40
0.3004059804
 40
0.3661941512
 40
0.5000116952
 40
0.6338262844
 40
0.6996112558
 40
0.7640304085
 40
1.0
 40
1.0
 40
1.0
 40
1.0
 10
15.6077379259
 20
58.2035333429
 30
0.0
 10
15.8791664833
 20
57.9302363224
 30
0.0
 10
16.3223337113
 20
57.6739886307
 30
0.0
 10
16.891966275
 20
57.4954612142
 30
0.0
 10
17.3138039103
 20
57.4035906346
 30
0.0
 10
17.8588217376
 20
57.3579848339
 30
0.0
 10
18.4038260464
 20
57.4037051219
 30
0.0
 10
18.8256250233
 20
57.4956768462
 30
0.0
 10
19.3951871543
 20
57.6743165327
 30
0.0
 10
19.8382590224
 20
57.9306902064
 30
0.0
 10
20.1095808861
 20
58.2040620761
 30
0.0
  0
SPLINE
  5
27D
100
AcDbEntity
  8
0
100
AcDbSpline
 62
7
  6
BYLAYER
 70
0
 71
3
 72
15
 73
11
 74
0
 42
0.0000001
 43
0.0000001
 44
0.0000000001
 40
0.0
 40
0.0
 40
0.0
 40
0.0
 40
0.2359831039
 40
0.3004059804
 40
0.3661941512
 40
0.5000116952
 40
0.6338262844
 40
0.6996112558
 40
0.7640304085
 40
1.0
 40
1.0
 40
1.0
 40
1.0
 10
15.6077379259
 20
15.7771264717
 30
0.0
 10
15.8791664833
 20
15.5038294512
 30
0.0
 10
16.3223337113
 20
15.2475817595
 30
0.0
 10
16.891966275
 20
15.069054343
 30
0.0
 10
17.3138039103
 20
14.9771837634
 30
0.0
 10
17.8588217376
 20
14.9315779628
 30
0.0
 10
18.4038260464
 20
14.9772982507
 30
0.0
 10
18.8256250233
 20
15.069269975
 30
0.0
 10
19.3951871543
 20
15.2479096615
 30
0.0
 10
19.8382590224
 20
15.5042833352
 30
0.0
 10
20.1095808861
 20
15.7776552049
 30
0.0
  0
SPLINE
  5
27E
100
AcDbEntity
  8
0
100
AcDbSpline
 62
7
  6
BYLAYER
 70
0
 71
3
 72
13
 73
9
 74
0
 42
0.0000001
 43
0.0000001
 44
0.0000000001
 40
0.0
 40
0.0
 40
0.0
 40
0.0
 40
0.2405917207
 40
0.3690646169
 40
0.4999678892
 40
0.6308750161
 40
0.7593594984
 40
1.0
 40
1.0
 40
1.0
 40
1.0
 10
16.2805964874
 20
48.6406601085
 30
0.0
 10
16.4995014618
 20
48.4884058396
 30
0.0
 10
16.8815517298
 20
48.3177226323
 30
0.0
 10
17.4246136417
 20
48.2037289287
 30
0.0
 10
17.8576673093
 20
48.1739753465
 30
0.0
 10
18.2907477453
 20
48.2035288284
 30
0.0
 10
18.8339316422
 20
48.3172852423
 30
0.0
 10
19.2161330502
 20
48.4877867037
 30
0.0
 10
19.4351695419
 20
48.6399464895
 30
0.0
  0
SPLINE
  5
27F
100
AcDbEntity
  8
0
100
AcDbSpline
 62
7
  6
BYLAYER
 70
0
 71
3
 72
13
 73
9
 74
0
 42
0.0000001
 43
0.0000001
 44
0.0000000001
 40
0.0
 40
0.0
 40
0.0
 40
0.0
 40
0.2405917207
 40
0.3690646169
 40
0.4999678892
 40
0.6308750161
 40
0.7593594984
 40
1.0
 40
1.0
 40
1.0
 40
1.0
 10
16.2805964874
 20
27.4274566729
 30
0.0
 10
16.4995014618
 20
27.275202404
 30
0.0
 10
16.8815517298
 20
27.1045191967
 30
0.0
 10
17.4246136417
 20
26.9905254931
 30
0.0
 10
17.8576673093
 20
26.960771911
 30
0.0
 10
18.2907477453
 20
26.9903253928
 30
0.0
 10
18.8339316422
 20
27.1040818068
 30
0.0
 10
19.2161330502
 20
27.2745832681
 30
0.0
 10
19.4351695419
 20
27.4267430539
 30
0.0
  0
SPLINE
  5
280
100
AcDbEntity
  8
0
100
AcDbSpline
 62
7
  6
BYLAYER
 70
0
 71
3
 72
11
 73
7
 74
0
 42
0.0000001
 43
0.0000001
 44
0.0000000001
 40
0.0
 40
0.0
 40
0.0
 40
0.0
 40
0.2744178644
 40
0.5342243049
 40
0.7768138038
 40
1.0
 40
1.0
 40
1.0
 40
1.0
 10
11.7096976164
 20
65.1650164689
 30
0.0
 10
11.6787464688
 20
65.2401343188
 30
0.0
 10
11.6298344614
 20
65.3911585896
 30
0.0
 10
11.5838143601
 20
65.6168013233
 30
0.0
 10
11.5590469826
 20
65.8304001001
 30
0.0
 10
11.5533099527
 20
65.9683321775
 30
0.0
 10
11.5533099527
 20
66.0344089456
 30
0.0
  0
SPLINE
  5
281
100
AcDbEntity
  8
0
100
AcDbSpline
 62
7
  6
BYLAYER
 70
0
 71
3
 72
11
 73
7
 74
0
 42
0.0000001
 43
0.0000001
 44
0.0000000001
 40
0.0
 40
0.0
 40
0.0
 40
0.0
 40
0.2466258104
 40
0.4995536596
 40
0.7537528691
 40
1.0
 40
1.0
 40
1.0
 40
1.0
 10
13.2895665727
 20
62.9782422134
 30
0.0
 10
13.1288128663
 20
63.1329744465
 30
0.0
 10
12.8153322783
 20
63.4592670591
 30
0.0
 10
12.3837219386
 20
63.9883146564
 30
0.0
 10
12.0030054688
 20
64.554828247
 30
0.0
 10
11.7946545323
 20
64.958850642
 30
0.0
 10
11.7097834643
 20
65.1648311192
 30
0.0
  0
SPLINE
  5
282
100
AcDbEntity
  8
0
100
AcDbSpline
 62
7
  6
BYLAYER
 70
0
 71
3
 72
10
 73
6
 74
0
 42
0.0000001
 43
0.0000001
 44
0.0000000001
 40
0.0
 40
0.0
 40
0.0
 40
0.0
 40
0.5064986033
 40
0.7553107788
 40
1.0
 40
1.0
 40
1.0
 40
1.0
 10
13.9966733539
 20
62.7093284829
 30
0.0
 10
13.8662721461
 20
62.7093284829
 30
0.0
 10
13.6691299835
 20
62.7432113378
 30
0.0
 10
13.4365798638
 20
62.8563513669
 30
0.0
 10
13.3349453945
 20
62.9345634133
 30
0.0
 10
13.2895580165
 20
62.978250682
 30
0.0
  0
SPLINE
  5
283
100
AcDbEntity
  8
0
100
AcDbSpline
 62
7
  6
BYLAYER
 70
0
 71
3
 72
9
 73
5
 74
0
 42
0.0000001
 43
0.0000001
 44
0.0000000001
 40
0.0
 40
0.0
 40
0.0
 40
0.0
 40
0.2631564041
 40
1.0
 40
1.0
 40
1.0
 40
1.0
 10
13.1268248729
 20
11.36567986
 30
0.0
 10
12.9964881374
 20
11.36567986
 30
0.0
 10
12.5028140023
 20
11.3994590743
 30
0.0
 10
12.0105881981
 20
11.5691919445
 30
0.0
 10
11.7126113105
 20
11.7798934223
 30
0.0
  0
SPLINE
  5
284
100
AcDbEntity
  8
0
100
AcDbSpline
 62
7
  6
BYLAYER
 70
0
 71
3
 72
14
 73
10
 74
0
 42
0.0000001
 43
0.0000001
 44
0.0000000001
 40
0.0
 40
0.0
 40
0.0
 40
0.0
 40
0.2869999729
 40
0.4238848164
 40
0.5536366151
 40
0.6752828618
 40
0.7889898002
 40
0.8963451556
 40
1.0
 40
1.0
 40
1.0
 40
1.0
 10
20.3729056947
 20
11.36567986
 30
0.0
 10
20.6751244186
 20
11.3723173993
 30
0.0
 10
21.1240905384
 20
11.4416594646
 30
0.0
 10
21.6683105938
 20
11.6558793751
 30
0.0
 10
22.0217306928
 20
11.8658066556
 30
0.0
 10
22.3130478912
 20
12.1204937578
 30
0.0
 10
22.531509251
 20
12.4117015961
 30
0.0
 10
22.667310862
 20
12.7294117344
 30
0.0
 10
22.6983977481
 20
12.9527404611
 30
0.0
 10
22.6983977481
 20
13.0619181342
 30
0.0
  0
SPLINE
  5
285
100
AcDbEntity
  8
0
100
AcDbSpline
 62
7
  6
BYLAYER
 70
0
 71
3
 72
19
 73
15
 74
0
 42
0.0000001
 43
0.0000001
 44
0.0000000001
 40
0.0
 40
0.0
 40
0.0
 40
0.0
 40
0.0517128511
 40
0.1053430644
 40
0.1622487636
 40
0.223216063
 40
0.3564715866
 40
0.4999915195
 40
0.6435117143
 40
0.7767725198
 40
0.8377441258
 40
0.8946534192
 40
0.9482865794
 40
1.0
 40
1.0
 40
1.0
 40
1.0
 10
15.6083977481
 20
26.3696677561
 30
0.0
 10
15.6083977481
 20
26.4740972084
 30
0.0
 10
15.638786069
 20
26.687895749
 30
0.0
 10
15.7713353865
 20
26.991313977
 30
0.0
 10
15.984221623
 20
27.2683619183
 30
0.0
 10
16.3730392656
 20
27.5986993816
 30
0.0
 10
17.0071358188
 20
27.8851242714
 30
0.0
 10
17.8583452156
 20
27.9998041968
 30
0.0
 10
18.7095696249
 20
27.8851506741
 30
0.0
 10
19.3436920265
 20
27.5987356649
 30
0.0
 10
19.7325438248
 20
27.2683964701
 30
0.0
 10
19.9454478839
 20
26.9913338308
 30
0.0
 10
20.0780072147
 20
26.6879040472
 30
0.0
 10
20.1083977481
 20
26.4740983585
 30
0.0
 10
20.1083977481
 20
26.3696677561
 30
0.0
  0
SPLINE
  5
286
100
AcDbEntity
  8
0
100
AcDbSpline
 62
7
  6
BYLAYER
 70
0
 71
3
 72
19
 73
15
 74
0
 42
0.0000001
 43
0.0000001
 44
0.0000000001
 40
0.0
 40
0.0
 40
0.0
 40
0.0
 40
0.0517128511
 40
0.1053430644
 40
0.1622487636
 40
0.223216063
 40
0.3564715866
 40
0.4999915195
 40
0.6435117143
 40
0.7767725198
 40
0.8377441258
 40
0.8946534192
 40
0.9482865794
 40
1.0
 40
1.0
 40
1.0
 40
1.0
 10
15.6083977481
 20
47.5828711917
 30
0.0
 10
15.6083977481
 20
47.687300644
 30
0.0
 10
15.638786069
 20
47.9010991846
 30
0.0
 10
15.7713353865
 20
48.2045174126
 30
0.0
 10
15.984221623
 20
48.4815653539
 30
0.0
 10
16.3730392656
 20
48.8119028172
 30
0.0
 10
17.0071358188
 20
49.098327707
 30
0.0
 10
17.8583452156
 20
49.2130076324
 30
0.0
 10
18.7095696249
 20
49.0983541097
 30
0.0
 10
19.3436920265
 20
48.8119391005
 30
0.0
 10
19.7325438248
 20
48.4815999057
 30
0.0
 10
19.9454478839
 20
48.2045372664
 30
0.0
 10
20.0780072147
 20
47.9011074828
 30
0.0
 10
20.1083977481
 20
47.6873017941
 30
0.0
 10
20.1083977481
 20
47.5828711917
 30
0.0
  0
SPLINE
  5
287
100
AcDbEntity
  8
0
100
AcDbSpline
 62
7
  6
BYLAYER
 70
0
 71
3
 72
21
 73
17
 74
0
 42
0.0000001
 43
0.0000001
 44
0.0000000001
 40
0.0
 40
0.0
 40
0.0
 40
0.0
 40
0.0516755152
 40
0.1052670083
 40
0.1621316224
 40
0.2230549044
 40
0.3562142195
 40
0.4274155507
 40
0.4999915095
 40
0.5725674866
 40
0.6437690934
 40
0.7769336867
 40
0.8378612721
 40
0.8947294778
 40
0.9483239157
 40
1.0
 40
1.0
 40
1.0
 40
1.0
 10
15.1083977481
 20
14.7024058665
 30
0.0
 10
15.1083977481
 20
14.8300418637
 30
0.0
 10
15.1455404859
 20
15.0913517591
 30
0.0
 10
15.3075383101
 20
15.4621935709
 30
0.0
 10
15.5677602496
 20
15.8008185019
 30
0.0
 10
16.042825263
 20
16.2045032538
 30
0.0
 10
16.6530760794
 20
16.4800905654
 30
0.0
 10
17.3233305667
 20
16.6223415149
 30
0.0
 10
17.8583335717
 20
16.6593489472
 30
0.0
 10
18.3933388535
 20
16.6223617977
 30
0.0
 10
19.0636109926
 20
16.480126157
 30
0.0
 10
19.6738918036
 20
16.204547807
 30
0.0
 10
20.1489985136
 20
15.8008606978
 30
0.0
 10
20.4092422452
 20
15.462217845
 30
0.0
 10
20.5712523057
 20
15.091361899
 30
0.0
 10
20.6083977481
 20
14.8300432694
 30
0.0
 10
20.6083977481
 20
14.7024058665
 30
0.0
  0
SPLINE
  5
288
100
AcDbEntity
  8
0
100
AcDbSpline
 62
7
  6
BYLAYER
 70
0
 71
3
 72
21
 73
17
 74
0
 42
0.0000001
 43
0.0000001
 44
0.0000000001
 40
0.0
 40
0.0
 40
0.0
 40
0.0
 40
0.0516755152
 40
0.1052670083
 40
0.1621316224
 40
0.2230549044
 40
0.3562142195
 40
0.4274155507
 40
0.4999915095
 40
0.5725674866
 40
0.6437690934
 40
0.7769336867
 40
0.8378612721
 40
0.8947294778
 40
0.9483239157
 40
1.0
 40
1.0
 40
1.0
 40
1.0
 10
15.1083977481
 20
57.1288127377
 30
0.0
 10
15.1083977481
 20
57.2564487349
 30
0.0
 10
15.1455404859
 20
57.5177586303
 30
0.0
 10
15.3075383101
 20
57.8886004421
 30
0.0
 10
15.5677602496
 20
58.2272253731
 30
0.0
 10
16.042825263
 20
58.630910125
 30
0.0
 10
16.6530760794
 20
58.9064974366
 30
0.0
 10
17.3233305667
 20
59.0487483861
 30
0.0
 10
17.8583335717
 20
59.0857558184
 30
0.0
 10
18.3933388535
 20
59.0487686689
 30
0.0
 10
19.0636109926
 20
58.9065330282
 30
0.0
 10
19.6738918036
 20
58.6309546782
 30
0.0
 10
20.1489985136
 20
58.227267569
 30
0.0
 10
20.4092422452
 20
57.8886247162
 30
0.0
 10
20.5712523057
 20
57.5177687702
 30
0.0
 10
20.6083977481
 20
57.2564501406
 30
0.0
 10
20.6083977481
 20
57.1288127377
 30
0.0
  0
SPLINE
  5
289
100
AcDbEntity
  8
0
100
AcDbSpline
 62
7
  6
BYLAYER
 70
0
 71
3
 72
15
 73
11
 74
0
 42
0.0000001
 43
0.0000001
 44
0.0000000001
 40
0.0
 40
0.0
 40
0.0
 40
0.0
 40
0.4147933128
 40
0.5829766575
 40
0.7234202416
 40
0.8354667955
 40
0.9185602672
 40
0.9725552656
 40
0.9891149043
 40
1.0
 40
1.0
 40
1.0
 40
1.0
 10
18.6902199095
 20
85.1166774842
 30
0.0
 10
18.6926183153
 20
85.0437200156
 30
0.0
 10
18.6990332823
 20
84.9411758734
 30
0.0
 10
18.716121402
 20
84.8149593649
 30
0.0
 10
18.7300692584
 20
84.7422324054
 30
0.0
 10
18.7448998125
 20
84.6849533243
 30
0.0
 10
18.7595540688
 20
84.6436956889
 30
0.0
 10
18.771831712
 20
84.6192039012
 30
0.0
 10
18.7812404572
 20
84.6083943749
 30
0.0
 10
18.7858771961
 20
84.6060387591
 30
0.0
 10
18.7877927862
 20
84.6060448836
 30
0.0
  0
SPLINE
  5
28A
100
AcDbEntity
  8
0
100
AcDbSpline
 62
7
  6
BYLAYER
 70
0
 71
3
 72
11
 73
7
 74
0
 42
0.0000001
 43
0.0000001
 44
0.0000000001
 40
0.0
 40
0.0
 40
0.0
 40
0.0
 40
0.2214505384
 40
0.4627998166
 40
0.7226610857
 40
1.0
 40
1.0
 40
1.0
 40
1.0
 10
11.4168902455
 20
9.3949318529
 30
0.0
 10
11.4168902455
 20
9.5711423002
 30
0.0
 10
11.4380035111
 20
9.9392320847
 30
0.0
 10
11.4925441007
 20
10.5115545383
 30
0.0
 10
11.5456890962
 20
11.1288545196
 30
0.0
 10
11.5650980587
 20
11.5560582019
 30
0.0
 10
11.5696739205
 20
11.776692153
 30
0.0
  0
SPLINE
  5
28B
100
AcDbEntity
  8
0
100
AcDbSpline
 62
7
  6
BYLAYER
 70
0
 71
3
 72
9
 73
5
 74
0
 42
0.0000001
 43
0.0000001
 44
0.0000000001
 40
0.0
 40
0.0
 40
0.0
 40
0.0
 40
0.4954136328
 40
1.0
 40
1.0
 40
1.0
 40
1.0
 10
18.6901349498
 20
16.3786237757
 30
0.0
 10
18.6213435487
 20
16.1163426212
 30
0.0
 10
18.4151203547
 20
15.6022971816
 30
0.0
 10
18.0872933471
 20
15.1562088231
 30
0.0
 10
17.8985860933
 20
14.9545629347
 30
0.0
  0
SPLINE
  5
28C
100
AcDbEntity
  8
0
100
AcDbSpline
 62
7
  6
BYLAYER
 70
0
 71
3
 72
15
 73
11
 74
0
 42
0.0000001
 43
0.0000001
 44
0.0000000001
 40
0.0
 40
0.0
 40
0.0
 40
0.0
 40
0.1594911485
 40
0.3122025552
 40
0.4547767832
 40
0.5851494832
 40
0.7027097051
 40
0.8085968869
 40
0.9060051982
 40
1.0
 40
1.0
 40
1.0
 40
1.0
 10
11.8764216745
 20
85.1166597862
 30
0.0
 10
11.6348570339
 20
85.1030401687
 30
0.0
 10
11.1628869666
 20
85.0542737943
 30
0.0
 10
10.4859921838
 20
84.9146382763
 30
0.0
 10
9.8710279995
 20
84.712337745
 30
0.0
 10
9.336652706
 20
84.4514884981
 30
0.0
 10
8.8982050752
 20
84.1364336125
 30
0.0
 10
8.568910506
 20
83.7716152645
 30
0.0
 10
8.3630114924
 20
83.3635083467
 30
0.0
 10
8.3168902455
 20
83.0711072278
 30
0.0
 10
8.3168902455
 20
82.9285169918
 30
0.0
  0
SPLINE
  5
28D
100
AcDbEntity
  8
0
100
AcDbSpline
 62
7
  6
BYLAYER
 70
0
 71
3
 72
9
 73
5
 74
0
 42
0.0000001
 43
0.0000001
 44
0.0000000001
 40
0.0
 40
0.0
 40
0.0
 40
0.0
 40
0.2586068873
 40
1.0
 40
1.0
 40
1.0
 40
1.0
 10
8.9026766831
 20
62.9809653862
 30
0.0
 10
8.977001325
 20
62.9093658546
 30
0.0
 10
9.2694057238
 20
62.6377702793
 30
0.0
 10
9.5812516477
 20
62.3868511774
 30
0.0
 10
9.8228259823
 20
62.2160323272
 30
0.0
  0
SPLINE
  5
28E
100
AcDbEntity
  8
0
100
AcDbSpline
 62
7
  6
BYLAYER
 70
0
 71
3
 72
11
 73
7
 74
0
 42
0.0000001
 43
0.0000001
 44
0.0000000001
 40
0.0
 40
0.0
 40
0.0
 40
0.0
 40
0.2512606729
 40
0.5059216183
 40
0.756235831
 40
1.0
 40
1.0
 40
1.0
 40
1.0
 10
8.3168902455
 20
64.8163622511
 30
0.0
 10
8.3168902455
 20
64.6506443131
 30
0.0
 10
8.3280456751
 20
64.316657529
 30
0.0
 10
8.4082979771
 20
63.8221176308
 30
0.0
 10
8.5869090318
 20
63.3566219786
 30
0.0
 10
8.7871972482
 20
63.092216162
 30
0.0
 10
8.9029842305
 20
62.9806745052
 30
0.0
  0
SPLINE
  5
28F
100
AcDbEntity
  8
0
100
AcDbSpline
 62
7
  6
BYLAYER
 70
0
 71
3
 72
9
 73
5
 74
0
 42
0.0000001
 43
0.0000001
 44
0.0000000001
 40
0.0
 40
0.0
 40
0.0
 40
0.0
 40
0.2356165529
 40
1.0
 40
1.0
 40
1.0
 40
1.0
 10
11.7126113105
 20
60.8797523067
 30
0.0
 10
11.8079554185
 20
60.8123338414
 30
0.0
 10
12.2395994861
 20
60.5648836711
 30
0.0
 10
12.7479943481
 20
60.4655387443
 30
0.0
 10
13.1268248729
 20
60.4655387443
 30
0.0
  0
SPLINE
  5
290
100
AcDbEntity
  8
0
100
AcDbSpline
 62
7
  6
BYLAYER
 70
0
 71
3
 72
14
 73
10
 74
0
 42
0.0000001
 43
0.0000001
 44
0.0000000001
 40
0.0
 40
0.0
 40
0.0
 40
0.0
 40
0.1036548152
 40
0.2110101181
 40
0.324717034
 40
0.4463632664
 40
0.5761150639
 40
0.7129999222
 40
1.0
 40
1.0
 40
1.0
 40
1.0
 10
22.6983977481
 20
58.7693004701
 30
0.0
 10
22.6983977481
 20
58.8784781126
 30
0.0
 10
22.6673109279
 20
59.1018067607
 30
0.0
 10
22.531509355
 20
59.4195167973
 30
0.0
 10
22.3130481143
 20
59.7107246008
 30
0.0
 10
22.0217309921
 20
59.9654117327
 30
0.0
 10
21.6683109287
 20
60.1753390741
 30
0.0
 10
21.1240907781
 20
60.3895590895
 30
0.0
 10
20.6751245296
 20
60.4589012025
 30
0.0
 10
20.3729056947
 20
60.4655387443
 30
0.0
  0
SPLINE
  5
291
100
AcDbEntity
  8
0
100
AcDbSpline
 62
7
  6
BYLAYER
 70
0
 71
3
 72
19
 73
15
 74
0
 42
0.0000001
 43
0.0000001
 44
0.0000000001
 40
0.0
 40
0.0
 40
0.0
 40
0.0
 40
0.0517128511
 40
0.1053430644
 40
0.1622487636
 40
0.223216063
 40
0.3564715866
 40
0.4999915195
 40
0.6435117143
 40
0.7767725198
 40
0.8377441258
 40
0.8946534192
 40
0.9482865794
 40
1.0
 40
1.0
 40
1.0
 40
1.0
 10
20.1083977481
 20
26.3696677561
 30
0.0
 10
20.1083977481
 20
26.2652383038
 30
0.0
 10
20.0780094273
 20
26.0514397632
 30
0.0
 10
19.9454601097
 20
25.7480215352
 30
0.0
 10
19.7325738732
 20
25.4709735939
 30
0.0
 10
19.3437562306
 20
25.1406361306
 30
0.0
 10
18.7096596774
 20
24.8542112409
 30
0.0
 10
17.8584502807
 20
24.7395313154
 30
0.0
 10
17.0072258713
 20
24.8541848381
 30
0.0
 10
16.3731034698
 20
25.1405998473
 30
0.0
 10
15.9842516715
 20
25.4709390421
 30
0.0
 10
15.7713476124
 20
25.7480016814
 30
0.0
 10
15.6387882815
 20
26.0514314651
 30
0.0
 10
15.6083977481
 20
26.2652371538
 30
0.0
 10
15.6083977481
 20
26.3696677561
 30
0.0
  0
SPLINE
  5
292
100
AcDbEntity
  8
0
100
AcDbSpline
 62
7
  6
BYLAYER
 70
0
 71
3
 72
19
 73
15
 74
0
 42
0.0000001
 43
0.0000001
 44
0.0000000001
 40
0.0
 40
0.0
 40
0.0
 40
0.0
 40
0.0517128511
 40
0.1053430644
 40
0.1622487636
 40
0.223216063
 40
0.3564715866
 40
0.4999915195
 40
0.6435117143
 40
0.7767725198
 40
0.8377441258
 40
0.8946534192
 40
0.9482865794
 40
1.0
 40
1.0
 40
1.0
 40
1.0
 10
20.1083977481
 20
47.5828711917
 30
0.0
 10
20.1083977481
 20
47.4784417394
 30
0.0
 10
20.0780094273
 20
47.2646431988
 30
0.0
 10
19.9454601097
 20
46.9612249708
 30
0.0
 10
19.7325738732
 20
46.6841770295
 30
0.0
 10
19.3437562306
 20
46.3538395662
 30
0.0
 10
18.7096596774
 20
46.0674146764
 30
0.0
 10
17.8584502807
 20
45.952734751
 30
0.0
 10
17.0072258713
 20
46.0673882737
 30
0.0
 10
16.3731034698
 20
46.3538032829
 30
0.0
 10
15.9842516715
 20
46.6841424777
 30
0.0
 10
15.7713476124
 20
46.961205117
 30
0.0
 10
15.6387882815
 20
47.2646349007
 30
0.0
 10
15.6083977481
 20
47.4784405893
 30
0.0
 10
15.6083977481
 20
47.5828711917
 30
0.0
  0
SPLINE
  5
293
100
AcDbEntity
  8
0
100
AcDbSpline
 62
7
  6
BYLAYER
 70
0
 71
3
 72
11
 73
7
 74
0
 42
0.0000001
 43
0.0000001
 44
0.0000000001
 40
0.0
 40
0.0
 40
0.0
 40
0.0
 40
0.2881112598
 40
0.5546854063
 40
0.7896674387
 40
1.0
 40
1.0
 40
1.0
 40
1.0
 10
20.2983977481
 20
62.2727320361
 30
0.0
 10
20.3082654724
 20
62.2727320361
 30
0.0
 10
20.3273935299
 20
62.2697744124
 30
0.0
 10
20.3519880741
 20
62.2573426992
 30
0.0
 10
20.368671501
 20
62.2386428655
 30
0.0
 10
20.3729056947
 20
62.2232361544
 30
0.0
 10
20.3729056947
 20
62.2160323272
 30
0.0
  0
SPLINE
  5
294
100
AcDbEntity
  8
0
100
AcDbSpline
 62
7
  6
BYLAYER
 70
0
 71
3
 72
21
 73
17
 74
0
 42
0.0000001
 43
0.0000001
 44
0.0000000001
 40
0.0
 40
0.0
 40
0.0
 40
0.0
 40
0.0516755152
 40
0.1052670083
 40
0.1621316224
 40
0.2230549044
 40
0.3562142195
 40
0.4274155507
 40
0.4999915095
 40
0.5725674866
 40
0.6437690934
 40
0.7769336867
 40
0.8378612721
 40
0.8947294778
 40
0.9483239157
 40
1.0
 40
1.0
 40
1.0
 40
1.0
 10
20.6083977481
 20
14.7024058665
 30
0.0
 10
20.6083977481
 20
14.5747698693
 30
0.0
 10
20.5712550104
 20
14.3134599739
 30
0.0
 10
20.4092571862
 20
13.9426181621
 30
0.0
 10
20.1490352466
 20
13.6039932312
 30
0.0
 10
19.6739702333
 20
13.2003084792
 30
0.0
 10
19.0637194169
 20
12.9247211676
 30
0.0
 10
18.3934649296
 20
12.7824702181
 30
0.0
 10
17.8584619245
 20
12.7454627858
 30
0.0
 10
17.3234566428
 20
12.7824499353
 30
0.0
 10
16.6531845037
 20
12.924685576
 30
0.0
 10
16.0429036927
 20
13.2002639261
 30
0.0
 10
15.5677969827
 20
13.6039510353
 30
0.0
 10
15.3075532511
 20
13.9425938881
 30
0.0
 10
15.1455431905
 20
14.313449834
 30
0.0
 10
15.1083977481
 20
14.5747684637
 30
0.0
 10
15.1083977481
 20
14.7024058665
 30
0.0
  0
SPLINE
  5
295
100
AcDbEntity
  8
0
100
AcDbSpline
 62
7
  6
BYLAYER
 70
0
 71
3
 72
21
 73
17
 74
0
 42
0.0000001
 43
0.0000001
 44
0.0000000001
 40
0.0
 40
0.0
 40
0.0
 40
0.0
 40
0.0516755152
 40
0.1052670083
 40
0.1621316224
 40
0.2230549044
 40
0.3562142195
 40
0.4274155507
 40
0.4999915095
 40
0.5725674866
 40
0.6437690934
 40
0.7769336867
 40
0.8378612721
 40
0.8947294778
 40
0.9483239157
 40
1.0
 40
1.0
 40
1.0
 40
1.0
 10
20.6083977481
 20
57.1288127377
 30
0.0
 10
20.6083977481
 20
57.0011767405
 30
0.0
 10
20.5712550104
 20
56.7398668451
 30
0.0
 10
20.4092571862
 20
56.3690250333
 30
0.0
 10
20.1490352466
 20
56.0304001024
 30
0.0
 10
19.6739702333
 20
55.6267153504
 30
0.0
 10
19.0637194169
 20
55.3511280388
 30
0.0
 10
18.3934649296
 20
55.2088770893
 30
0.0
 10
17.8584619245
 20
55.171869657
 30
0.0
 10
17.3234566428
 20
55.2088568065
 30
0.0
 10
16.6531845037
 20
55.3510924472
 30
0.0
 10
16.0429036927
 20
55.6266707973
 30
0.0
 10
15.5677969827
 20
56.0303579065
 30
0.0
 10
15.3075532511
 20
56.3690007593
 30
0.0
 10
15.1455431905
 20
56.7398567052
 30
0.0
 10
15.1083977481
 20
57.0011753348
 30
0.0
 10
15.1083977481
 20
57.1288127377
 30
0.0
  0
SPLINE
  5
296
100
AcDbEntity
  8
0
100
AcDbSpline
 62
7
  6
BYLAYER
 70
0
 71
3
 72
13
 73
9
 74
0
 42
0.0000001
 43
0.0000001
 44
0.0000000001
 40
0.0
 40
0.0
 40
0.0
 40
0.0
 40
0.0917008169
 40
0.1892311841
 40
0.2967652087
 40
0.4168880067
 40
0.692738985
 40
1.0
 40
1.0
 40
1.0
 40
1.0
 10
11.4168902455
 20
82.9285169918
 30
0.0
 10
11.4168902455
 20
82.9632278609
 30
0.0
 10
11.4295763981
 20
83.0352978266
 30
0.0
 10
11.4829608957
 20
83.1357891112
 30
0.0
 10
11.5675834938
 20
83.2267788553
 30
0.0
 10
11.7249936494
 20
83.3362184117
 30
0.0
 10
11.9792983088
 20
83.4277655692
 30
0.0
 10
12.2005848817
 20
83.4521146205
 30
0.0
 10
12.3168902455
 20
83.4521146205
 30
0.0
  0
SPLINE
  5
297
100
AcDbEntity
  8
0
100
AcDbSpline
 62
7
  6
BYLAYER
 70
0
 71
3
 72
14
 73
10
 74
0
 42
0.0000001
 43
0.0000001
 44
0.0000000001
 40
0.0
 40
0.0
 40
0.0
 40
0.0
 40
0.3020193189
 40
0.4455947867
 40
0.5804485567
 40
0.7043502694
 40
0.8157155435
 40
0.9140204444
 40
1.0
 40
1.0
 40
1.0
 40
1.0
 10
14.7983977481
 20
83.4521146205
 30
0.0
 10
15.2429735211
 20
83.4521146205
 30
0.0
 10
15.9016405816
 20
83.5141294834
 30
0.0
 10
16.7312778552
 20
83.723133587
 30
0.0
 10
17.2877813349
 20
83.9296790514
 30
0.0
 10
17.7734175569
 20
84.1798217673
 30
0.0
 10
18.1762567449
 20
84.463968819
 30
0.0
 10
18.4867235062
 20
84.7721499919
 30
0.0
 10
18.6366364259
 20
85.0019775963
 30
0.0
 10
18.6901349498
 20
85.1166774842
 30
0.0
  0
ELLIPSE
  5
298
100
AcDbEntity
  8
0
100
AcDbEllipse
 62
7
  6
BYLAYER
 10
-493.3547591675
 20
60.6926309149
 30
0.0
 11
519.9198861531
 21
0.0
 31
0.0
 40
0.0413184757
 41
0.116639185
 42
0.1730644986
  0
ELLIPSE
  5
299
100
AcDbEntity
  8
0
100
AcDbEllipse
 62
7
  6
BYLAYER
 10
-493.3547591675
 20
60.6926309149
 30
0.0
 11
519.9198861531
 21
0.0
 31
0.0
 40
0.0413184757
 41
-0.1220051614
 42
-0.116639185
  0
ENDSEC
  0
SECTION
  2
OBJECTS
  0
DICTIONARY
  5
C
100
AcDbDictionary
280
0
281
1
  3
ACAD_GROUP
350
D
  3
ACAD_MLINESTYLE
350
17
  3
ACAD_LAYOUT
350
1A
  3
ACAD_PLOTSETTINGS
350
19
  3
ACAD_PLOTSTYLENAME
350
E
  0
DICTIONARY
  5
D
102
{ACAD_REACTORS
330
C
102
}
100
AcDbDictionary
280
0
281
1
  0
ACDBDICTIONARYWDFLT
  5
E
102
{ACAD_REACTORS
330
C
102
}
100
AcDbDictionary
281
1
  3
Normal
350
F
100
AcDbDictionaryWithDefault
340
F
  0
DICTIONARY
  5
17
102
{ACAD_REACTORS
330
C
102
}
100
AcDbDictionary
280
0
281
1
  3
Standard
350
18
  0
DICTIONARY
  5
19
102
{ACAD_REACTORS
330
C
102
}
100
AcDbDictionary
281
1
  0
DICTIONARY
  5
1A
102
{ACAD_REACTORS
330
C
102
}
100
AcDbDictionary
281
1
  3
Model
350
29A
  3
Layout1
350
29B
  0
ACDBPLACEHOLDER
  5
F
102
{ACAD_REACTORS
330
E
102
}
  0
MLINESTYLE
  5
18
102
{ACAD_REACTORS
330
17
102
}
100
AcDbMlineStyle
  2
STANDARD
 70
0
  3

 62
256
 51
90.0
 52
90.0
 71
2
 49
0.5
 62
256
  6
BYLAYER
 49
-0.5
 62
256
  6
BYLAYER
  0
LAYOUT
  5
29A
102
{ACAD_REACTORS
330
1A
102
}
100
AcDbPlotSettings
  1

  2
none_device
  4

  6

 40
0.0
 41
0.0
 42
0.0
 43
0.0
 44
210.0
 45
297.0
 46
0.0
 47
0.0
 48
0.0
 49
0.0
140
0.0
141
0.0
142
1.0
143
1.0
 70
1024
 72
1
 73
0
 74
0
  7

 75
0
147
1.0
148
0.0
149
0.0
100
AcDbLayout
  1
Model
 70
0
 71
0
 10
0.0
 20
0.0
 11
210.0
 21
297.0
 12
0.0
 22
0.0
 32
0.0
 14
0.0
 24
0.0
 34
0.0
 15
0.0
 25
0.0
 35
0.0
146
0.0
 13
0.0
 23
0.0
 33
0.0
 16
1.0
 26
0.0
 36
0.0
 17
0.0
 27
1.0
 37
0.0
 76
0
330
210
345
0
346
0
  0
LAYOUT
  5
29B
102
{ACAD_REACTORS
330
1A
102
}
100
AcDbPlotSettings
  1

  2
none_device
  4

  6

 40
0.0
 41
0.0
 42
0.0
 43
0.0
 44
210.0
 45
297.0
 46
0.0
 47
0.0
 48
0.0
 49
0.0
140
0.0
141
0.0
142
1.0
143
1.0
 70
0
 72
1
 73
0
 74
0
  7

 75
0
147
1.0
148
0.0
149
0.0
100
AcDbLayout
  1
Layout1
 70
0
 71
1
 10
0.0
 20
0.0
 11
210.0
 21
297.0
 12
0.0
 22
0.0
 32
0.0
 14
0.0
 24
0.0
 34
0.0
 15
0.0
 25
0.0
 35
0.0
146
0.0
 13
0.0
 23
0.0
 33
0.0
 16
1.0
 26
0.0
 36
0.0
 17
0.0
 27
1.0
 37
0.0
 76
0
330
211
345
0
346
0
  0
ENDSEC
  0
EOF
