999
DXF file: C:\Users\sesa63760\Dev\_Creo\CAD\MCADID0004769_3D-CAD\drw0001_6.dxf
999
Pro/ENGINEER 2019471 by Parametric Technology Corporation
  0
SECTION
  2
HEADER
  9
$ACADVER
  1
AC1024
  9
$DWGCODEPAGE
  3
ANSI_1252
  9
$EXTMAX
 10
55.0123718546
 20
77.8032116229
 30
0.0
  9
$EXTMIN
 10
0.0
 20
0.0
 30
0.0
  9
$LIMMIN
 10
0.0
 20
0.0
  9
$LIMMAX
 10
55.0123718546
 20
77.8032116229
  9
$VIEWCTR
 10
27.5061859273
 20
38.9016058115
  9
$VIEWSIZE
 40
77.8032116229
  9
$CLAYER
  8
0
  9
$LTSCALE
 40
5.0716167576
  9
$CELTYPE
  6
BYLAYER
  9
$DIMSCALE
 40
1.0
  9
$DIMASZ
 40
0.6549091887
  9
$DIMEXO
 40
1.0
  9
$DIMDLI
 40
3.5040261235
  9
$DIMEXE
 40
1.0
  9
$DIMCEN
 40
0.829900924
  9
$DIMLFAC
 40
1.0
  9
$DIMBLK
  1
_FILLED
  9
$DIMALT
 70
0
  9
$DIMALTF
 40
0.0393700787
  9
$DIMTXT
 40
0.9168728642
  9
$DIMTOL
 70
1
  9
$DIMLIM
 70
0
  9
$DIMTFAC
 40
1.0
  9
$DIMTP
 40
0.01
  9
$DIMTM
 40
0.01
  9
$DIMGAP
 40
0.625
  9
$DIMDSEP
 70
46
  9
$AUNITS
 70
0
  9
$PDMODE
 70
3
  9
$PDSIZE
 40
0.3125
  9
$HANDSEED
  5
30E
  9
$TILEMODE
 70
1
  9
$MEASUREMENT
 70
1
  9
$INSUNITS
 70
4
  0
ENDSEC
  0
SECTION
  2
CLASSES
  0
CLASS
  1
ACDBDICTIONARYWDFLT
  2
AcDbDictionaryWithDefault
  3
AutoCAD 2000
 90
0
 91
1
280
0
281
0
  0
CLASS
  1
ACDBPLACEHOLDER
  2
AcDbPlaceHolder
  3
AutoCAD 2000
 90
0
 91
1
280
0
281
0
  0
CLASS
  1
LAYOUT
  2
AcDbLayout
  3
AutoCAD 2000
 90
0
 91
0
280
0
281
0
  0
ENDSEC
  0
SECTION
  2
TABLES
  0
TABLE
  2
VPORT
  5
8
100
AcDbSymbolTable
 70
2
  0
VPORT
  5
1F4
100
AcDbSymbolTableRecord
100
AcDbViewportTableRecord
  2
*ACTIVE
 70
0
 10
0.0
 20
0.0
 11
1.0
 21
1.0
 12
27.5061859273
 22
38.9016058115
 13
0.0
 23
0.0
 14
1.0
 24
1.0
 15
0.0
 25
0.0
 16
0.0
 26
0.0
 36
1.0
 17
0.0
 27
0.0
 37
0.0
 40
77.8032116229
 41
0.7070707071
 42
50.0
 43
0.0
 44
0.0
 50
0.0
 51
0.0
 71
0
 72
100
 73
1
 74
1
 75
0
 76
0
 77
0
 78
0
  0
ENDTAB
  0
TABLE
  2
LTYPE
  5
5
100
AcDbSymbolTable
 70
6
  0
LTYPE
  5
14
100
AcDbSymbolTableRecord
100
AcDbLinetypeTableRecord
  2
BYBLOCK
 70
0
  3

 72
65
 73
0
 40
0.0
  0
LTYPE
  5
15
100
AcDbSymbolTableRecord
100
AcDbLinetypeTableRecord
  2
BYLAYER
 70
0
  3

 72
65
 73
0
 40
0.0
  0
LTYPE
  5
16
100
AcDbSymbolTableRecord
100
AcDbLinetypeTableRecord
  2
CONTINUOUS
 70
64
  3
Solid line
 72
65
 73
0
 40
0.0
  0
LTYPE
  5
1F5
100
AcDbSymbolTableRecord
100
AcDbLinetypeTableRecord
  2
CENTER
 70
64
  3
____ _ ____ _ ____ _ ____ _ ____ _ ____ _ ____
 72
65
 73
4
 40
0.6
 49
0.375
 74
0
 49
-0.075
 74
0
 49
0.075
 74
0
 49
-0.075
 74
0
  0
LTYPE
  5
1F6
100
AcDbSymbolTableRecord
100
AcDbLinetypeTableRecord
  2
HIDDEN
 70
64
  3
- - - - - - - - - - - - - - - - - - - -
 72
65
 73
2
 40
0.2
 49
0.1
 74
0
 49
-0.1
 74
0
  0
LTYPE
  5
1F7
100
AcDbSymbolTableRecord
100
AcDbLinetypeTableRecord
  2
PHANTOM
 70
64
  3
_____ _ _ _____ _ _ _____ _ _ _____
 72
65
 73
6
 40
0.8
 49
0.45
 74
0
 49
-0.05
 74
0
 49
0.1
 74
0
 49
-0.05
 74
0
 49
0.1
 74
0
 49
-0.05
 74
0
  0
LTYPE
  5
1F8
100
AcDbSymbolTableRecord
100
AcDbLinetypeTableRecord
  2
DOT
 70
64
  3
. . . . . . . . . . . . . . . . . . . .
 72
65
 73
2
 40
0.2
 49
0.1
 74
0
 49
-0.1
 74
0
  0
LTYPE
  5
1F9
100
AcDbSymbolTableRecord
100
AcDbLinetypeTableRecord
  2
DASHED
 70
64
  3
- - - - - - - - - - - - - - - - - - - -
 72
65
 73
2
 40
0.2
 49
0.1
 74
0
 49
-0.1
 74
0
  0
ENDTAB
  0
TABLE
  2
LAYER
  5
2
100
AcDbSymbolTable
 70
36
  0
LAYER
  5
10
100
AcDbSymbolTableRecord
100
AcDbLayerTableRecord
  2
0
 70
0
 62
7
  6
CONTINUOUS
370
-3
390
F
  0
LAYER
  5
1FA
100
AcDbSymbolTableRecord
100
AcDbLayerTableRecord
  2
DEFAULT_1
 70
0
 62
7
  6
CENTER
370
-3
390
F
  0
LAYER
  5
1FB
100
AcDbSymbolTableRecord
100
AcDbLayerTableRecord
  2
DEFAULT_2
 70
0
 62
7
  6
HIDDEN
370
-3
390
F
  0
LAYER
  5
1FC
100
AcDbSymbolTableRecord
100
AcDbLayerTableRecord
  2
DEFAULT_3
 70
0
 62
7
  6
PHANTOM
370
-3
390
F
  0
LAYER
  5
1FD
100
AcDbSymbolTableRecord
100
AcDbLayerTableRecord
  2
00_COMPONENTS
 70
0
 62
7
  6
CONTINUOUS
370
-3
390
F
  0
LAYER
  5
1FE
100
AcDbSymbolTableRecord
100
AcDbLayerTableRecord
  2
01_1_DEFAULT_DATUMS
 70
0
 62
7
  6
CONTINUOUS
370
-3
390
F
  0
LAYER
  5
1FF
100
AcDbSymbolTableRecord
100
AcDbLayerTableRecord
  2
01_PLANES
 70
0
 62
7
  6
CONTINUOUS
370
-3
390
F
  0
LAYER
  5
200
100
AcDbSymbolTableRecord
100
AcDbLayerTableRecord
  2
02_COORD_SYS
 70
0
 62
7
  6
CONTINUOUS
370
-3
390
F
  0
LAYER
  5
201
100
AcDbSymbolTableRecord
100
AcDbLayerTableRecord
  2
03_AXES
 70
0
 62
7
  6
CONTINUOUS
370
-3
390
F
  0
LAYER
  5
202
100
AcDbSymbolTableRecord
100
AcDbLayerTableRecord
  2
04_POINTS
 70
0
 62
7
  6
CONTINUOUS
370
-3
390
F
  0
LAYER
  5
203
100
AcDbSymbolTableRecord
100
AcDbLayerTableRecord
  2
05_CURVES
 70
0
 62
7
  6
CONTINUOUS
370
-3
390
F
  0
LAYER
  5
204
100
AcDbSymbolTableRecord
100
AcDbLayerTableRecord
  2
06_SURFS
 70
0
 62
7
  6
CONTINUOUS
370
-3
390
F
  0
LAYER
  5
205
100
AcDbSymbolTableRecord
100
AcDbLayerTableRecord
  2
07_COSMETICS
 70
0
 62
7
  6
CONTINUOUS
370
-3
390
F
  0
LAYER
  5
206
100
AcDbSymbolTableRecord
100
AcDbLayerTableRecord
  2
10_NOTES
 70
0
 62
7
  6
CONTINUOUS
370
-3
390
F
  0
LAYER
  5
207
100
AcDbSymbolTableRecord
100
AcDbLayerTableRecord
  2
11_NOTES_PUB
 70
0
 62
7
  6
CONTINUOUS
370
-3
390
F
  0
LAYER
  5
208
100
AcDbSymbolTableRecord
100
AcDbLayerTableRecord
  2
13_REF_GTOL
 70
0
 62
7
  6
CONTINUOUS
370
-3
390
F
  0
LAYER
  5
209
100
AcDbSymbolTableRecord
100
AcDbLayerTableRecord
  2
16_MISC
 70
0
 62
7
  6
CONTINUOUS
370
-3
390
F
  0
LAYER
  5
20A
100
AcDbSymbolTableRecord
100
AcDbLayerTableRecord
  2
17_NO_PRINT
 70
0
 62
7
  6
CONTINUOUS
370
-3
390
F
  0
LAYER
  5
20B
100
AcDbSymbolTableRecord
100
AcDbLayerTableRecord
  2
18_DATUM_CAMS_JOINTS
 70
0
 62
7
  6
CONTINUOUS
370
-3
390
F
  0
LAYER
  5
20C
100
AcDbSymbolTableRecord
100
AcDbLayerTableRecord
  2
19_DATUM_FUNCTIONAL
 70
0
 62
7
  6
CONTINUOUS
370
-3
390
F
  0
LAYER
  5
20D
100
AcDbSymbolTableRecord
100
AcDbLayerTableRecord
  2
20_DATUM_KINEMATIC_SCHEME
 70
0
 62
7
  6
CONTINUOUS
370
-3
390
F
  0
ENDTAB
  0
TABLE
  2
STYLE
  5
3
100
AcDbSymbolTable
 70
1
  0
STYLE
  5
11
100
AcDbSymbolTableRecord
100
AcDbTextStyleTableRecord
  2
STANDARD
 70
0
 40
0.0
 41
1.0
 50
0.0
 71
0
 42
0.2
  3
ARIAL.TTF
  4

  0
STYLE
  5
20E
100
AcDbSymbolTableRecord
100
AcDbTextStyleTableRecord
  2
TEXTSTYLE_1
 70
0
 40
0.0
 41
0.8
 50
0.0
 71
0
 42
0.2
  3
gdt
  4

  0
ENDTAB
  0
TABLE
  2
VIEW
  5
6
100
AcDbSymbolTable
 70
0
  0
ENDTAB
  0
TABLE
  2
UCS
  5
7
100
AcDbSymbolTable
 70
0
  0
ENDTAB
  0
TABLE
  2
APPID
  5
9
100
AcDbSymbolTable
 70
1
  0
APPID
  5
20F
100
AcDbSymbolTableRecord
100
AcDbRegAppTableRecord
  2
ACAD
 70
0
  0
ENDTAB
  0
TABLE
  2
BLOCK_RECORD
  5
1
100
AcDbSymbolTable
 70
0
  0
BLOCK_RECORD
  5
210
100
AcDbSymbolTableRecord
100
AcDbBlockTableRecord
  2
*Model_Space
  0
BLOCK_RECORD
  5
211
100
AcDbSymbolTableRecord
100
AcDbBlockTableRecord
  2
*Paper_Space
  0
BLOCK_RECORD
  5
212
100
AcDbSymbolTableRecord
100
AcDbBlockTableRecord
  2
_FILLED
  0
ENDTAB
  0
TABLE
  2
DIMSTYLE
  5
A
100
AcDbSymbolTable
 70
1
100
AcDbDimStyleTable
 71
0
  0
DIMSTYLE
105
213
100
AcDbSymbolTableRecord
100
AcDbDimStyleTableRecord
  2
STANDARD
 70
0
  3

  4

 40
1.0
 41
0.6549091887
 42
1.0
 43
0.38
 44
1.0
 45
0.0
 46
0.0
 47
0.01
 48
0.01
140
0.9168728642
141
0.09
142
0.0
143
25.4
144
1.0
145
0.0
146
1.0
147
0.625
 71
1
 72
0
 73
0
 74
0
 75
0
 76
0
 77
1
 78
8
 79
2
170
0
171
1
172
0
173
0
174
0
175
0
176
0
177
0
178
0
270
2
179
2
271
2
272
2
273
2
274
2
275
0
280
0
281
0
282
0
283
1
284
8
285
0
286
0
287
3
288
0
340
11
278
46
341
212
342
212
343
212
344
212
  0
ENDTAB
  0
ENDSEC
  0
SECTION
  2
BLOCKS
  0
BLOCK
  5
20
100
AcDbEntity
  8
0
100
AcDbBlockBegin
  2
*Model_Space
 70
0
 10
0.0
 20
0.0
 30
0.0
  3
*Model_Space
  1

  0
ENDBLK
  5
21
100
AcDbEntity
  8
0
100
AcDbBlockEnd
  0
BLOCK
  5
1C
100
AcDbEntity
  8
0
100
AcDbBlockBegin
  2
*Paper_Space
 70
0
 10
0.0
 20
0.0
 30
0.0
  3
*Paper_Space
  1

  0
ENDBLK
  5
1D
100
AcDbEntity
  8
0
100
AcDbBlockEnd
  0
BLOCK
  5
214
100
AcDbEntity
  8
0
100
AcDbBlockBegin
  2
_FILLED
 70
64
 10
0.0
 20
0.0
  3
_FILLED
  1

  0
SOLID
  5
215
100
AcDbEntity
  8
0
  6
BYBLOCK
 62
0
100
AcDbTrace
 10
0.0
 20
0.0
 11
-1.0
 21
0.25
 12
-1.0
 22
-0.25
 13
-1.0
 23
-0.25
  0
ENDBLK
  5
216
100
AcDbEntity
  8
0
  6
BYBLOCK
 62
0
100
AcDbBlockEnd
  0
ENDSEC
  0
SECTION
  2
ENTITIES
  0
LINE
  5
217
100
AcDbEntity
  8
0
100
AcDbLine
 62
7
  6
BYLAYER
 10
29.6250948669
 20
6.4280499199
 11
26.3395806796
 21
6.4280499199
  0
LINE
  5
218
100
AcDbEntity
  8
0
100
AcDbLine
 62
7
  6
BYLAYER
 10
34.3592626818
 20
6.4780499199
 11
21.605412865
 21
6.4780499199
  0
LINE
  5
219
100
AcDbEntity
  8
0
100
AcDbLine
 62
7
  6
BYLAYER
 10
34.7099855081
 20
6.8912258311
 11
33.2957719457
 21
6.8912258311
  0
LINE
  5
21A
100
AcDbEntity
  8
0
100
AcDbLine
 62
7
  6
BYLAYER
 10
31.4390624988
 20
6.8912258311
 11
24.5256130477
 21
6.8912258311
  0
LINE
  5
21B
100
AcDbEntity
  8
0
100
AcDbLine
 62
7
  6
BYLAYER
 10
22.6689036007
 20
6.8912258311
 11
22.2842865777
 21
6.8912258311
  0
LINE
  5
21C
100
AcDbEntity
  8
0
100
AcDbLine
 62
7
  6
BYLAYER
 10
21.5771805295
 20
6.8912258311
 11
21.2546900384
 21
6.8912258311
  0
LINE
  5
21D
100
AcDbEntity
  8
0
100
AcDbLine
 62
7
  6
BYLAYER
 10
22.0633673312
 20
6.9280522264
 11
22.2796877325
 21
6.9280518164
  0
LINE
  5
21E
100
AcDbEntity
  8
0
100
AcDbLine
 62
7
  6
BYLAYER
 10
22.260954414
 20
7.0780499199
 11
22.1694425392
 21
7.0780499199
  0
LINE
  5
21F
100
AcDbEntity
  8
0
100
AcDbLine
 62
7
  6
BYLAYER
 10
22.0649879031
 20
7.2020026932
 11
22.2454739065
 21
7.2020026932
  0
LINE
  5
220
100
AcDbEntity
  8
0
100
AcDbLine
 62
7
  6
BYLAYER
 10
24.2067730705
 20
9.4148740087
 11
31.757902476
 21
9.4148740087
  0
LINE
  5
221
100
AcDbEntity
  8
0
100
AcDbLine
 62
7
  6
BYLAYER
 10
37.1275808213
 20
9.8280499199
 11
21.8788600255
 21
9.8280499199
  0
LINE
  5
222
100
AcDbEntity
  8
0
100
AcDbLine
 62
7
  6
BYLAYER
 10
21.2104223412
 20
9.8280499199
 11
18.8374372653
 21
9.8280499199
  0
LINE
  5
223
100
AcDbEntity
  8
0
100
AcDbLine
 62
7
  6
BYLAYER
 10
37.5606499367
 20
10.0780499199
 11
21.5722358624
 21
10.0780499199
  0
LINE
  5
224
100
AcDbEntity
  8
0
100
AcDbLine
 62
7
  6
BYLAYER
 10
20.8651292273
 20
10.0780499199
 11
18.4044434531
 21
10.0780499199
  0
LINE
  5
225
100
AcDbEntity
  8
0
100
AcDbLine
 62
7
  6
BYLAYER
 10
17.8371911218
 20
11.0601872567
 11
20.4636565108
 21
11.0601872567
  0
LINE
  5
226
100
AcDbEntity
  8
0
100
AcDbLine
 62
7
  6
BYLAYER
 10
21.170763292
 20
11.0601872567
 11
38.1276871925
 21
11.0601872567
  0
LINE
  5
227
100
AcDbEntity
  8
0
100
AcDbLine
 62
7
  6
BYLAYER
 10
20.9886150595
 20
11.2999205435
 11
21.123368135
 21
11.2999205435
  0
LINE
  5
228
100
AcDbEntity
  8
0
100
AcDbLine
 62
7
  6
BYLAYER
 10
38.1945983382
 20
11.3014610534
 11
21.1228642445
 21
11.3014610534
  0
LINE
  5
229
100
AcDbEntity
  8
0
100
AcDbLine
 62
7
  6
BYLAYER
 10
20.4167651739
 20
11.3014610534
 11
17.7702813135
 21
11.3014610534
  0
LINE
  5
22A
100
AcDbEntity
  8
0
100
AcDbLine
 62
7
  6
BYLAYER
 10
20.9323306878
 20
11.7624428283
 11
21.1176761632
 21
11.7624428283
  0
LINE
  5
22B
100
AcDbEntity
  8
0
100
AcDbLine
 62
7
  6
BYLAYER
 10
39.2823377732
 20
13.0280499199
 11
36.6823377732
 21
13.0280499199
  0
LINE
  5
22C
100
AcDbEntity
  8
0
100
AcDbLine
 62
7
  6
BYLAYER
 10
19.2823377732
 20
13.0280499199
 11
16.6823377732
 21
13.0280499199
  0
LINE
  5
22D
100
AcDbEntity
  8
0
100
AcDbLine
 62
7
  6
BYLAYER
 10
39.4823377732
 20
13.2280499199
 11
36.4823377732
 21
13.2280499199
  0
LINE
  5
22E
100
AcDbEntity
  8
0
100
AcDbLine
 62
7
  6
BYLAYER
 10
19.4823377732
 20
13.2280499199
 11
16.4823377732
 21
13.2280499199
  0
LINE
  5
22F
100
AcDbEntity
  8
0
100
AcDbLine
 62
7
  6
BYLAYER
 10
16.6823377732
 20
13.0280499199
 11
16.4823377732
 21
13.2280499199
  0
LINE
  5
230
100
AcDbEntity
  8
0
100
AcDbLine
 62
7
  6
BYLAYER
 10
19.2823377732
 20
64.3983305175
 11
19.4823377732
 21
64.5983305175
  0
LINE
  5
231
100
AcDbEntity
  8
0
100
AcDbLine
 62
7
  6
BYLAYER
 10
23.9823380064
 20
66.6483299037
 11
24.232338418
 21
66.898330275
  0
LINE
  5
232
100
AcDbEntity
  8
0
100
AcDbLine
 62
7
  6
BYLAYER
 10
36.4823377732
 20
16.3280499199
 11
21.0615422039
 21
16.3280499199
  0
LINE
  5
233
100
AcDbEntity
  8
0
100
AcDbLine
 62
7
  6
BYLAYER
 10
20.3536911769
 20
16.3280499199
 11
19.4823377732
 21
16.3280499199
  0
LINE
  5
234
100
AcDbEntity
  8
0
100
AcDbLine
 62
7
  6
BYLAYER
 10
21.0613023361
 20
16.3332860406
 11
20.8759146223
 21
16.3332860406
  0
LINE
  5
235
100
AcDbEntity
  8
0
100
AcDbLine
 62
7
  6
BYLAYER
 10
39.9822925639
 20
16.7280499199
 11
39.4823377732
 21
16.7280499199
  0
LINE
  5
236
100
AcDbEntity
  8
0
100
AcDbLine
 62
7
  6
BYLAYER
 10
38.7630187475
 20
16.7280499199
 11
33.5147592298
 21
16.7280499199
  0
LINE
  5
237
100
AcDbEntity
  8
0
100
AcDbLine
 62
7
  6
BYLAYER
 10
22.4499163167
 20
16.7280499199
 11
17.2016567989
 21
16.7280499199
  0
LINE
  5
238
100
AcDbEntity
  8
0
100
AcDbLine
 62
7
  6
BYLAYER
 10
16.4823377732
 20
16.7280499199
 11
15.9823829825
 21
16.7280499199
  0
LINE
  5
239
100
AcDbEntity
  8
0
100
AcDbLine
 62
7
  6
BYLAYER
 10
41.4823377732
 20
17.3280499199
 11
14.4823377732
 21
17.3280499199
  0
LINE
  5
23A
100
AcDbEntity
  8
0
100
AcDbLine
 62
7
  6
BYLAYER
 10
17.8369883539
 20
11.0601872567
 11
18.4040256097
 21
10.0780499199
  0
LINE
  5
23B
100
AcDbEntity
  8
0
100
AcDbLine
 62
7
  6
BYLAYER
 10
17.8369883539
 20
11.0601872567
 11
17.7700772082
 21
11.3014610534
  0
LINE
  5
23C
100
AcDbEntity
  8
0
100
AcDbLine
 62
7
  6
BYLAYER
 10
14.4823377732
 20
23.8280499199
 11
41.4823377732
 21
23.8280499199
  0
LINE
  5
23D
100
AcDbEntity
  8
0
100
AcDbLine
 62
7
  6
BYLAYER
 10
14.4823377732
 20
35.0280499199
 11
14.4823377732
 21
32.0280499199
  0
LINE
  5
23E
100
AcDbEntity
  8
0
100
AcDbLine
 62
7
  6
BYLAYER
 10
14.4823377732
 20
23.8280499199
 11
14.4823377732
 21
17.3280499199
  0
LINE
  5
23F
100
AcDbEntity
  8
0
100
AcDbLine
 62
7
  6
BYLAYER
 10
14.5323377732
 20
32.0280499199
 11
14.5323377732
 21
23.8280499199
  0
LINE
  5
240
100
AcDbEntity
  8
0
100
AcDbLine
 62
7
  6
BYLAYER
 10
15.1822421439
 20
17.3280499199
 11
15.1822384827
 21
23.8280499199
  0
LINE
  5
241
100
AcDbEntity
  8
0
100
AcDbLine
 62
7
  6
BYLAYER
 10
15.2323377732
 20
23.8280499199
 11
15.2323377732
 21
32.0280499199
  0
LINE
  5
242
100
AcDbEntity
  8
0
100
AcDbLine
 62
7
  6
BYLAYER
 10
15.4823377732
 20
32.0280499199
 11
15.4823377732
 21
35.0280499199
  0
LINE
  5
243
100
AcDbEntity
  8
0
100
AcDbLine
 62
7
  6
BYLAYER
 10
15.9823377732
 20
16.7280499199
 11
15.9823377732
 21
17.3280499199
  0
LINE
  5
244
100
AcDbEntity
  8
0
100
AcDbLine
 62
7
  6
BYLAYER
 10
16.1409966271
 20
16.7280499199
 11
16.1409966271
 21
17.3280499199
  0
LINE
  5
245
100
AcDbEntity
  8
0
100
AcDbLine
 62
7
  6
BYLAYER
 10
16.4823377732
 20
13.2280499199
 11
16.4823377732
 21
17.3280499199
  0
LINE
  5
246
100
AcDbEntity
  8
0
100
AcDbLine
 62
7
  6
BYLAYER
 10
14.9823377732
 20
35.0280499199
 11
15.133356043
 21
36.7541966427
  0
LINE
  5
247
100
AcDbEntity
  8
0
100
AcDbLine
 62
7
  6
BYLAYER
 10
16.6323377732
 20
45.5130499199
 11
17.1323377732
 21
46.0130499199
  0
LINE
  5
248
100
AcDbEntity
  8
0
100
AcDbLine
 62
7
  6
BYLAYER
 10
36.6823377732
 20
13.0280499199
 11
36.4823377732
 21
13.2280499199
  0
LINE
  5
249
100
AcDbEntity
  8
0
100
AcDbLine
 62
7
  6
BYLAYER
 10
17.7399394875
 20
13.0280499199
 11
17.7700772083
 21
11.3014610534
  0
LINE
  5
24A
100
AcDbEntity
  8
0
100
AcDbLine
 62
7
  6
BYLAYER
 10
16.6323377732
 20
40.5431145904
 11
16.6323377732
 21
45.5129852494
  0
LINE
  5
24B
100
AcDbEntity
  8
0
100
AcDbLine
 62
7
  6
BYLAYER
 10
17.1323377732
 20
40.0430499199
 11
17.1323377732
 21
46.0130499199
  0
LINE
  5
24C
100
AcDbEntity
  8
0
100
AcDbLine
 62
7
  6
BYLAYER
 10
17.2016567989
 20
17.3280499199
 11
17.2016567989
 21
16.7280499199
  0
LINE
  5
24D
100
AcDbEntity
  8
0
100
AcDbLine
 62
7
  6
BYLAYER
 10
17.3323377732
 20
36.0280499199
 11
17.3323377732
 21
54.0280499199
  0
LINE
  5
24E
100
AcDbEntity
  8
0
100
AcDbLine
 62
7
  6
BYLAYER
 10
18.4999758634
 20
16.7280499199
 11
18.4999758634
 21
17.3280499199
  0
LINE
  5
24F
100
AcDbEntity
  8
0
100
AcDbLine
 62
7
  6
BYLAYER
 10
16.3357361383
 20
16.7280499199
 11
16.3439405518
 21
17.3280499199
  0
LINE
  5
250
100
AcDbEntity
  8
0
100
AcDbLine
 62
7
  6
BYLAYER
 10
26.3395174502
 20
6.4280499199
 11
26.3261199906
 21
6.4780499199
  0
LINE
  5
251
100
AcDbEntity
  8
0
100
AcDbLine
 62
7
  6
BYLAYER
 10
21.854460875
 20
7.1760198788
 11
21.5162238308
 21
9.8887998759
  0
LINE
  5
252
100
AcDbEntity
  8
0
100
AcDbLine
 62
7
  6
BYLAYER
 10
21.7305735292
 20
9.8841409633
 11
22.0649879031
 21
7.2020026932
  0
LINE
  5
253
100
AcDbEntity
  8
0
100
AcDbLine
 62
7
  6
BYLAYER
 10
20.9739257864
 20
35.1241993688
 11
20.8529040982
 21
36.5074835949
  0
LINE
  5
254
100
AcDbEntity
  8
0
100
AcDbLine
 62
7
  6
BYLAYER
 10
20.3541955549
 20
16.3280499199
 11
20.4162613538
 21
11.3014610534
  0
LINE
  5
255
100
AcDbEntity
  8
0
100
AcDbLine
 62
7
  6
BYLAYER
 10
21.123368135
 20
11.3014610534
 11
21.0613023361
 21
16.3280499199
  0
LINE
  5
256
100
AcDbEntity
  8
0
100
AcDbLine
 62
7
  6
BYLAYER
 10
20.7202149031
 20
11.759806379
 11
20.6637839337
 21
16.3319771006
  0
LINE
  5
257
100
AcDbEntity
  8
0
100
AcDbLine
 62
7
  6
BYLAYER
 10
20.8759146223
 20
16.3332860406
 11
20.9323306878
 21
11.7624428283
  0
LINE
  5
258
100
AcDbEntity
  8
0
100
AcDbLine
 62
7
  6
BYLAYER
 10
18.9823377732
 20
32.8798045447
 11
18.9823377732
 21
32.0280499199
  0
LINE
  5
259
100
AcDbEntity
  8
0
100
AcDbLine
 62
7
  6
BYLAYER
 10
19.2823377732
 20
58.3983787318
 11
19.2823377732
 21
64.3982823031
  0
LINE
  5
25A
100
AcDbEntity
  8
0
100
AcDbLine
 62
7
  6
BYLAYER
 10
19.4823377732
 20
13.2280499199
 11
19.4823377732
 21
16.7280499199
  0
LINE
  5
25B
100
AcDbEntity
  8
0
100
AcDbLine
 62
7
  6
BYLAYER
 10
19.4823377732
 20
54.0280499199
 11
19.4823377732
 21
69.398320347
  0
LINE
  5
25C
100
AcDbEntity
  8
0
100
AcDbLine
 62
7
  6
BYLAYER
 10
20.3323377732
 20
36.0280499199
 11
20.3323377732
 21
54.0280499199
  0
LINE
  5
25D
100
AcDbEntity
  8
0
100
AcDbLine
 62
7
  6
BYLAYER
 10
20.3541955549
 20
16.3280499199
 11
20.3541839953
 21
16.7280499199
  0
LINE
  5
25E
100
AcDbEntity
  8
0
100
AcDbLine
 62
7
  6
BYLAYER
 10
20.6637836188
 20
16.7280499199
 11
20.6637839337
 21
16.3319771006
  0
LINE
  5
25F
100
AcDbEntity
  8
0
100
AcDbLine
 62
7
  6
BYLAYER
 10
20.8323377732
 20
36.5280841956
 11
20.8323377732
 21
50.0279693672
  0
LINE
  5
260
100
AcDbEntity
  8
0
100
AcDbLine
 62
7
  6
BYLAYER
 10
20.8759146223
 20
16.3332860406
 11
20.8759146223
 21
16.7280499199
  0
LINE
  5
261
100
AcDbEntity
  8
0
100
AcDbLine
 62
7
  6
BYLAYER
 10
20.9823377732
 20
36.0706853316
 11
20.9823377732
 21
36.3780499199
  0
LINE
  5
262
100
AcDbEntity
  8
0
100
AcDbLine
 62
7
  6
BYLAYER
 10
20.9823377732
 20
49.4425890268
 11
20.9823377732
 21
65.0078883093
  0
LINE
  5
263
100
AcDbEntity
  8
0
100
AcDbLine
 62
7
  6
BYLAYER
 10
21.0612907765
 20
16.7280499199
 11
21.0613023361
 21
16.3280499199
  0
LINE
  5
264
100
AcDbEntity
  8
0
100
AcDbLine
 62
7
  6
BYLAYER
 10
37.2823377732
 20
59.2983305175
 11
36.8823377732
 21
58.8983305175
  0
LINE
  5
265
100
AcDbEntity
  8
0
100
AcDbLine
 62
7
  6
BYLAYER
 10
34.6323377732
 20
32.0280499199
 11
21.3323377732
 21
32.0280499199
  0
LINE
  5
266
100
AcDbEntity
  8
0
100
AcDbLine
 62
7
  6
BYLAYER
 10
14.4823377732
 20
32.0280499199
 11
20.9823377732
 21
32.0280499199
  0
LINE
  5
267
100
AcDbEntity
  8
0
100
AcDbLine
 62
7
  6
BYLAYER
 10
34.9823377732
 20
32.0280499199
 11
41.4823377732
 21
32.0280499199
  0
LINE
  5
268
100
AcDbEntity
  8
0
100
AcDbLine
 62
7
  6
BYLAYER
 10
16.6323377732
 20
40.5430499199
 11
17.1323377732
 21
40.0430499199
  0
LINE
  5
269
100
AcDbEntity
  8
0
100
AcDbLine
 62
7
  6
BYLAYER
 10
20.8323377732
 20
36.5280499199
 11
21.3323377732
 21
36.0280499199
  0
LINE
  5
26A
100
AcDbEntity
  8
0
100
AcDbLine
 62
7
  6
BYLAYER
 10
21.3323377732
 20
36.0280499199
 11
21.3323377732
 21
37.2522554319
  0
LINE
  5
26B
100
AcDbEntity
  8
0
100
AcDbLine
 62
7
  6
BYLAYER
 10
22.4499163167
 20
17.3280499199
 11
22.4499163167
 21
16.7280499199
  0
LINE
  5
26C
100
AcDbEntity
  8
0
100
AcDbLine
 62
7
  6
BYLAYER
 10
22.9823377732
 20
32.0280499199
 11
22.9823377732
 21
35.0280499199
  0
LINE
  5
26D
100
AcDbEntity
  8
0
100
AcDbLine
 62
7
  6
BYLAYER
 10
20.8323377732
 20
39.9041177318
 11
20.3323377732
 21
39.4041177318
  0
LINE
  5
26E
100
AcDbEntity
  8
0
100
AcDbLine
 62
7
  6
BYLAYER
 10
23.6823377732
 20
69.3982154345
 11
23.6823377732
 21
58.0127293515
  0
LINE
  5
26F
100
AcDbEntity
  8
0
100
AcDbLine
 62
7
  6
BYLAYER
 10
23.9823377732
 20
58.0127293515
 11
23.9823377732
 21
66.6483299037
  0
LINE
  5
270
100
AcDbEntity
  8
0
100
AcDbLine
 62
7
  6
BYLAYER
 10
24.2323381756
 20
58.0127293515
 11
24.2323381756
 21
66.8983305175
  0
LINE
  5
271
100
AcDbEntity
  8
0
100
AcDbLine
 62
7
  6
BYLAYER
 10
24.4823377732
 20
58.0127293515
 11
24.4823377732
 21
71.3982465426
  0
LINE
  5
272
100
AcDbEntity
  8
0
100
AcDbLine
 62
7
  6
BYLAYER
 10
34.6323377732
 20
35.0280499199
 11
21.3323377732
 21
35.0280499199
  0
LINE
  5
273
100
AcDbEntity
  8
0
100
AcDbLine
 62
7
  6
BYLAYER
 10
14.4823377732
 20
35.0280499199
 11
17.5314775243
 21
35.0280499199
  0
LINE
  5
274
100
AcDbEntity
  8
0
100
AcDbLine
 62
7
  6
BYLAYER
 10
38.4332043717
 20
35.0280499199
 11
41.4823377732
 21
35.0280499199
  0
LINE
  5
275
100
AcDbEntity
  8
0
100
AcDbLine
 62
7
  6
BYLAYER
 10
21.3323377732
 20
36.0280499199
 11
34.6323377732
 21
36.0280499199
  0
LINE
  5
276
100
AcDbEntity
  8
0
100
AcDbLine
 62
7
  6
BYLAYER
 10
20.9823377732
 20
36.0706853316
 11
21.2897023615
 21
36.0706853316
  0
LINE
  5
277
100
AcDbEntity
  8
0
100
AcDbLine
 62
7
  6
BYLAYER
 10
34.6749731849
 20
36.0706853316
 11
34.9823377732
 21
36.0706853316
  0
LINE
  5
278
100
AcDbEntity
  8
0
100
AcDbLine
 62
7
  6
BYLAYER
 10
39.7057589698
 20
36.2280499199
 11
40.3084768802
 21
36.2280499199
  0
LINE
  5
279
100
AcDbEntity
  8
0
100
AcDbLine
 62
7
  6
BYLAYER
 10
15.133356043
 20
36.7541966427
 11
17.3323377732
 21
36.7541966427
  0
LINE
  5
27A
100
AcDbEntity
  8
0
100
AcDbLine
 62
7
  6
BYLAYER
 10
20.3323377732
 20
36.7541966427
 11
20.8313195034
 21
36.7541966427
  0
LINE
  5
27B
100
AcDbEntity
  8
0
100
AcDbLine
 62
7
  6
BYLAYER
 10
35.133356043
 20
36.7541966427
 11
35.6323377732
 21
36.7541966427
  0
LINE
  5
27C
100
AcDbEntity
  8
0
100
AcDbLine
 62
7
  6
BYLAYER
 10
38.6323377732
 20
36.7541966427
 11
39.6616044842
 21
36.7541966427
  0
LINE
  5
27D
100
AcDbEntity
  8
0
100
AcDbLine
 62
7
  6
BYLAYER
 10
40.2838069154
 20
36.7541966427
 11
40.8313195034
 21
36.7541966427
  0
LINE
  5
27E
100
AcDbEntity
  8
0
100
AcDbLine
 62
7
  6
BYLAYER
 10
15.4322144525
 20
37.0280499199
 11
17.3323377732
 21
37.0280499199
  0
LINE
  5
27F
100
AcDbEntity
  8
0
100
AcDbLine
 62
7
  6
BYLAYER
 10
20.3323377732
 20
37.0280499199
 11
20.532461094
 21
37.0280499199
  0
LINE
  5
280
100
AcDbEntity
  8
0
100
AcDbLine
 62
7
  6
BYLAYER
 10
35.4322144525
 20
37.0280499199
 11
35.6323377732
 21
37.0280499199
  0
LINE
  5
281
100
AcDbEntity
  8
0
100
AcDbLine
 62
7
  6
BYLAYER
 10
38.6323377732
 20
37.0280499199
 11
40.532461094
 21
37.0280499199
  0
LINE
  5
282
100
AcDbEntity
  8
0
100
AcDbLine
 62
7
  6
BYLAYER
 10
20.8323377732
 20
37.2522554319
 11
21.3323377732
 21
37.2522554319
  0
LINE
  5
283
100
AcDbEntity
  8
0
100
AcDbLine
 62
7
  6
BYLAYER
 10
34.6323377732
 20
37.2522554319
 11
35.1323377732
 21
37.2522554319
  0
LINE
  5
284
100
AcDbEntity
  8
0
100
AcDbLine
 62
7
  6
BYLAYER
 10
35.6323377732
 20
39.0185838258
 11
35.1323377732
 21
39.0185838258
  0
LINE
  5
285
100
AcDbEntity
  8
0
100
AcDbLine
 62
7
  6
BYLAYER
 10
20.8323377732
 20
39.0185838258
 11
20.3323377732
 21
39.0185838258
  0
LINE
  5
286
100
AcDbEntity
  8
0
100
AcDbLine
 62
7
  6
BYLAYER
 10
17.1323377732
 20
40.0430499199
 11
17.3323377732
 21
40.0430499199
  0
LINE
  5
287
100
AcDbEntity
  8
0
100
AcDbLine
 62
7
  6
BYLAYER
 10
20.3323377732
 20
40.0430499199
 11
20.8323377732
 21
40.0430499199
  0
LINE
  5
288
100
AcDbEntity
  8
0
100
AcDbLine
 62
7
  6
BYLAYER
 10
35.1323377732
 20
40.0430499199
 11
35.6323377732
 21
40.0430499199
  0
LINE
  5
289
100
AcDbEntity
  8
0
100
AcDbLine
 62
7
  6
BYLAYER
 10
38.6323377732
 20
41.0580499199
 11
39.6323377732
 21
41.0580499199
  0
LINE
  5
28A
100
AcDbEntity
  8
0
100
AcDbLine
 62
7
  6
BYLAYER
 10
31.4823377732
 20
71.3982465426
 11
31.4823377732
 21
58.0127293515
  0
LINE
  5
28B
100
AcDbEntity
  8
0
100
AcDbLine
 62
7
  6
BYLAYER
 10
31.7323372783
 20
66.8983305175
 11
31.7323372783
 21
58.0127293515
  0
LINE
  5
28C
100
AcDbEntity
  8
0
100
AcDbLine
 62
7
  6
BYLAYER
 10
31.9823377732
 20
66.6483298063
 11
31.9823377732
 21
58.0127293515
  0
LINE
  5
28D
100
AcDbEntity
  8
0
100
AcDbLine
 62
7
  6
BYLAYER
 10
32.2823377732
 20
58.0127293515
 11
32.2823377732
 21
69.3981936019
  0
LINE
  5
28E
100
AcDbEntity
  8
0
100
AcDbLine
 62
7
  6
BYLAYER
 10
32.9823377732
 20
32.0280499199
 11
32.9823377732
 21
35.0280499199
  0
LINE
  5
28F
100
AcDbEntity
  8
0
100
AcDbLine
 62
7
  6
BYLAYER
 10
17.3323377732
 20
42.9764122506
 11
20.3323377732
 21
42.9764122506
  0
LINE
  5
290
100
AcDbEntity
  8
0
100
AcDbLine
 62
7
  6
BYLAYER
 10
35.6323377732
 20
42.9764122506
 11
38.6323377732
 21
42.9764122506
  0
LINE
  5
291
100
AcDbEntity
  8
0
100
AcDbLine
 62
7
  6
BYLAYER
 10
33.5147592298
 20
16.7280499199
 11
33.5147592298
 21
17.3280499199
  0
LINE
  5
292
100
AcDbEntity
  8
0
100
AcDbLine
 62
7
  6
BYLAYER
 10
34.6323377732
 20
37.2522554319
 11
34.6323377732
 21
36.0280499199
  0
LINE
  5
293
100
AcDbEntity
  8
0
100
AcDbLine
 62
7
  6
BYLAYER
 10
34.9823377732
 20
65.0078883093
 11
34.9823377732
 21
49.4425890268
  0
LINE
  5
294
100
AcDbEntity
  8
0
100
AcDbLine
 62
7
  6
BYLAYER
 10
34.9823377732
 20
36.3780499199
 11
34.9823377732
 21
36.0706853316
  0
LINE
  5
295
100
AcDbEntity
  8
0
100
AcDbLine
 62
7
  6
BYLAYER
 10
35.1323377732
 20
50.0279490773
 11
35.1323377732
 21
36.5280841956
  0
LINE
  5
296
100
AcDbEntity
  8
0
100
AcDbLine
 62
7
  6
BYLAYER
 10
34.9907503023
 20
35.1242055676
 11
35.1117714482
 21
36.5074835949
  0
LINE
  5
297
100
AcDbEntity
  8
0
100
AcDbLine
 62
7
  6
BYLAYER
 10
40.1323377732
 20
41.5580499199
 11
39.6323377732
 21
41.0580499199
  0
LINE
  5
298
100
AcDbEntity
  8
0
100
AcDbLine
 62
7
  6
BYLAYER
 10
35.1323377732
 20
36.5280499199
 11
34.6323377732
 21
36.0280499199
  0
LINE
  5
299
100
AcDbEntity
  8
0
100
AcDbLine
 62
7
  6
BYLAYER
 10
38.6323377732
 20
44.9980499199
 11
39.6323377732
 21
44.9980499199
  0
LINE
  5
29A
100
AcDbEntity
  8
0
100
AcDbLine
 62
7
  6
BYLAYER
 10
17.1323377732
 20
46.0130499199
 11
17.3323377732
 21
46.0130499199
  0
LINE
  5
29B
100
AcDbEntity
  8
0
100
AcDbLine
 62
7
  6
BYLAYER
 10
20.3323377732
 20
46.0130499199
 11
20.8323377732
 21
46.0130499199
  0
LINE
  5
29C
100
AcDbEntity
  8
0
100
AcDbLine
 62
7
  6
BYLAYER
 10
35.1323377732
 20
46.0130499199
 11
35.6323377732
 21
46.0130499199
  0
LINE
  5
29D
100
AcDbEntity
  8
0
100
AcDbLine
 62
7
  6
BYLAYER
 10
35.1323377732
 20
39.9041177318
 11
35.6323377732
 21
39.4041177318
  0
LINE
  5
29E
100
AcDbEntity
  8
0
100
AcDbLine
 62
7
  6
BYLAYER
 10
35.6323377732
 20
36.0280499199
 11
35.6323377732
 21
54.0280499199
  0
LINE
  5
29F
100
AcDbEntity
  8
0
100
AcDbLine
 62
7
  6
BYLAYER
 10
36.4823377732
 20
69.3982971289
 11
36.4823377732
 21
54.0280499199
  0
LINE
  5
2A0
100
AcDbEntity
  8
0
100
AcDbLine
 62
7
  6
BYLAYER
 10
36.4823377732
 20
13.2280499199
 11
36.4823377732
 21
16.7280499199
  0
LINE
  5
2A1
100
AcDbEntity
  8
0
100
AcDbLine
 62
7
  6
BYLAYER
 10
36.8823377732
 20
63.8983305175
 11
36.8823377732
 21
58.8983305175
  0
LINE
  5
2A2
100
AcDbEntity
  8
0
100
AcDbLine
 62
7
  6
BYLAYER
 10
36.9823377732
 20
32.0280499199
 11
36.9823377732
 21
32.8798099564
  0
LINE
  5
2A3
100
AcDbEntity
  8
0
100
AcDbLine
 62
7
  6
BYLAYER
 10
37.2823377732
 20
63.4982759212
 11
37.2823377732
 21
59.2983851137
  0
LINE
  5
2A4
100
AcDbEntity
  8
0
100
AcDbLine
 62
7
  6
BYLAYER
 10
37.464699683
 20
17.3280499199
 11
37.464699683
 21
16.7280499199
  0
LINE
  5
2A5
100
AcDbEntity
  8
0
100
AcDbLine
 62
7
  6
BYLAYER
 10
20.3323377732
 20
47.1472049099
 11
20.8323377732
 21
47.1472049099
  0
LINE
  5
2A6
100
AcDbEntity
  8
0
100
AcDbLine
 62
7
  6
BYLAYER
 10
35.1323377732
 20
47.1472049099
 11
35.6323377732
 21
47.1472049099
  0
LINE
  5
2A7
100
AcDbEntity
  8
0
100
AcDbLine
 62
7
  6
BYLAYER
 10
19.2823377732
 20
58.3983305175
 11
19.4823377732
 21
58.1983305175
  0
LINE
  5
2A8
100
AcDbEntity
  8
0
100
AcDbLine
 62
7
  6
BYLAYER
 10
39.6207349946
 20
17.3280499199
 11
39.6289394082
 21
16.7280499199
  0
LINE
  5
2A9
100
AcDbEntity
  8
0
100
AcDbLine
 62
7
  6
BYLAYER
 10
38.6323377732
 20
36.0280499199
 11
38.6323377732
 21
54.0280499199
  0
LINE
  5
2AA
100
AcDbEntity
  8
0
100
AcDbLine
 62
7
  6
BYLAYER
 10
38.7630187475
 20
16.7280499199
 11
38.7630187475
 21
17.3280499199
  0
LINE
  5
2AB
100
AcDbEntity
  8
0
100
AcDbLine
 62
7
  6
BYLAYER
 10
39.4823377732
 20
13.2280499199
 11
39.4823377732
 21
17.3280499199
  0
LINE
  5
2AC
100
AcDbEntity
  8
0
100
AcDbLine
 62
7
  6
BYLAYER
 10
39.6323377732
 20
44.9980499199
 11
39.6323377732
 21
41.0580499199
  0
LINE
  5
2AD
100
AcDbEntity
  8
0
100
AcDbLine
 62
7
  6
BYLAYER
 10
39.8236789193
 20
17.3280499199
 11
39.8236789193
 21
16.7280499199
  0
LINE
  5
2AE
100
AcDbEntity
  8
0
100
AcDbLine
 62
7
  6
BYLAYER
 10
39.9823377732
 20
16.7280499199
 11
39.9823377732
 21
17.3280499199
  0
LINE
  5
2AF
100
AcDbEntity
  8
0
100
AcDbLine
 62
7
  6
BYLAYER
 10
38.1945983382
 20
11.3014610534
 11
38.2247360589
 21
13.0280499199
  0
LINE
  5
2B0
100
AcDbEntity
  8
0
100
AcDbLine
 62
7
  6
BYLAYER
 10
29.6251580962
 20
6.4280499199
 11
29.6385555559
 21
6.4780499199
  0
LINE
  5
2B1
100
AcDbEntity
  8
0
100
AcDbLine
 62
7
  6
BYLAYER
 10
20.3323377732
 20
49.349124589
 11
20.8323377732
 21
49.349124589
  0
LINE
  5
2B2
100
AcDbEntity
  8
0
100
AcDbLine
 62
7
  6
BYLAYER
 10
35.1323377732
 20
49.349124589
 11
35.6323377732
 21
49.349124589
  0
LINE
  5
2B3
100
AcDbEntity
  8
0
100
AcDbLine
 62
7
  6
BYLAYER
 10
34.9823377732
 20
49.4425890268
 11
20.9823377732
 21
49.4425890268
  0
LINE
  5
2B4
100
AcDbEntity
  8
0
100
AcDbLine
 62
7
  6
BYLAYER
 10
38.6323377732
 20
49.658961182
 11
35.6323377732
 21
49.658961182
  0
LINE
  5
2B5
100
AcDbEntity
  8
0
100
AcDbLine
 62
7
  6
BYLAYER
 10
20.3323377732
 20
49.658961182
 11
17.3323377732
 21
49.658961182
  0
LINE
  5
2B6
100
AcDbEntity
  8
0
100
AcDbLine
 62
7
  6
BYLAYER
 10
20.8323377732
 20
50.0280499199
 11
20.9823377732
 21
50.0280499199
  0
LINE
  5
2B7
100
AcDbEntity
  8
0
100
AcDbLine
 62
7
  6
BYLAYER
 10
34.9823377732
 20
50.0280499199
 11
35.1323377732
 21
50.0280499199
  0
LINE
  5
2B8
100
AcDbEntity
  8
0
100
AcDbLine
 62
7
  6
BYLAYER
 10
40.9823377732
 20
35.0280499199
 11
40.8313195034
 21
36.7541966427
  0
LINE
  5
2B9
100
AcDbEntity
  8
0
100
AcDbLine
 62
7
  6
BYLAYER
 10
40.1323377732
 20
44.4979927115
 11
40.1323377732
 21
41.5581071282
  0
LINE
  5
2BA
100
AcDbEntity
  8
0
100
AcDbLine
 62
7
  6
BYLAYER
 10
40.4823377732
 20
35.0280499199
 11
40.4823377732
 21
32.0280499199
  0
LINE
  5
2BB
100
AcDbEntity
  8
0
100
AcDbLine
 62
7
  6
BYLAYER
 10
40.7323377732
 20
32.0280499199
 11
40.7323377732
 21
23.8280499199
  0
LINE
  5
2BC
100
AcDbEntity
  8
0
100
AcDbLine
 62
7
  6
BYLAYER
 10
40.7824334034
 20
17.3280499199
 11
40.7824370642
 21
23.8280499199
  0
LINE
  5
2BD
100
AcDbEntity
  8
0
100
AcDbLine
 62
7
  6
BYLAYER
 10
41.4323377732
 20
23.8280499199
 11
41.4323377732
 21
32.0280499199
  0
LINE
  5
2BE
100
AcDbEntity
  8
0
100
AcDbLine
 62
7
  6
BYLAYER
 10
41.4823377732
 20
17.3280499199
 11
41.4823377732
 21
23.8280499199
  0
LINE
  5
2BF
100
AcDbEntity
  8
0
100
AcDbLine
 62
7
  6
BYLAYER
 10
41.4823377732
 20
32.0280499199
 11
41.4823377732
 21
35.0280499199
  0
LINE
  5
2C0
100
AcDbEntity
  8
0
100
AcDbLine
 62
7
  6
BYLAYER
 10
19.2823377732
 20
13.0280499199
 11
19.4823377732
 21
13.2280499199
  0
LINE
  5
2C1
100
AcDbEntity
  8
0
100
AcDbLine
 62
7
  6
BYLAYER
 10
40.1323377732
 20
44.4980499199
 11
39.6323377732
 21
44.9980499199
  0
LINE
  5
2C2
100
AcDbEntity
  8
0
100
AcDbLine
 62
7
  6
BYLAYER
 10
20.3323377732
 20
53.3983305175
 11
20.9823377732
 21
53.3983305175
  0
LINE
  5
2C3
100
AcDbEntity
  8
0
100
AcDbLine
 62
7
  6
BYLAYER
 10
34.9823377732
 20
53.3983305175
 11
35.6323377732
 21
53.3983305175
  0
LINE
  5
2C4
100
AcDbEntity
  8
0
100
AcDbLine
 62
7
  6
BYLAYER
 10
38.6323377732
 20
54.0280499199
 11
35.6323377732
 21
54.0280499199
  0
LINE
  5
2C5
100
AcDbEntity
  8
0
100
AcDbLine
 62
7
  6
BYLAYER
 10
17.3323377732
 20
54.0280499199
 11
20.3323377732
 21
54.0280499199
  0
LINE
  5
2C6
100
AcDbEntity
  8
0
100
AcDbLine
 62
7
  6
BYLAYER
 10
38.1276871925
 20
11.0601872567
 11
38.1945983382
 21
11.3014610534
  0
LINE
  5
2C7
100
AcDbEntity
  8
0
100
AcDbLine
 62
7
  6
BYLAYER
 10
20.9823377732
 20
58.0127293515
 11
34.9823377732
 21
58.0127293515
  0
LINE
  5
2C8
100
AcDbEntity
  8
0
100
AcDbLine
 62
7
  6
BYLAYER
 10
36.4823377732
 20
58.8983305175
 11
36.8823377732
 21
58.8983305175
  0
LINE
  5
2C9
100
AcDbEntity
  8
0
100
AcDbLine
 62
7
  6
BYLAYER
 10
37.5606499367
 20
10.0780499199
 11
38.1276871925
 21
11.0601872567
  0
LINE
  5
2CA
100
AcDbEntity
  8
0
100
AcDbLine
 62
7
  6
BYLAYER
 10
32.2823377732
 20
64.8983305175
 11
31.9823377732
 21
65.1983305175
  0
LINE
  5
2CB
100
AcDbEntity
  8
0
100
AcDbLine
 62
7
  6
BYLAYER
 10
31.9823375302
 20
66.6483298063
 11
31.732337026
 21
66.8983302652
  0
LINE
  5
2CC
100
AcDbEntity
  8
0
100
AcDbLine
 62
7
  6
BYLAYER
 10
36.4823377732
 20
63.8983305175
 11
36.8823377732
 21
63.8983305175
  0
LINE
  5
2CD
100
AcDbEntity
  8
0
100
AcDbLine
 62
7
  6
BYLAYER
 10
37.2823377732
 20
63.4983305175
 11
36.8823377732
 21
63.8983305175
  0
LINE
  5
2CE
100
AcDbEntity
  8
0
100
AcDbLine
 62
7
  6
BYLAYER
 10
39.2823377732
 20
13.0280499199
 11
39.4823377732
 21
13.2280499199
  0
LINE
  5
2CF
100
AcDbEntity
  8
0
100
AcDbLine
 62
7
  6
BYLAYER
 10
20.9823377732
 20
65.0078883093
 11
23.6823377732
 21
65.0078883093
  0
LINE
  5
2D0
100
AcDbEntity
  8
0
100
AcDbLine
 62
7
  6
BYLAYER
 10
32.2823377732
 20
65.0078883093
 11
34.9823377732
 21
65.0078883093
  0
LINE
  5
2D1
100
AcDbEntity
  8
0
100
AcDbLine
 62
7
  6
BYLAYER
 10
23.6823377732
 20
65.3983305175
 11
23.9823377732
 21
65.3983305175
  0
LINE
  5
2D2
100
AcDbEntity
  8
0
100
AcDbLine
 62
7
  6
BYLAYER
 10
24.2323386605
 20
66.8983305175
 11
24.4823377732
 21
66.8983305175
  0
LINE
  5
2D3
100
AcDbEntity
  8
0
100
AcDbLine
 62
7
  6
BYLAYER
 10
31.4823377732
 20
66.8983305175
 11
31.7323367737
 21
66.8983305175
  0
LINE
  5
2D4
100
AcDbEntity
  8
0
100
AcDbLine
 62
7
  6
BYLAYER
 10
19.4823377732
 20
69.3983305175
 11
23.6823377732
 21
69.3983305175
  0
LINE
  5
2D5
100
AcDbEntity
  8
0
100
AcDbLine
 62
7
  6
BYLAYER
 10
32.2823377732
 20
69.3983305175
 11
36.4823377732
 21
69.3983305175
  0
LINE
  5
2D6
100
AcDbEntity
  8
0
100
AcDbLine
 62
7
  6
BYLAYER
 10
31.4823377732
 20
71.3983305175
 11
24.4823377732
 21
71.3983305175
  0
ARC
  5
2D7
100
AcDbEntity
  8
0
100
AcDbCircle
 62
7
  6
BYLAYER
 10
34.6323377732
 20
36.0280499199
 40
4.0
100
AcDbArc
 50
270.0
 51
360.0
  0
ARC
  5
2D8
100
AcDbEntity
  8
0
100
AcDbCircle
 62
7
  6
BYLAYER
 10
21.3323377732
 20
36.0280499199
 40
4.0
100
AcDbArc
 50
180.0
 51
270.0
  0
ARC
  5
2D9
100
AcDbEntity
  8
0
100
AcDbCircle
 62
7
  6
BYLAYER
 10
23.4235417541
 20
11.8744783451
 40
2.5017962898
100
AcDbArc
 50
193.276943957
 51
199.8662010963
  0
ARC
  5
2DA
100
AcDbEntity
  8
0
100
AcDbCircle
 62
7
  6
BYLAYER
 10
34.6323377732
 20
36.0280499199
 40
1.0
100
AcDbArc
 50
270.0
 51
360.0
  0
ARC
  5
2DB
100
AcDbEntity
  8
0
100
AcDbCircle
 62
7
  6
BYLAYER
 10
21.3323377732
 20
36.0280499199
 40
1.0
100
AcDbArc
 50
180.0
 51
270.0
  0
ARC
  5
2DC
100
AcDbEntity
  8
0
100
AcDbCircle
 62
7
  6
BYLAYER
 10
37.1276372348
 20
10.3280499199
 40
0.5
100
AcDbArc
 50
270.0
 51
330.0
  0
ARC
  5
2DD
100
AcDbEntity
  8
0
100
AcDbCircle
 62
7
  6
BYLAYER
 10
18.8370383116
 20
10.3280499199
 40
0.5
100
AcDbArc
 50
210.0
 51
270.0
  0
ARC
  5
2DE
100
AcDbEntity
  8
0
100
AcDbCircle
 62
7
  6
BYLAYER
 10
40.532461094
 20
36.7280499199
 40
0.3
100
AcDbArc
 50
5.0
 51
90.0
  0
ARC
  5
2DF
100
AcDbEntity
  8
0
100
AcDbCircle
 62
7
  6
BYLAYER
 10
35.4322144525
 20
36.7280499199
 40
0.3
100
AcDbArc
 50
90.0
 51
175.0
  0
ARC
  5
2E0
100
AcDbEntity
  8
0
100
AcDbCircle
 62
7
  6
BYLAYER
 10
20.532461094
 20
36.7280499199
 40
0.3
100
AcDbArc
 50
5.0
 51
90.0
  0
ARC
  5
2E1
100
AcDbEntity
  8
0
100
AcDbCircle
 62
7
  6
BYLAYER
 10
15.4322144525
 20
36.7280499199
 40
0.3
100
AcDbArc
 50
90.0
 51
175.0
  0
LINE
  5
2E2
100
AcDbEntity
  8
0
100
AcDbLine
 62
7
  6
BYLAYER
 10
39.7057589698
 20
36.2280499199
 11
39.6616044842
 21
36.7541966427
  0
SPLINE
  5
2E3
100
AcDbEntity
  8
0
100
AcDbSpline
 62
7
  6
BYLAYER
 70
0
 71
3
 72
13
 73
9
 74
0
 42
0.0000001
 43
0.0000001
 44
0.0000000001
 40
0.0
 40
0.0
 40
0.0
 40
0.0
 40
0.1041504771
 40
0.2121601869
 40
0.3262366567
 40
0.4478799882
 40
0.713049073
 40
1.0
 40
1.0
 40
1.0
 40
1.0
 10
39.4414403868
 20
37.0280499199
 30
0.0
 10
39.4547291582
 20
37.0280499199
 30
0.0
 10
39.4819108707
 20
37.0244763286
 30
0.0
 10
39.520933451
 20
37.0089493733
 30
0.0
 10
39.557277592
 20
36.9837938118
 30
0.0
 10
39.6017712515
 20
36.9374262586
 30
0.0
 10
39.6435133263
 20
36.8604781028
 30
0.0
 10
39.6585388961
 20
36.7906807285
 30
0.0
 10
39.6616044842
 20
36.7541966427
 30
0.0
  0
SPLINE
  5
2E4
100
AcDbEntity
  8
0
100
AcDbSpline
 62
7
  6
BYLAYER
 70
0
 71
3
 72
13
 73
9
 74
0
 42
0.0000001
 43
0.0000001
 44
0.0000000001
 40
0.0
 40
0.0
 40
0.0
 40
0.0
 40
0.2884090882
 40
0.5527062587
 40
0.6735902953
 40
0.7870891708
 40
0.8950568292
 40
1.0
 40
1.0
 40
1.0
 40
1.0
 10
40.2838069154
 20
36.7541966427
 30
0.0
 10
40.2821006117
 20
36.7905064885
 30
0.0
 10
40.2698024769
 20
36.8600479265
 30
0.0
 10
40.2308406206
 20
36.9373427408
 30
0.0
 10
40.187962849
 20
36.9838107526
 30
0.0
 10
40.152485239
 20
37.0090008544
 30
0.0
 10
40.113964257
 20
37.0245218469
 30
0.0
 10
40.0870108986
 20
37.0280499199
 30
0.0
 10
40.0737842855
 20
37.0280499199
 30
0.0
  0
LINE
  5
2E5
100
AcDbEntity
  8
0
100
AcDbLine
 62
7
  6
BYLAYER
 10
40.2838069154
 20
36.7541966427
 11
40.3084768802
 21
36.2280499199
  0
LINE
  5
2E6
100
AcDbEntity
  8
0
100
AcDbLine
 62
7
  6
BYLAYER
 10
21.170763292
 20
11.0601872567
 11
21.5722467582
 21
10.0780234525
  0
SPLINE
  5
2E7
100
AcDbEntity
  8
0
100
AcDbSpline
 62
7
  6
BYLAYER
 70
0
 71
3
 72
9
 73
5
 74
0
 42
0.0000001
 43
0.0000001
 44
0.0000000001
 40
0.0
 40
0.0
 40
0.0
 40
0.0
 40
0.2558910568
 40
1.0
 40
1.0
 40
1.0
 40
1.0
 10
21.123368135
 20
11.3014610534
 30
0.0
 10
21.1236281196
 20
11.2804222252
 30
0.0
 10
21.128347957
 20
11.1983218964
 30
0.0
 10
21.1476138967
 20
11.1168225573
 30
0.0
 10
21.170763292
 20
11.0601872567
 30
0.0
  0
SPLINE
  5
2E8
100
AcDbEntity
  8
0
100
AcDbSpline
 62
7
  6
BYLAYER
 70
0
 71
3
 72
12
 73
8
 74
0
 42
0.0000001
 43
0.0000001
 44
0.0000000001
 40
0.0
 40
0.0
 40
0.0
 40
0.0
 40
0.1107560161
 40
0.2235434537
 40
0.4598834361
 40
0.7182719091
 40
1.0
 40
1.0
 40
1.0
 40
1.0
 10
21.8788666559
 20
9.8280499199
 30
0.0
 10
21.8634171214
 20
9.8280499199
 30
0.0
 10
21.832160863
 20
9.8309825104
 30
0.0
 10
21.7701255061
 20
9.8484625097
 30
0.0
 10
21.6960925917
 20
9.8930486477
 30
0.0
 10
21.6228877726
 20
9.9744858862
 30
0.0
 10
21.5871176492
 20
10.0416470215
 30
0.0
 10
21.5722467582
 20
10.0780234525
 30
0.0
  0
SPLINE
  5
2E9
100
AcDbEntity
  8
0
100
AcDbSpline
 62
7
  6
BYLAYER
 70
0
 71
3
 72
13
 73
9
 74
0
 42
0.0000001
 43
0.0000001
 44
0.0000000001
 40
0.0
 40
0.0
 40
0.0
 40
0.0
 40
0.1054118569
 40
0.2140043244
 40
0.3280365242
 40
0.4491343625
 40
0.7127298658
 40
1.0
 40
1.0
 40
1.0
 40
1.0
 10
22.6331725853
 20
6.4780499199
 30
0.0
 10
22.6125461239
 20
6.4780499199
 30
0.0
 10
22.5705030966
 20
6.4832928854
 30
0.0
 10
22.5100215425
 20
6.5063912355
 30
0.0
 10
22.4536368381
 20
6.5439849631
 30
0.0
 10
22.3842654202
 20
6.613370186
 30
0.0
 10
22.317718156
 20
6.7294523173
 30
0.0
 10
22.2912714897
 20
6.8353023042
 30
0.0
 10
22.2843050903
 20
6.8910805281
 30
0.0
  0
LINE
  5
2EA
100
AcDbEntity
  8
0
100
AcDbLine
 62
7
  6
BYLAYER
 10
20.886148797
 20
9.8280499199
 11
21.2546900384
 21
6.8912258311
  0
LINE
  5
2EB
100
AcDbEntity
  8
0
100
AcDbLine
 62
7
  6
BYLAYER
 10
21.9175291224
 20
9.8280499199
 11
22.2843050903
 21
6.8910805281
  0
LINE
  5
2EC
100
AcDbEntity
  8
0
100
AcDbLine
 62
7
  6
BYLAYER
 10
34.7099855081
 20
6.8912258311
 11
35.0785267494
 21
9.8280499199
  0
SPLINE
  5
2ED
100
AcDbEntity
  8
0
100
AcDbSpline
 62
7
  6
BYLAYER
 70
0
 71
3
 72
13
 73
9
 74
0
 42
0.0000001
 43
0.0000001
 44
0.0000000001
 40
0.0
 40
0.0
 40
0.0
 40
0.0
 40
0.2873665127
 40
0.5508910876
 40
0.6718971378
 40
0.7858756266
 40
0.8945211624
 40
1.0
 40
1.0
 40
1.0
 40
1.0
 10
34.7099855081
 20
6.8912258311
 30
0.0
 10
34.7029641975
 20
6.8352965174
 30
0.0
 10
34.6763235011
 20
6.729200238
 30
0.0
 10
34.6092944581
 20
6.6130011126
 30
0.0
 10
34.5394758531
 20
6.5437719498
 30
0.0
 10
34.4827821738
 20
6.5063874133
 30
0.0
 10
34.4221160062
 20
6.4833463643
 30
0.0
 10
34.3799528593
 20
6.4780499199
 30
0.0
 10
34.3592626811
 20
6.4780499199
 30
0.0
  0
SPLINE
  5
2EE
100
AcDbEntity
  8
0
100
AcDbSpline
 62
7
  6
BYLAYER
 70
0
 71
3
 72
14
 73
10
 74
0
 42
0.0000001
 43
0.0000001
 44
0.0000000001
 40
0.0
 40
0.0
 40
0.0
 40
0.0
 40
0.1053939692
 40
0.213953768
 40
0.327840958
 40
0.4487511702
 40
0.5772236863
 40
0.7128750645
 40
1.0
 40
1.0
 40
1.0
 40
1.0
 10
21.6054129263
 20
6.4780499199
 30
0.0
 10
21.5847225784
 20
6.4780499199
 30
0.0
 10
21.5425590332
 20
6.4833473917
 30
0.0
 10
21.4818911351
 20
6.5063879522
 30
0.0
 10
21.4251974795
 20
6.5437696423
 30
0.0
 10
21.3742706938
 20
6.5942692196
 30
0.0
 10
21.3304275538
 20
6.6562799845
 30
0.0
 10
21.2823035293
 20
6.7535502315
 30
0.0
 10
21.2617111531
 20
6.835298077
 30
0.0
 10
21.2546900384
 20
6.8912258311
 30
0.0
  0
SPLINE
  5
2EF
100
AcDbEntity
  8
0
100
AcDbSpline
 62
7
  6
BYLAYER
 70
0
 71
3
 72
13
 73
9
 74
0
 42
0.0000001
 43
0.0000001
 44
0.0000000001
 40
0.0
 40
0.0
 40
0.0
 40
0.0
 40
0.1052891882
 40
0.2139644212
 40
0.3280686666
 40
0.449111373
 40
0.7127644607
 40
1.0
 40
1.0
 40
1.0
 40
1.0
 10
22.0633673312
 20
6.9280522264
 30
0.0
 10
22.0510125749
 20
6.9280522264
 30
0.0
 10
22.025810982
 20
6.931261762
 30
0.0
 10
21.98955484
 20
6.9451495357
 30
0.0
 10
21.9557715341
 20
6.9677606127
 30
0.0
 10
21.9142021072
 20
7.0094083437
 30
0.0
 10
21.8743904924
 20
7.0790808444
 30
0.0
 10
21.8586309382
 20
7.1425742887
 30
0.0
 10
21.854460875
 20
7.1760198788
 30
0.0
  0
SPLINE
  5
2F0
100
AcDbEntity
  8
0
100
AcDbSpline
 62
7
  6
BYLAYER
 70
0
 71
3
 72
13
 73
9
 74
0
 42
0.0000001
 43
0.0000001
 44
0.0000000001
 40
0.0
 40
0.0
 40
0.0
 40
0.0
 40
0.2872739411
 40
0.5508718849
 40
0.6719688336
 40
0.7859989618
 40
0.8945885838
 40
1.0
 40
1.0
 40
1.0
 40
1.0
 10
21.5771930521
 20
6.8911226213
 30
0.0
 10
21.5841604315
 20
6.8353365502
 30
0.0
 10
21.6105998644
 20
6.729469814
 30
0.0
 10
21.6771531197
 20
6.6133685567
 30
0.0
 10
21.7465346634
 20
6.5439757608
 30
0.0
 10
21.8029281064
 20
6.5063810482
 30
0.0
 10
21.863419884
 20
6.4832883922
 30
0.0
 10
21.9054677219
 20
6.4780499199
 30
0.0
 10
21.9260967255
 20
6.4780499199
 30
0.0
  0
SPLINE
  5
2F1
100
AcDbEntity
  8
0
100
AcDbSpline
 62
7
  6
BYLAYER
 70
0
 71
3
 72
12
 73
8
 74
0
 42
0.0000001
 43
0.0000001
 44
0.0000000001
 40
0.0
 40
0.0
 40
0.0
 40
0.0
 40
0.2817288679
 40
0.5401172502
 40
0.7764566833
 40
0.8892436036
 40
1.0
 40
1.0
 40
1.0
 40
1.0
 10
20.8651399466
 20
10.0780235275
 30
0.0
 10
20.8800112879
 20
10.0416459948
 30
0.0
 10
20.9157826514
 20
9.9744829298
 30
0.0
 10
20.9889905998
 20
9.8930444763
 30
0.0
 10
21.0630264141
 20
9.8484582454
 30
0.0
 10
21.1250644771
 20
9.8309813825
 30
0.0
 10
21.1563215677
 20
9.8280499199
 30
0.0
 10
21.1717715807
 20
9.8280499199
 30
0.0
  0
LINE
  5
2F2
100
AcDbEntity
  8
0
100
AcDbLine
 62
7
  6
BYLAYER
 10
31.4390624988
 20
6.8912258311
 11
31.757902476
 21
9.4148740087
  0
LINE
  5
2F3
100
AcDbEntity
  8
0
100
AcDbLine
 62
7
  6
BYLAYER
 10
24.2067730705
 20
9.4148740087
 11
24.5256130477
 21
6.8912258311
  0
SPLINE
  5
2F4
100
AcDbEntity
  8
0
100
AcDbSpline
 62
7
  6
BYLAYER
 70
0
 71
3
 72
13
 73
9
 74
0
 42
0.0000001
 43
0.0000001
 44
0.0000000001
 40
0.0
 40
0.0
 40
0.0
 40
0.0
 40
0.2870578319
 40
0.5535851312
 40
0.6754532606
 40
0.7893508235
 40
0.8967447968
 40
1.0
 40
1.0
 40
1.0
 40
1.0
 10
22.063376522
 20
6.9280499199
 30
0.0
 10
22.063376522
 20
6.9473724495
 30
0.0
 10
22.068409338
 20
6.9848236896
 30
0.0
 10
22.0875024197
 20
7.0270702629
 30
0.0
 10
22.1095306124
 20
7.052988141
 30
0.0
 10
22.1280008589
 20
7.0672020013
 30
0.0
 10
22.1482481083
 20
7.0759971086
 30
0.0
 10
22.1624921915
 20
7.0780499199
 30
0.0
 10
22.1694425392
 20
7.0780499199
 30
0.0
  0
SPLINE
  5
2F5
100
AcDbEntity
  8
0
100
AcDbSpline
 62
7
  6
BYLAYER
 70
0
 71
3
 72
11
 73
7
 74
0
 42
0.0000001
 43
0.0000001
 44
0.0000000001
 40
0.0
 40
0.0
 40
0.0
 40
0.0
 40
0.2286317406
 40
0.4984452907
 40
0.7690687819
 40
1.0
 40
1.0
 40
1.0
 40
1.0
 10
22.0649879032
 20
7.2020026931
 30
0.0
 10
22.0487941298
 20
7.2020026931
 30
0.0
 10
22.0134972024
 20
7.2002481106
 30
0.0
 10
21.9592827868
 20
7.1948047184
 30
0.0
 10
21.9052153028
 20
7.1868436924
 30
0.0
 10
21.8703378968
 20
7.1799130346
 30
0.0
 10
21.8544672499
 20
7.1759554665
 30
0.0
  0
SPLINE
  5
2F6
100
AcDbEntity
  8
0
100
AcDbSpline
 62
7
  6
BYLAYER
 70
0
 71
3
 72
12
 73
8
 74
0
 42
0.0000001
 43
0.0000001
 44
0.0000000001
 40
0.0
 40
0.0
 40
0.0
 40
0.0
 40
0.1054077584
 40
0.2141976133
 40
0.4484812058
 40
0.7124491929
 40
1.0
 40
1.0
 40
1.0
 40
1.0
 10
22.1694425391
 20
7.0780499199
 30
0.0
 10
22.1632660605
 20
7.0780499199
 30
0.0
 10
22.1506667595
 20
7.0796525823
 30
0.0
 10
22.1259184353
 20
7.0891191078
 30
0.0
 10
22.0980922415
 20
7.1129451063
 30
0.0
 10
22.0749946549
 20
7.1535114957
 30
0.0
 10
22.0670725717
 20
7.18528281
 30
0.0
 10
22.0649879031
 20
7.2020026932
 30
0.0
  0
SPLINE
  5
2F7
100
AcDbEntity
  8
0
100
AcDbSpline
 62
7
  6
BYLAYER
 70
0
 71
3
 72
11
 73
7
 74
0
 42
0.0000001
 43
0.0000001
 44
0.0000000001
 40
0.0
 40
0.0
 40
0.0
 40
0.0
 40
0.2205747256
 40
0.4788208684
 40
0.7476540544
 40
1.0
 40
1.0
 40
1.0
 40
1.0
 10
21.5162210183
 20
9.8888267821
 30
0.0
 10
21.5290940072
 20
9.8920368422
 30
0.0
 10
21.5573173542
 20
9.89787697
 30
0.0
 10
21.6017297606
 20
9.9049965152
 30
0.0
 10
21.6482859081
 20
9.9106013503
 30
0.0
 10
21.6795452074
 20
9.9131230418
 30
0.0
 10
21.6947019214
 20
9.9139298809
 30
0.0
  0
SPLINE
  5
2F8
100
AcDbEntity
  8
0
100
AcDbSpline
 62
7
  6
BYLAYER
 70
0
 71
3
 72
10
 73
6
 74
0
 42
0.0000001
 43
0.0000001
 44
0.0000000001
 40
0.0
 40
0.0
 40
0.0
 40
0.0
 40
0.2472549501
 40
0.5048535395
 40
1.0
 40
1.0
 40
1.0
 40
1.0
 10
21.4056276827
 20
10.1230937922
 30
0.0
 10
21.4109152673
 20
10.1348117579
 30
0.0
 10
21.4240470476
 20
10.1577447364
 30
0.0
 10
21.4568440977
 20
10.1981897512
 30
0.0
 10
21.4885199636
 20
10.2228933446
 30
0.0
 10
21.5115583185
 20
10.2343830938
 30
0.0
  0
SPLINE
  5
2F9
100
AcDbEntity
  8
0
100
AcDbSpline
 62
7
  6
BYLAYER
 70
0
 71
3
 72
9
 73
5
 74
0
 42
0.0000001
 43
0.0000001
 44
0.0000000001
 40
0.0
 40
0.0
 40
0.0
 40
0.0
 40
0.4842605203
 40
1.0
 40
1.0
 40
1.0
 40
1.0
 10
21.4376701596
 20
10.3833832088
 30
0.0
 10
21.3590813695
 20
10.4737049055
 30
0.0
 10
21.2167135949
 20
10.678071201
 30
0.0
 10
21.1140105736
 20
10.9044038002
 30
0.0
 10
21.0706304787
 20
11.0243058887
 30
0.0
  0
SPLINE
  5
2FA
100
AcDbEntity
  8
0
100
AcDbSpline
 62
7
  6
BYLAYER
 70
0
 71
3
 72
11
 73
7
 74
0
 42
0.0000001
 43
0.0000001
 44
0.0000000001
 40
0.0
 40
0.0
 40
0.0
 40
0.0
 40
0.2344721421
 40
0.5051584442
 40
0.7731432515
 40
1.0
 40
1.0
 40
1.0
 40
1.0
 10
20.7819810419
 20
11.2522516298
 30
0.0
 10
20.7970431557
 20
11.2593910526
 30
0.0
 10
20.8307539475
 20
11.2720778771
 30
0.0
 10
20.8837912814
 20
11.2867022435
 30
0.0
 10
20.9373339028
 20
11.2967099394
 30
0.0
 10
20.9724879414
 20
11.2999205436
 30
0.0
 10
20.9886150595
 20
11.2999205436
 30
0.0
  0
SPLINE
  5
2FB
100
AcDbEntity
  8
0
100
AcDbSpline
 62
7
  6
BYLAYER
 70
0
 71
3
 72
9
 73
5
 74
0
 42
0.0000001
 43
0.0000001
 44
0.0000000001
 40
0.0
 40
0.0
 40
0.0
 40
0.0
 40
0.4999842299
 40
1.0
 40
1.0
 40
1.0
 40
1.0
 10
20.9323306878
 20
11.7624428283
 30
0.0
 10
20.8969760021
 20
11.7624428283
 30
0.0
 10
20.8262658649
 20
11.7617819331
 30
0.0
 10
20.7555609562
 20
11.7606974937
 30
0.0
 10
20.7202148079
 20
11.7598249673
 30
0.0
  0
SPLINE
  5
2FC
100
AcDbEntity
  8
0
100
AcDbSpline
 62
7
  6
BYLAYER
 70
0
 71
3
 72
9
 73
5
 74
0
 42
0.0000001
 43
0.0000001
 44
0.0000000001
 40
0.0
 40
0.0
 40
0.0
 40
0.0
 40
0.2473973782
 40
1.0
 40
1.0
 40
1.0
 40
1.0
 10
20.9886150595
 20
11.2999205435
 30
0.0
 10
20.9797440622
 20
11.337351162
 30
0.0
 10
20.9482221609
 20
11.4896499544
 30
0.0
 10
20.9337749219
 20
11.6454306366
 30
0.0
 10
20.9323306878
 20
11.7624428283
 30
0.0
  0
SPLINE
  5
2FD
100
AcDbEntity
  8
0
100
AcDbSpline
 62
7
  6
BYLAYER
 70
0
 71
3
 72
9
 73
5
 74
0
 42
0.0000001
 43
0.0000001
 44
0.0000000001
 40
0.0
 40
0.0
 40
0.0
 40
0.0
 40
0.2432898652
 40
1.0
 40
1.0
 40
1.0
 40
1.0
 10
20.4636565108
 20
11.0601872567
 30
0.0
 10
20.4560868444
 20
11.0787065452
 30
0.0
 10
20.4289306368
 20
11.1564102626
 30
0.0
 10
20.4170302571
 20
11.2392388216
 30
0.0
 10
20.4162613538
 20
11.3014610534
 30
0.0
  0
LINE
  5
2FE
100
AcDbEntity
  8
0
100
AcDbLine
 62
7
  6
BYLAYER
 10
22.6689036007
 20
6.8912258311
 11
22.3003623594
 21
9.8280499199
  0
SPLINE
  5
2FF
100
AcDbEntity
  8
0
100
AcDbSpline
 62
7
  6
BYLAYER
 70
0
 71
3
 72
14
 73
10
 74
0
 42
0.0000001
 43
0.0000001
 44
0.0000000001
 40
0.0
 40
0.0
 40
0.0
 40
0.0
 40
0.2871808538
 40
0.4227979885
 40
0.5512126299
 40
0.6720774779
 40
0.7859572736
 40
0.8945499926
 40
1.0
 40
1.0
 40
1.0
 40
1.0
 10
24.2067730705
 20
9.4148740087
 30
0.0
 10
24.1997010107
 20
9.4709020038
 30
0.0
 10
24.1789376218
 20
9.5527732262
 30
0.0
 10
24.130489107
 20
9.6500797003
 30
0.0
 10
24.0864087613
 20
9.712046988
 30
0.0
 10
24.0352661588
 20
9.7624671816
 30
0.0
 10
23.9783938929
 20
9.7997718618
 30
0.0
 10
23.9175778699
 20
9.8227619931
 30
0.0
 10
23.8753273591
 20
9.8280499199
 30
0.0
 10
23.8545911853
 20
9.8280499199
 30
0.0
  0
SPLINE
  5
300
100
AcDbEntity
  8
0
100
AcDbSpline
 62
7
  6
BYLAYER
 70
0
 71
3
 72
14
 73
10
 74
0
 42
0.0000001
 43
0.0000001
 44
0.0000000001
 40
0.0
 40
0.0
 40
0.0
 40
0.0
 40
0.1055027419
 40
0.2141070505
 40
0.3279492414
 40
0.4487583093
 40
0.5771338554
 40
0.7127377582
 40
1.0
 40
1.0
 40
1.0
 40
1.0
 10
24.8792445309
 20
6.4780499199
 30
0.0
 10
24.8584575024
 20
6.4780499199
 30
0.0
 10
24.8161137073
 20
6.4832947575
 30
0.0
 10
24.7551111862
 20
6.5061499815
 30
0.0
 10
24.6980095003
 20
6.5433164161
 30
0.0
 10
24.6466276272
 20
6.5936596896
 30
0.0
 10
24.6023158711
 20
6.6556206811
 30
0.0
 10
24.5535787591
 20
6.7530304942
 30
0.0
 10
24.5327143693
 20
6.8350742933
 30
0.0
 10
24.5256130477
 20
6.8912258311
 30
0.0
  0
SPLINE
  5
301
100
AcDbEntity
  8
0
100
AcDbSpline
 62
7
  6
BYLAYER
 70
0
 71
3
 72
13
 73
9
 74
0
 42
0.0000001
 43
0.0000001
 44
0.0000000001
 40
0.0
 40
0.0
 40
0.0
 40
0.0
 40
0.2873665127
 40
0.5508910876
 40
0.6718971378
 40
0.7858756265
 40
0.8945211624
 40
1.0
 40
1.0
 40
1.0
 40
1.0
 10
22.6689036007
 20
6.8912258311
 30
0.0
 10
22.6759249113
 20
6.8352965174
 30
0.0
 10
22.7025656077
 20
6.729200238
 30
0.0
 10
22.7695946507
 20
6.6130011126
 30
0.0
 10
22.8394132557
 20
6.5437719499
 30
0.0
 10
22.8961069349
 20
6.5063874133
 30
0.0
 10
22.9567731025
 20
6.4833463643
 30
0.0
 10
22.9989362495
 20
6.4780499199
 30
0.0
 10
23.0196264276
 20
6.4780499199
 30
0.0
  0
SPLINE
  5
302
100
AcDbEntity
  8
0
100
AcDbSpline
 62
7
  6
BYLAYER
 70
0
 71
3
 72
14
 73
10
 74
0
 42
0.0000001
 43
0.0000001
 44
0.0000000001
 40
0.0
 40
0.0
 40
0.0
 40
0.0
 40
0.1053939692
 40
0.213953768
 40
0.327840958
 40
0.4487511701
 40
0.5772236862
 40
0.7128750644
 40
1.0
 40
1.0
 40
1.0
 40
1.0
 10
32.9450490569
 20
6.4780499199
 30
0.0
 10
32.9657394048
 20
6.4780499199
 30
0.0
 10
33.0079029501
 20
6.4833473916
 30
0.0
 10
33.0685708484
 20
6.5063879519
 30
0.0
 10
33.1252645041
 20
6.5437696419
 30
0.0
 10
33.1761912899
 20
6.5942692192
 30
0.0
 10
33.2200344301
 20
6.6562799841
 30
0.0
 10
33.2681584547
 20
6.7535502313
 30
0.0
 10
33.2887508309
 20
6.8352980769
 30
0.0
 10
33.2957719457
 20
6.8912258311
 30
0.0
  0
SPLINE
  5
303
100
AcDbEntity
  8
0
100
AcDbSpline
 62
7
  6
BYLAYER
 70
0
 71
3
 72
14
 73
10
 74
0
 42
0.0000001
 43
0.0000001
 44
0.0000000001
 40
0.0
 40
0.0
 40
0.0
 40
0.0
 40
0.2872723236
 40
0.4228791205
 40
0.551249221
 40
0.6720537479
 40
0.7858939302
 40
0.8944975791
 40
1.0
 40
1.0
 40
1.0
 40
1.0
 10
31.4390624988
 20
6.8912258311
 30
0.0
 10
31.4319610089
 20
6.8350729638
 30
0.0
 10
31.4110889485
 20
6.7530302406
 30
0.0
 10
31.3623609745
 20
6.6556158652
 30
0.0
 10
31.3180488563
 20
6.5936571708
 30
0.0
 10
31.266665445
 20
6.5433203036
 30
0.0
 10
31.2095664458
 20
6.5061544979
 30
0.0
 10
31.1485664691
 20
6.4832965417
 30
0.0
 10
31.1062233849
 20
6.4780499199
 30
0.0
 10
31.085436657
 20
6.4780499199
 30
0.0
  0
SPLINE
  5
304
100
AcDbEntity
  8
0
100
AcDbSpline
 62
7
  6
BYLAYER
 70
0
 71
3
 72
14
 73
10
 74
0
 42
0.0000001
 43
0.0000001
 44
0.0000000001
 40
0.0
 40
0.0
 40
0.0
 40
0.0
 40
0.1054495216
 40
0.2140448478
 40
0.327925531
 40
0.4487936825
 40
0.5772139571
 40
0.7128288711
 40
1.0
 40
1.0
 40
1.0
 40
1.0
 10
32.110062861
 20
9.8280499199
 30
0.0
 10
32.0893275169
 20
9.8280499199
 30
0.0
 10
32.0470783377
 20
9.8227564222
 30
0.0
 10
31.9862666329
 20
9.7997619488
 30
0.0
 10
31.9293938261
 20
9.7624598095
 30
0.0
 10
31.8782567523
 20
9.7120341577
 30
0.0
 10
31.8341818112
 20
9.6500654759
 30
0.0
 10
31.7857302408
 20
9.5527661212
 30
0.0
 10
31.7649740459
 20
9.4708981231
 30
0.0
 10
31.757902476
 20
9.4148740087
 30
0.0
  0
LINE
  5
305
100
AcDbEntity
  8
0
100
AcDbLine
 62
7
  6
BYLAYER
 10
21.5771930521
 20
6.8911226213
 11
21.2104223412
 21
9.8280499199
  0
LINE
  5
306
100
AcDbEntity
  8
0
100
AcDbLine
 62
7
  6
BYLAYER
 10
33.6643131871
 20
9.8280499199
 11
33.2957719457
 21
6.8912258311
  0
LINE
  5
307
100
AcDbEntity
  8
0
100
AcDbLine
 62
7
  6
BYLAYER
 10
20.8651399466
 20
10.0780235275
 11
20.4636565108
 21
11.0601872567
  0
SPLINE
  5
308
100
AcDbEntity
  8
0
100
AcDbSpline
 62
7
  6
BYLAYER
 70
0
 71
3
 72
10
 73
6
 74
0
 42
0.0000001
 43
0.0000001
 44
0.0000000001
 40
0.0
 40
0.0
 40
0.0
 40
0.0
 40
0.2294021169
 40
0.4999977723
 40
1.0
 40
1.0
 40
1.0
 40
1.0
 10
20.6637825879
 20
16.3319771098
 30
0.0
 10
20.6800012456
 20
16.3316526903
 30
0.0
 10
20.7153633546
 20
16.3314962151
 30
0.0
 10
20.7860640907
 20
16.3329169496
 30
0.0
 10
20.8405575506
 20
16.3332836091
 30
0.0
 10
20.8759146223
 20
16.3332860406
 30
0.0
  0
SPLINE
  5
309
100
AcDbEntity
  8
0
100
AcDbSpline
 62
7
  6
BYLAYER
 70
0
 71
3
 72
9
 73
5
 74
0
 42
0.0000001
 43
0.0000001
 44
0.0000000001
 40
0.0
 40
0.0
 40
0.0
 40
0.0
 40
0.2473974604
 40
1.0
 40
1.0
 40
1.0
 40
1.0
 10
20.7819780447
 20
11.2522654354
 30
0.0
 10
20.7722436038
 20
11.2933393005
 30
0.0
 10
20.7376545426
 20
11.4604619699
 30
0.0
 10
20.7217997086
 20
11.6314050583
 30
0.0
 10
20.7202149031
 20
11.759806379
 30
0.0
  0
SPLINE
  5
30A
100
AcDbEntity
  8
0
100
AcDbSpline
 62
7
  6
BYLAYER
 70
0
 71
3
 72
12
 73
8
 74
0
 42
0.0000001
 43
0.0000001
 44
0.0000000001
 40
0.0
 40
0.0
 40
0.0
 40
0.0
 40
0.2306716562
 40
0.4751082536
 40
0.6022765744
 40
0.7324128661
 40
1.0
 40
1.0
 40
1.0
 40
1.0
 10
21.4056271749
 20
10.1230926612
 30
0.0
 10
21.3309493492
 20
10.1904871735
 30
0.0
 10
21.1902371308
 20
10.3442699534
 30
0.0
 10
21.0465536505
 20
10.5653759784
 30
0.0
 10
20.94794368
 20
10.7608770137
 30
0.0
 10
20.8594472644
 20
10.9721304069
 30
0.0
 10
20.808888085
 20
11.1387202033
 30
0.0
 10
20.7819780447
 20
11.2522654354
 30
0.0
  0
SPLINE
  5
30B
100
AcDbEntity
  8
0
100
AcDbSpline
 62
7
  6
BYLAYER
 70
0
 71
3
 72
10
 73
6
 74
0
 42
0.0000001
 43
0.0000001
 44
0.0000000001
 40
0.0
 40
0.0
 40
0.0
 40
0.0
 40
0.2692698717
 40
0.5285868998
 40
1.0
 40
1.0
 40
1.0
 40
1.0
 10
21.5162238308
 20
9.8887998759
 30
0.0
 10
21.5132977186
 20
9.9122684769
 30
0.0
 10
21.5041312329
 20
9.9580416301
 30
0.0
 10
21.4738351754
 20
10.0405826298
 30
0.0
 10
21.4363653448
 20
10.0953523792
 30
0.0
 10
21.4056271749
 20
10.1230926612
 30
0.0
  0
ENDSEC
  0
SECTION
  2
OBJECTS
  0
DICTIONARY
  5
C
100
AcDbDictionary
280
0
281
1
  3
ACAD_GROUP
350
D
  3
ACAD_MLINESTYLE
350
17
  3
ACAD_LAYOUT
350
1A
  3
ACAD_PLOTSETTINGS
350
19
  3
ACAD_PLOTSTYLENAME
350
E
  0
DICTIONARY
  5
D
102
{ACAD_REACTORS
330
C
102
}
100
AcDbDictionary
280
0
281
1
  0
ACDBDICTIONARYWDFLT
  5
E
102
{ACAD_REACTORS
330
C
102
}
100
AcDbDictionary
281
1
  3
Normal
350
F
100
AcDbDictionaryWithDefault
340
F
  0
DICTIONARY
  5
17
102
{ACAD_REACTORS
330
C
102
}
100
AcDbDictionary
280
0
281
1
  3
Standard
350
18
  0
DICTIONARY
  5
19
102
{ACAD_REACTORS
330
C
102
}
100
AcDbDictionary
281
1
  0
DICTIONARY
  5
1A
102
{ACAD_REACTORS
330
C
102
}
100
AcDbDictionary
281
1
  3
Model
350
30C
  3
Layout1
350
30D
  0
ACDBPLACEHOLDER
  5
F
102
{ACAD_REACTORS
330
E
102
}
  0
MLINESTYLE
  5
18
102
{ACAD_REACTORS
330
17
102
}
100
AcDbMlineStyle
  2
STANDARD
 70
0
  3

 62
256
 51
90.0
 52
90.0
 71
2
 49
0.5
 62
256
  6
BYLAYER
 49
-0.5
 62
256
  6
BYLAYER
  0
LAYOUT
  5
30C
102
{ACAD_REACTORS
330
1A
102
}
100
AcDbPlotSettings
  1

  2
none_device
  4

  6

 40
0.0
 41
0.0
 42
0.0
 43
0.0
 44
210.0
 45
297.0
 46
0.0
 47
0.0
 48
0.0
 49
0.0
140
0.0
141
0.0
142
1.0
143
1.0
 70
1024
 72
1
 73
0
 74
0
  7

 75
0
147
1.0
148
0.0
149
0.0
100
AcDbLayout
  1
Model
 70
0
 71
0
 10
0.0
 20
0.0
 11
210.0
 21
297.0
 12
0.0
 22
0.0
 32
0.0
 14
0.0
 24
0.0
 34
0.0
 15
0.0
 25
0.0
 35
0.0
146
0.0
 13
0.0
 23
0.0
 33
0.0
 16
1.0
 26
0.0
 36
0.0
 17
0.0
 27
1.0
 37
0.0
 76
0
330
210
345
0
346
0
  0
LAYOUT
  5
30D
102
{ACAD_REACTORS
330
1A
102
}
100
AcDbPlotSettings
  1

  2
none_device
  4

  6

 40
0.0
 41
0.0
 42
0.0
 43
0.0
 44
210.0
 45
297.0
 46
0.0
 47
0.0
 48
0.0
 49
0.0
140
0.0
141
0.0
142
1.0
143
1.0
 70
0
 72
1
 73
0
 74
0
  7

 75
0
147
1.0
148
0.0
149
0.0
100
AcDbLayout
  1
Layout1
 70
0
 71
1
 10
0.0
 20
0.0
 11
210.0
 21
297.0
 12
0.0
 22
0.0
 32
0.0
 14
0.0
 24
0.0
 34
0.0
 15
0.0
 25
0.0
 35
0.0
146
0.0
 13
0.0
 23
0.0
 33
0.0
 16
1.0
 26
0.0
 36
0.0
 17
0.0
 27
1.0
 37
0.0
 76
0
330
211
345
0
346
0
  0
ENDSEC
  0
EOF
