999
DXF file: C:\Users\sesa63760\Dev\_Creo\CAD\MCADID0004485_3D-CAD\drw0001_1.dxf
999
Pro/ENGINEER 2019471 by Parametric Technology Corporation
  0
SECTION
  2
HEADER
  9
$ACADVER
  1
AC1024
  9
$DWGCODEPAGE
  3
ANSI_1252
  9
$EXTMAX
 10
80.7727345203
 20
114.2357245359
 30
0.0
  9
$EXTMIN
 10
0.0
 20
0.0
 30
0.0
  9
$LIMMIN
 10
0.0
 20
0.0
  9
$LIMMAX
 10
80.7727345203
 20
114.2357245359
  9
$VIEWCTR
 10
40.3863672602
 20
57.117862268
  9
$VIEWSIZE
 40
114.2357245359
  9
$CLAYER
  8
0
  9
$LTSCALE
 40
7.4464768586
  9
$CELTYPE
  6
BYLAYER
  9
$DIMSCALE
 40
1.0
  9
$DIMASZ
 40
0.9615801729
  9
$DIMEXO
 40
1.0
  9
$DIMDLI
 40
5.1448385569
  9
$DIMEXE
 40
1.0
  9
$DIMCEN
 40
1.218514395
  9
$DIMLFAC
 40
1.0
  9
$DIMBLK
  1
_FILLED
  9
$DIMALT
 70
0
  9
$DIMALTF
 40
0.0393700787
  9
$DIMTXT
 40
1.346212242
  9
$DIMTOL
 70
1
  9
$DIMLIM
 70
0
  9
$DIMTFAC
 40
1.0
  9
$DIMTP
 40
0.01
  9
$DIMTM
 40
0.01
  9
$DIMGAP
 40
0.625
  9
$DIMDSEP
 70
46
  9
$AUNITS
 70
0
  9
$PDMODE
 70
3
  9
$PDSIZE
 40
0.3125
  9
$HANDSEED
  5
280
  9
$TILEMODE
 70
1
  9
$MEASUREMENT
 70
1
  9
$INSUNITS
 70
4
  0
ENDSEC
  0
SECTION
  2
CLASSES
  0
CLASS
  1
ACDBDICTIONARYWDFLT
  2
AcDbDictionaryWithDefault
  3
AutoCAD 2000
 90
0
 91
1
280
0
281
0
  0
CLASS
  1
ACDBPLACEHOLDER
  2
AcDbPlaceHolder
  3
AutoCAD 2000
 90
0
 91
1
280
0
281
0
  0
CLASS
  1
LAYOUT
  2
AcDbLayout
  3
AutoCAD 2000
 90
0
 91
0
280
0
281
0
  0
ENDSEC
  0
SECTION
  2
TABLES
  0
TABLE
  2
VPORT
  5
8
100
AcDbSymbolTable
 70
2
  0
VPORT
  5
1F4
100
AcDbSymbolTableRecord
100
AcDbViewportTableRecord
  2
*ACTIVE
 70
0
 10
0.0
 20
0.0
 11
1.0
 21
1.0
 12
40.3863672602
 22
57.117862268
 13
0.0
 23
0.0
 14
1.0
 24
1.0
 15
0.0
 25
0.0
 16
0.0
 26
0.0
 36
1.0
 17
0.0
 27
0.0
 37
0.0
 40
114.2357245359
 41
0.7070707071
 42
50.0
 43
0.0
 44
0.0
 50
0.0
 51
0.0
 71
0
 72
100
 73
1
 74
1
 75
0
 76
0
 77
0
 78
0
  0
ENDTAB
  0
TABLE
  2
LTYPE
  5
5
100
AcDbSymbolTable
 70
6
  0
LTYPE
  5
14
100
AcDbSymbolTableRecord
100
AcDbLinetypeTableRecord
  2
BYBLOCK
 70
0
  3

 72
65
 73
0
 40
0.0
  0
LTYPE
  5
15
100
AcDbSymbolTableRecord
100
AcDbLinetypeTableRecord
  2
BYLAYER
 70
0
  3

 72
65
 73
0
 40
0.0
  0
LTYPE
  5
16
100
AcDbSymbolTableRecord
100
AcDbLinetypeTableRecord
  2
CONTINUOUS
 70
64
  3
Solid line
 72
65
 73
0
 40
0.0
  0
LTYPE
  5
1F5
100
AcDbSymbolTableRecord
100
AcDbLinetypeTableRecord
  2
CENTER
 70
64
  3
____ _ ____ _ ____ _ ____ _ ____ _ ____ _ ____
 72
65
 73
4
 40
0.6
 49
0.375
 74
0
 49
-0.075
 74
0
 49
0.075
 74
0
 49
-0.075
 74
0
  0
LTYPE
  5
1F6
100
AcDbSymbolTableRecord
100
AcDbLinetypeTableRecord
  2
HIDDEN
 70
64
  3
- - - - - - - - - - - - - - - - - - - -
 72
65
 73
2
 40
0.2
 49
0.1
 74
0
 49
-0.1
 74
0
  0
LTYPE
  5
1F7
100
AcDbSymbolTableRecord
100
AcDbLinetypeTableRecord
  2
PHANTOM
 70
64
  3
_____ _ _ _____ _ _ _____ _ _ _____
 72
65
 73
6
 40
0.8
 49
0.45
 74
0
 49
-0.05
 74
0
 49
0.1
 74
0
 49
-0.05
 74
0
 49
0.1
 74
0
 49
-0.05
 74
0
  0
LTYPE
  5
1F8
100
AcDbSymbolTableRecord
100
AcDbLinetypeTableRecord
  2
DOT
 70
64
  3
. . . . . . . . . . . . . . . . . . . .
 72
65
 73
2
 40
0.2
 49
0.1
 74
0
 49
-0.1
 74
0
  0
LTYPE
  5
1F9
100
AcDbSymbolTableRecord
100
AcDbLinetypeTableRecord
  2
DASHED
 70
64
  3
- - - - - - - - - - - - - - - - - - - -
 72
65
 73
2
 40
0.2
 49
0.1
 74
0
 49
-0.1
 74
0
  0
ENDTAB
  0
TABLE
  2
LAYER
  5
2
100
AcDbSymbolTable
 70
36
  0
LAYER
  5
10
100
AcDbSymbolTableRecord
100
AcDbLayerTableRecord
  2
0
 70
0
 62
7
  6
CONTINUOUS
370
-3
390
F
  0
LAYER
  5
1FA
100
AcDbSymbolTableRecord
100
AcDbLayerTableRecord
  2
DEFAULT_1
 70
0
 62
7
  6
CENTER
370
-3
390
F
  0
LAYER
  5
1FB
100
AcDbSymbolTableRecord
100
AcDbLayerTableRecord
  2
DEFAULT_2
 70
0
 62
7
  6
HIDDEN
370
-3
390
F
  0
LAYER
  5
1FC
100
AcDbSymbolTableRecord
100
AcDbLayerTableRecord
  2
DEFAULT_3
 70
0
 62
7
  6
PHANTOM
370
-3
390
F
  0
LAYER
  5
1FD
100
AcDbSymbolTableRecord
100
AcDbLayerTableRecord
  2
00_COMPONENTS
 70
0
 62
7
  6
CONTINUOUS
370
-3
390
F
  0
LAYER
  5
1FE
100
AcDbSymbolTableRecord
100
AcDbLayerTableRecord
  2
01_1_DEFAULT_DATUMS
 70
0
 62
7
  6
CONTINUOUS
370
-3
390
F
  0
LAYER
  5
1FF
100
AcDbSymbolTableRecord
100
AcDbLayerTableRecord
  2
01_PLANES
 70
0
 62
7
  6
CONTINUOUS
370
-3
390
F
  0
LAYER
  5
200
100
AcDbSymbolTableRecord
100
AcDbLayerTableRecord
  2
02_COORD_SYS
 70
0
 62
7
  6
CONTINUOUS
370
-3
390
F
  0
LAYER
  5
201
100
AcDbSymbolTableRecord
100
AcDbLayerTableRecord
  2
03_AXES
 70
0
 62
7
  6
CONTINUOUS
370
-3
390
F
  0
LAYER
  5
202
100
AcDbSymbolTableRecord
100
AcDbLayerTableRecord
  2
04_POINTS
 70
0
 62
7
  6
CONTINUOUS
370
-3
390
F
  0
LAYER
  5
203
100
AcDbSymbolTableRecord
100
AcDbLayerTableRecord
  2
05_CURVES
 70
0
 62
7
  6
CONTINUOUS
370
-3
390
F
  0
LAYER
  5
204
100
AcDbSymbolTableRecord
100
AcDbLayerTableRecord
  2
06_SURFS
 70
0
 62
7
  6
CONTINUOUS
370
-3
390
F
  0
LAYER
  5
205
100
AcDbSymbolTableRecord
100
AcDbLayerTableRecord
  2
07_COSMETICS
 70
0
 62
7
  6
CONTINUOUS
370
-3
390
F
  0
LAYER
  5
206
100
AcDbSymbolTableRecord
100
AcDbLayerTableRecord
  2
10_NOTES
 70
0
 62
7
  6
CONTINUOUS
370
-3
390
F
  0
LAYER
  5
207
100
AcDbSymbolTableRecord
100
AcDbLayerTableRecord
  2
11_NOTES_PUB
 70
0
 62
7
  6
CONTINUOUS
370
-3
390
F
  0
LAYER
  5
208
100
AcDbSymbolTableRecord
100
AcDbLayerTableRecord
  2
13_REF_GTOL
 70
0
 62
7
  6
CONTINUOUS
370
-3
390
F
  0
LAYER
  5
209
100
AcDbSymbolTableRecord
100
AcDbLayerTableRecord
  2
16_MISC
 70
0
 62
7
  6
CONTINUOUS
370
-3
390
F
  0
LAYER
  5
20A
100
AcDbSymbolTableRecord
100
AcDbLayerTableRecord
  2
17_NO_PRINT
 70
0
 62
7
  6
CONTINUOUS
370
-3
390
F
  0
LAYER
  5
20B
100
AcDbSymbolTableRecord
100
AcDbLayerTableRecord
  2
18_DATUM_CAMS_JOINTS
 70
0
 62
7
  6
CONTINUOUS
370
-3
390
F
  0
LAYER
  5
20C
100
AcDbSymbolTableRecord
100
AcDbLayerTableRecord
  2
19_DATUM_FUNCTIONAL
 70
0
 62
7
  6
CONTINUOUS
370
-3
390
F
  0
LAYER
  5
20D
100
AcDbSymbolTableRecord
100
AcDbLayerTableRecord
  2
20_DATUM_KINEMATIC_SCHEME
 70
0
 62
7
  6
CONTINUOUS
370
-3
390
F
  0
LAYER
  5
20E
100
AcDbSymbolTableRecord
100
AcDbLayerTableRecord
  2
_1
 70
0
 62
7
  6
CONTINUOUS
370
-3
390
F
  0
ENDTAB
  0
TABLE
  2
STYLE
  5
3
100
AcDbSymbolTable
 70
1
  0
STYLE
  5
11
100
AcDbSymbolTableRecord
100
AcDbTextStyleTableRecord
  2
STANDARD
 70
0
 40
0.0
 41
1.0
 50
0.0
 71
0
 42
0.2
  3
ARIAL.TTF
  4

  0
STYLE
  5
20F
100
AcDbSymbolTableRecord
100
AcDbTextStyleTableRecord
  2
TEXTSTYLE_1
 70
0
 40
0.0
 41
0.8
 50
0.0
 71
0
 42
0.2
  3
gdt
  4

  0
ENDTAB
  0
TABLE
  2
VIEW
  5
6
100
AcDbSymbolTable
 70
0
  0
ENDTAB
  0
TABLE
  2
UCS
  5
7
100
AcDbSymbolTable
 70
0
  0
ENDTAB
  0
TABLE
  2
APPID
  5
9
100
AcDbSymbolTable
 70
1
  0
APPID
  5
210
100
AcDbSymbolTableRecord
100
AcDbRegAppTableRecord
  2
ACAD
 70
0
  0
ENDTAB
  0
TABLE
  2
BLOCK_RECORD
  5
1
100
AcDbSymbolTable
 70
0
  0
BLOCK_RECORD
  5
211
100
AcDbSymbolTableRecord
100
AcDbBlockTableRecord
  2
*Model_Space
  0
BLOCK_RECORD
  5
212
100
AcDbSymbolTableRecord
100
AcDbBlockTableRecord
  2
*Paper_Space
  0
BLOCK_RECORD
  5
213
100
AcDbSymbolTableRecord
100
AcDbBlockTableRecord
  2
_FILLED
  0
ENDTAB
  0
TABLE
  2
DIMSTYLE
  5
A
100
AcDbSymbolTable
 70
1
100
AcDbDimStyleTable
 71
0
  0
DIMSTYLE
105
214
100
AcDbSymbolTableRecord
100
AcDbDimStyleTableRecord
  2
STANDARD
 70
0
  3

  4

 40
1.0
 41
0.9615801729
 42
1.0
 43
0.38
 44
1.0
 45
0.0
 46
0.0
 47
0.01
 48
0.01
140
1.346212242
141
0.09
142
0.0
143
25.4
144
1.0
145
0.0
146
1.0
147
0.625
 71
1
 72
0
 73
0
 74
0
 75
0
 76
0
 77
1
 78
8
 79
2
170
0
171
1
172
0
173
0
174
0
175
0
176
0
177
0
178
0
270
2
179
2
271
2
272
2
273
2
274
2
275
0
280
0
281
0
282
0
283
1
284
8
285
0
286
0
287
3
288
0
340
11
278
46
341
213
342
213
343
213
344
213
  0
ENDTAB
  0
ENDSEC
  0
SECTION
  2
BLOCKS
  0
BLOCK
  5
20
100
AcDbEntity
  8
0
100
AcDbBlockBegin
  2
*Model_Space
 70
0
 10
0.0
 20
0.0
 30
0.0
  3
*Model_Space
  1

  0
ENDBLK
  5
21
100
AcDbEntity
  8
0
100
AcDbBlockEnd
  0
BLOCK
  5
1C
100
AcDbEntity
  8
0
100
AcDbBlockBegin
  2
*Paper_Space
 70
0
 10
0.0
 20
0.0
 30
0.0
  3
*Paper_Space
  1

  0
ENDBLK
  5
1D
100
AcDbEntity
  8
0
100
AcDbBlockEnd
  0
BLOCK
  5
215
100
AcDbEntity
  8
0
100
AcDbBlockBegin
  2
_FILLED
 70
64
 10
0.0
 20
0.0
  3
_FILLED
  1

  0
SOLID
  5
216
100
AcDbEntity
  8
0
  6
BYBLOCK
 62
0
100
AcDbTrace
 10
0.0
 20
0.0
 11
-1.0
 21
0.25
 12
-1.0
 22
-0.25
 13
-1.0
 23
-0.25
  0
ENDBLK
  5
217
100
AcDbEntity
  8
0
  6
BYBLOCK
 62
0
100
AcDbBlockEnd
  0
ENDSEC
  0
SECTION
  2
ENTITIES
  0
LINE
  5
218
100
AcDbEntity
  8
0
100
AcDbLine
 62
7
  6
BYLAYER
 10
12.3465272969
 20
81.0274403509
 11
11.6398204022
 21
80.2681281107
  0
LINE
  5
219
100
AcDbEntity
  8
0
100
AcDbLine
 62
7
  6
BYLAYER
 10
13.7607105199
 20
81.8439709852
 11
12.3465028455
 21
81.0274826774
  0
LINE
  5
21A
100
AcDbEntity
  8
0
100
AcDbLine
 62
7
  6
BYLAYER
 10
14.8464916533
 20
80.7798612824
 11
16.2606993277
 21
81.5963495901
  0
LINE
  5
21B
100
AcDbEntity
  8
0
100
AcDbLine
 62
7
  6
BYLAYER
 10
11.8752037998
 20
75.0410496872
 11
12.8773633121
 21
75.6196432976
  0
LINE
  5
21C
100
AcDbEntity
  8
0
100
AcDbLine
 62
7
  6
BYLAYER
 10
39.3156271683
 20
38.4845423651
 11
39.3279933163
 21
38.4810133524
  0
LINE
  5
21D
100
AcDbEntity
  8
0
100
AcDbLine
 62
7
  6
BYLAYER
 10
11.8752037998
 20
61.4950289903
 11
13.2894114742
 21
62.3115172981
  0
LINE
  5
21E
100
AcDbEntity
  8
0
100
AcDbLine
 62
7
  6
BYLAYER
 10
39.3057026799
 20
38.5356496652
 11
39.3184131743
 21
38.5302436537
  0
LINE
  5
21F
100
AcDbEntity
  8
0
100
AcDbLine
 62
7
  6
BYLAYER
 10
52.1507048881
 20
33.1146736157
 11
50.2750538432
 21
34.1975567533
  0
LINE
  5
220
100
AcDbEntity
  8
0
100
AcDbLine
 62
7
  6
BYLAYER
 10
59.8357269232
 20
38.3298454268
 11
60.8373550014
 21
37.7515682686
  0
LINE
  5
221
100
AcDbEntity
  8
0
100
AcDbLine
 62
7
  6
BYLAYER
 10
68.2127361808
 20
42.0097211602
 11
66.7985167305
 21
42.8262026692
  0
LINE
  5
222
100
AcDbEntity
  8
0
100
AcDbLine
 62
7
  6
BYLAYER
 10
26.4860510678
 20
44.3534638345
 11
27.9002587422
 21
45.1699521422
  0
LINE
  5
223
100
AcDbEntity
  8
0
100
AcDbLine
 62
7
  6
BYLAYER
 10
56.3933396873
 20
60.0592460703
 11
70.181864513
 21
68.0200070708
  0
LINE
  5
224
100
AcDbEntity
  8
0
100
AcDbLine
 62
7
  6
BYLAYER
 10
71.5960839632
 20
67.2035255617
 11
57.8075591376
 21
59.2427645613
  0
LINE
  5
225
100
AcDbEntity
  8
0
100
AcDbLine
 62
7
  6
BYLAYER
 10
66.0453188411
 20
50.5265190712
 11
64.6310993908
 21
51.3430005803
  0
LINE
  5
226
100
AcDbEntity
  8
0
100
AcDbLine
 62
7
  6
BYLAYER
 10
14.8464916533
 20
80.7798612824
 11
52.1507048881
 21
59.2427509638
  0
LINE
  5
227
100
AcDbEntity
  8
0
100
AcDbLine
 62
7
  6
BYLAYER
 10
16.2606993277
 20
81.5963495901
 11
53.5649125626
 21
60.0592392716
  0
LINE
  5
228
100
AcDbEntity
  8
0
100
AcDbLine
 62
7
  6
BYLAYER
 10
52.1507048881
 20
59.2427509638
 11
52.1507048881
 21
33.1146736157
  0
LINE
  5
229
100
AcDbEntity
  8
0
100
AcDbLine
 62
7
  6
BYLAYER
 10
39.2188420437
 20
38.1589136327
 11
38.2172141003
 21
37.5806269218
  0
LINE
  5
22A
100
AcDbEntity
  8
0
100
AcDbLine
 62
7
  6
BYLAYER
 10
64.6310993908
 20
60.7327783772
 11
66.0453188411
 21
59.9162968682
  0
LINE
  5
22B
100
AcDbEntity
  8
0
100
AcDbLine
 62
7
  6
BYLAYER
 10
57.8075591376
 20
33.1146872131
 11
57.8075591376
 21
59.2427645613
  0
LINE
  5
22C
100
AcDbEntity
  8
0
100
AcDbLine
 62
7
  6
BYLAYER
 10
63.0047723411
 20
58.1608470066
 11
63.0047723411
 21
48.7710692096
  0
LINE
  5
22D
100
AcDbEntity
  8
0
100
AcDbLine
 62
7
  6
BYLAYER
 10
64.6310993908
 20
60.7327783772
 11
64.6310993908
 21
51.3430005803
  0
LINE
  5
22E
100
AcDbEntity
  8
0
100
AcDbLine
 62
7
  6
BYLAYER
 10
59.7361608964
 20
38.7011879372
 11
59.7488727183
 21
38.7065946194
  0
LINE
  5
22F
100
AcDbEntity
  8
0
100
AcDbLine
 62
7
  6
BYLAYER
 10
59.7271959557
 20
38.6536615639
 11
59.7396125809
 21
38.6573324595
  0
LINE
  5
230
100
AcDbEntity
  8
0
100
AcDbLine
 62
7
  6
BYLAYER
 10
70.181864513
 20
68.0200070708
 11
71.5960839632
 21
67.2035255617
  0
LINE
  5
231
100
AcDbEntity
  8
0
100
AcDbLine
 62
7
  6
BYLAYER
 10
70.9318517877
 20
68.0942988976
 11
72.346071238
 21
67.2778173886
  0
LINE
  5
232
100
AcDbEntity
  8
0
100
AcDbLine
 62
7
  6
BYLAYER
 10
66.0453188411
 20
50.5265190712
 11
66.0453188411
 21
59.9162968682
  0
LINE
  5
233
100
AcDbEntity
  8
0
100
AcDbLine
 62
7
  6
BYLAYER
 10
71.5960839632
 20
41.0754482136
 11
57.8075591376
 21
33.1146872131
  0
LINE
  5
234
100
AcDbEntity
  8
0
100
AcDbLine
 62
7
  6
BYLAYER
 10
72.6567397191
 20
66.5911381669
 11
72.6567397191
 21
42.9125680701
  0
ARC
  5
235
100
AcDbEntity
  8
0
100
AcDbCircle
 62
7
  6
BYLAYER
 10
15.7393555359
 20
61.862112285
 40
1.9625609075
100
AcDbArc
 50
240.0126146981
 51
242.2632096389
  0
ARC
  5
236
100
AcDbEntity
  8
0
100
AcDbCircle
 62
7
  6
BYLAYER
 10
36.1590126244
 20
56.3861939753
 40
1.9577558784
100
AcDbArc
 50
239.795132838
 51
242.8196992962
  0
ARC
  5
237
100
AcDbEntity
  8
0
100
AcDbCircle
 62
7
  6
BYLAYER
 10
34.7447931741
 20
67.0007044899
 40
1.9577558784
100
AcDbArc
 50
239.795132838
 51
242.8196992963
  0
ARC
  5
238
100
AcDbEntity
  8
0
100
AcDbCircle
 62
7
  6
BYLAYER
 10
65.9797093908
 20
45.1726929639
 40
1.9456049381
100
AcDbArc
 50
359.9919418417
 51
2.7302869505
  0
ARC
  5
239
100
AcDbEntity
  8
0
100
AcDbCircle
 62
7
  6
BYLAYER
 10
62.6866275569
 20
60.733066036
 40
1.9444718552
100
AcDbArc
 50
359.9915238505
 51
2.797214066
  0
ARC
  5
23A
100
AcDbEntity
  8
0
100
AcDbCircle
 62
7
  6
BYLAYER
 10
28.695717262
 20
47.516991185
 40
1.9222656599
100
AcDbArc
 50
177.2528832335
 51
180.0246736551
  0
ARC
  5
23B
100
AcDbEntity
  8
0
100
AcDbCircle
 62
7
  6
BYLAYER
 10
62.1500547204
 20
50.3715818085
 40
1.91952289
100
AcDbArc
 50
297.160245004
 51
299.828812155
  0
ARC
  5
23C
100
AcDbEntity
  8
0
100
AcDbCircle
 62
7
  6
BYLAYER
 10
35.5773957094
 20
57.3248900775
 40
1.9176221355
100
AcDbArc
 50
177.088690387
 51
180.0278032961
  0
ARC
  5
23D
100
AcDbEntity
  8
0
100
AcDbCircle
 62
7
  6
BYLAYER
 10
34.1631762591
 20
67.9394005921
 40
1.9176221355
100
AcDbArc
 50
177.088690387
 51
180.0278032961
  0
ARC
  5
23E
100
AcDbEntity
  8
0
100
AcDbCircle
 62
7
  6
BYLAYER
 10
15.6940604011
 20
61.7771017325
 40
1.8662377397
100
AcDbArc
 50
242.2793490948
 51
243.183982295
  0
SPLINE
  5
23F
100
AcDbEntity
  8
0
100
AcDbSpline
 62
7
  6
BYLAYER
 70
0
 71
3
 72
11
 73
7
 74
0
 42
0.0000001
 43
0.0000001
 44
0.0000000001
 40
0.0
 40
0.0
 40
0.0
 40
0.0
 40
0.289702809
 40
0.549088757
 40
0.7822160314
 40
1.0
 40
1.0
 40
1.0
 40
1.0
 10
70.181864513
 20
68.0200070708
 30
0.0
 10
70.247681815
 20
68.058006481
 30
0.0
 10
70.3786136341
 20
68.1202945496
 30
0.0
 10
70.5798586625
 20
68.1688934021
 30
0.0
 10
70.768685587
 20
68.1641139525
 30
0.0
 10
70.8823697119
 20
68.1228581042
 30
0.0
 10
70.9318480453
 20
68.0942924156
 30
0.0
  0
SPLINE
  5
240
100
AcDbEntity
  8
0
100
AcDbSpline
 62
7
  6
BYLAYER
 70
0
 71
3
 72
15
 73
11
 74
0
 42
0.0000001
 43
0.0000001
 44
0.0000000001
 40
0.0
 40
0.0
 40
0.0
 40
0.0
 40
0.1139974957
 40
0.2370736499
 40
0.3666873098
 40
0.4997325508
 40
0.6328226176
 40
0.7625289863
 40
0.8858272482
 40
1.0
 40
1.0
 40
1.0
 40
1.0
 10
63.104845117
 20
48.7063660795
 30
0.0
 10
63.2092075204
 20
48.7661453162
 30
0.0
 10
63.4154163787
 20
48.909838538
 30
0.0
 10
63.6992168748
 20
49.1742453797
 30
0.0
 10
63.9608955437
 20
49.4872145545
 30
0.0
 10
64.1905436964
 20
49.8369788522
 30
0.0
 10
64.379501768
 20
50.2104036574
 30
0.0
 10
64.5208100193
 20
50.5935065907
 30
0.0
 10
64.608924315
 20
50.9717773801
 30
0.0
 10
64.6310993908
 20
51.2225448671
 30
0.0
 10
64.6310993908
 20
51.3430005803
 30
0.0
  0
SPLINE
  5
241
100
AcDbEntity
  8
0
100
AcDbSpline
 62
7
  6
BYLAYER
 70
0
 71
3
 72
11
 73
7
 74
0
 42
0.0000001
 43
0.0000001
 44
0.0000000001
 40
0.0
 40
0.0
 40
0.0
 40
0.0
 40
0.2177830968
 40
0.450915839
 40
0.7103069095
 40
1.0
 40
1.0
 40
1.0
 40
1.0
 10
63.450068793
 20
47.7868375381
 30
0.0
 10
63.3791528101
 20
47.8277928791
 30
0.0
 10
63.2464507346
 20
47.9393312292
 30
0.0
 10
63.1051862614
 20
48.1703162024
 30
0.0
 10
63.0212880672
 20
48.4549634672
 30
0.0
 10
63.0047723411
 20
48.6621362679
 30
0.0
 10
63.0047723411
 20
48.7710692096
 30
0.0
  0
SPLINE
  5
242
100
AcDbEntity
  8
0
100
AcDbSpline
 62
7
  6
BYLAYER
 70
0
 71
3
 72
13
 73
9
 74
0
 42
0.0000001
 43
0.0000001
 44
0.0000000001
 40
0.0
 40
0.0
 40
0.0
 40
0.0
 40
0.1232765507
 40
0.251636672
 40
0.5138823261
 40
0.7687516249
 40
0.88829541
 40
1.0
 40
1.0
 40
1.0
 40
1.0
 10
66.7985167305
 20
42.8262026692
 30
0.0
 10
66.8805988196
 20
42.8989890766
 30
0.0
 10
67.0396309993
 20
43.0573942095
 30
0.0
 10
67.3295732028
 20
43.4118265297
 30
0.0
 10
67.6274474758
 20
43.9070643086
 30
0.0
 10
67.8268053653
 20
44.4417737588
 30
0.0
 10
67.91021058
 20
44.8670579596
 30
0.0
 10
67.9253143097
 20
45.0730117392
 30
0.0
 10
67.9253143097
 20
45.1724193313
 30
0.0
  0
SPLINE
  5
243
100
AcDbEntity
  8
0
100
AcDbSpline
 62
7
  6
BYLAYER
 70
0
 71
3
 72
11
 73
7
 74
0
 42
0.0000001
 43
0.0000001
 44
0.0000000001
 40
0.0
 40
0.0
 40
0.0
 40
0.0
 40
0.2266994306
 40
0.4694565411
 40
0.7276965259
 40
1.0
 40
1.0
 40
1.0
 40
1.0
 10
59.7396125809
 20
38.6573324595
 30
0.0
 10
60.3379383372
 20
38.8345520828
 30
0.0
 10
61.5513050375
 20
39.2918210759
 30
0.0
 10
63.3297442291
 20
40.2221222035
 30
0.0
 10
65.1033898783
 20
41.4054186021
 30
0.0
 10
66.2377007245
 20
42.3288982911
 30
0.0
 10
66.7985167305
 20
42.8262026692
 30
0.0
  0
SPLINE
  5
244
100
AcDbEntity
  8
0
100
AcDbSpline
 62
7
  6
BYLAYER
 70
0
 71
3
 72
19
 73
15
 74
0
 42
0.0000001
 43
0.0000001
 44
0.0000000001
 40
0.0
 40
0.0
 40
0.0
 40
0.0
 40
0.042839475
 40
0.0874483462
 40
0.1352618646
 40
0.1872009505
 40
0.2436814783
 40
0.3046755193
 40
0.4382822992
 40
0.5825585766
 40
0.7296493746
 40
0.8711682526
 40
0.9376087363
 40
1.0
 40
1.0
 40
1.0
 40
1.0
 10
12.2686942859
 20
75.6008413601
 30
0.0
 10
12.32170426
 20
75.6314340737
 30
0.0
 10
12.4385603336
 20
75.6799467752
 30
0.0
 10
12.6314213728
 20
75.7082907015
 30
0.0
 10
12.8385407155
 20
75.6929992664
 30
0.0
 10
13.0552951132
 20
75.6354194378
 30
0.0
 10
13.2774594499
 20
75.5372518424
 30
0.0
 10
13.58412845
 20
75.3495236645
 30
0.0
 10
13.9494600481
 20
75.0259813513
 30
0.0
 10
14.3249407261
 20
74.5452434932
 30
0.0
 10
14.6205950502
 20
73.9988879212
 30
0.0
 10
14.7841898635
 20
73.5153645398
 30
0.0
 10
14.8518278361
 20
73.1344955929
 30
0.0
 10
14.8639731317
 20
72.9503080299
 30
0.0
 10
14.8639731317
 20
72.8611702372
 30
0.0
  0
SPLINE
  5
245
100
AcDbEntity
  8
0
100
AcDbSpline
 62
7
  6
BYLAYER
 70
0
 71
3
 72
11
 73
7
 74
0
 42
0.0000001
 43
0.0000001
 44
0.0000000001
 40
0.0
 40
0.0
 40
0.0
 40
0.0
 40
0.2897042895
 40
0.5490907647
 40
0.7822174449
 40
1.0
 40
1.0
 40
1.0
 40
1.0
 10
72.6567397191
 20
66.5911381669
 30
0.0
 10
72.6567397191
 20
66.6671407265
 30
0.0
 10
72.6452166767
 20
66.8116813347
 30
0.0
 10
72.5866796104
 20
67.0102723521
 30
0.0
 10
72.4881225753
 20
67.1714172603
 30
0.0
 10
72.3955474813
 20
67.2492442947
 30
0.0
 10
72.3460674957
 20
67.2778109065
 30
0.0
  0
SPLINE
  5
246
100
AcDbEntity
  8
0
100
AcDbSpline
 62
7
  6
BYLAYER
 70
0
 71
3
 72
15
 73
11
 74
0
 42
0.0000001
 43
0.0000001
 44
0.0000000001
 40
0.0
 40
0.0
 40
0.0
 40
0.0
 40
0.1141229605
 40
0.2373462928
 40
0.366971064
 40
0.4999983279
 40
0.633025824
 40
0.762651271
 40
0.8858756957
 40
1.0
 40
1.0
 40
1.0
 40
1.0
 10
71.5960839632
 20
41.0754482136
 30
0.0
 10
71.6686741252
 20
41.117357913
 30
0.0
 10
71.8120848426
 20
41.2179273586
 30
0.0
 10
72.0094512551
 20
41.4025131502
 30
0.0
 10
72.1912943842
 20
41.6207926096
 30
0.0
 10
72.3508372201
 20
41.8644324996
 30
0.0
 10
72.4820631143
 20
42.1244216619
 30
0.0
 10
72.5801765361
 20
42.3910439266
 30
0.0
 10
72.6413491606
 20
42.6542635153
 30
0.0
 10
72.6567397191
 20
42.828747309
 30
0.0
 10
72.6567397191
 20
42.9125680701
 30
0.0
  0
SPLINE
  5
247
100
AcDbEntity
  8
0
100
AcDbSpline
 62
7
  6
BYLAYER
 70
0
 71
3
 72
19
 73
15
 74
0
 42
0.0000001
 43
0.0000001
 44
0.0000000001
 40
0.0
 40
0.0
 40
0.0
 40
0.0
 40
0.0623918057
 40
0.1288327497
 40
0.270353951
 40
0.4174439676
 40
0.5617182817
 40
0.6953254595
 40
0.7563187559
 40
0.8127988782
 40
0.8647373587
 40
0.9125509587
 40
0.9571581598
 40
1.0
 40
1.0
 40
1.0
 40
1.0
 10
63.0047723411
 20
58.1608470066
 30
0.0
 10
63.0047723411
 20
58.249985271
 30
0.0
 10
63.0169170178
 20
58.4341736831
 30
0.0
 10
63.0845560002
 20
58.8150459995
 30
0.0
 10
63.2481505125
 20
59.2985704617
 30
0.0
 10
63.54380006
 20
59.8449257447
 30
0.0
 10
63.919276385
 20
60.3256594149
 30
0.0
 10
64.2845997489
 20
60.6492044682
 30
0.0
 10
64.5912669176
 20
60.836930185
 30
0.0
 10
64.8134242716
 20
60.9351062491
 30
0.0
 10
65.0301796553
 20
60.9926763993
 30
0.0
 10
65.2372933215
 20
61.0079697547
 30
0.0
 10
65.4301573163
 20
60.9796526436
 30
0.0
 10
65.5470190051
 20
60.9311390112
 30
0.0
 10
65.6000223892
 20
60.9005285397
 30
0.0
  0
SPLINE
  5
248
100
AcDbEntity
  8
0
100
AcDbSpline
 62
7
  6
BYLAYER
 70
0
 71
3
 72
13
 73
9
 74
0
 42
0.0000001
 43
0.0000001
 44
0.0000000001
 40
0.0
 40
0.0
 40
0.0
 40
0.0
 40
0.3013875255
 40
0.5659896523
 40
0.6844852553
 40
0.7948675979
 40
0.8990945702
 40
1.0
 40
1.0
 40
1.0
 40
1.0
 10
67.4257848391
 20
44.9467046226
 30
0.0
 10
67.5472494351
 20
45.0544135231
 30
0.0
 10
67.7930940567
 20
45.2380714054
 30
0.0
 10
68.1339002525
 20
45.3906052932
 30
0.0
 10
68.3960637127
 20
45.4408452712
 30
0.0
 10
68.5765537183
 20
45.443481692
 30
0.0
 10
68.7447355113
 20
45.4116666869
 30
0.0
 10
68.8471684243
 20
45.3673487632
 30
0.0
 10
68.8942368165
 20
45.3401685959
 30
0.0
  0
SPLINE
  5
249
100
AcDbEntity
  8
0
100
AcDbSpline
 62
7
  6
BYLAYER
 70
0
 71
3
 72
11
 73
7
 74
0
 42
0.0000001
 43
0.0000001
 44
0.0000000001
 40
0.0
 40
0.0
 40
0.0
 40
0.0
 40
0.2253954228
 40
0.4677254764
 40
0.7264221675
 40
1.0
 40
1.0
 40
1.0
 40
1.0
 10
61.6243063431
 20
41.5972394449
 30
0.0
 10
62.1144411502
 20
41.7285672661
 30
0.0
 10
63.1111158746
 20
42.0808737404
 30
0.0
 10
64.5729795476
 20
42.8220413871
 30
0.0
 10
66.0326901205
 20
43.7819521468
 30
0.0
 10
66.9649702536
 20
44.538076644
 30
0.0
 10
67.4257848391
 20
44.9467046226
 30
0.0
  0
SPLINE
  5
24A
100
AcDbEntity
  8
0
100
AcDbSpline
 62
7
  6
BYLAYER
 70
0
 71
3
 72
15
 73
11
 74
0
 42
0.0000001
 43
0.0000001
 44
0.0000000001
 40
0.0
 40
0.0
 40
0.0
 40
0.0
 40
0.1180911259
 40
0.2465625611
 40
0.3815667729
 40
0.5186211535
 40
0.652962325
 40
0.7801248568
 40
0.8965314572
 40
1.0
 40
1.0
 40
1.0
 40
1.0
 10
59.7105574223
 20
38.7966789259
 30
0.0
 10
59.7105574223
 20
38.9378087081
 30
0.0
 10
59.7409722105
 20
39.2327822029
 30
0.0
 10
59.8594759826
 20
39.6746743222
 30
0.0
 10
60.0472533042
 20
40.1165912006
 30
0.0
 10
60.2946674051
 20
40.5361305191
 30
0.0
 10
60.5893670076
 20
40.9121691908
 30
0.0
 10
60.9166498905
 20
41.2259807354
 30
0.0
 10
61.2602486824
 20
41.4617208372
 30
0.0
 10
61.5048651116
 20
41.565236093
 30
0.0
 10
61.6243063431
 20
41.5972394449
 30
0.0
  0
SPLINE
  5
24B
100
AcDbEntity
  8
0
100
AcDbSpline
 62
7
  6
BYLAYER
 70
0
 71
3
 72
15
 73
11
 74
0
 42
0.0000001
 43
0.0000001
 44
0.0000000001
 40
0.0
 40
0.0
 40
0.0
 40
0.0
 40
0.1141231812
 40
0.2373468278
 40
0.366971913
 40
0.4999994099
 40
0.6330269884
 40
0.76265231
 40
0.885876356
 40
1.0
 40
1.0
 40
1.0
 40
1.0
 10
56.3933396873
 20
60.0592460703
 30
0.0
 10
56.2965527376
 20
60.0033664324
 30
0.0
 10
56.0848174618
 20
59.9048169905
 30
0.0
 10
55.7400981188
 20
59.7999752755
 30
0.0
 10
55.3668217287
 20
59.7355198839
 30
0.0
 10
54.9791287048
 20
59.7137207765
 30
0.0
 10
54.5914353447
 20
59.7355179995
 30
0.0
 10
54.2181579336
 20
59.799971592
 30
0.0
 10
53.8734369879
 20
59.9048117093
 30
0.0
 10
53.6617003077
 20
60.003360105
 30
0.0
 10
53.5649125626
 20
60.0592392716
 30
0.0
  0
SPLINE
  5
24C
100
AcDbEntity
  8
0
100
AcDbSpline
 62
7
  6
BYLAYER
 70
0
 71
3
 72
19
 73
15
 74
0
 42
0.0000001
 43
0.0000001
 44
0.0000000001
 40
0.0
 40
0.0
 40
0.0
 40
0.0
 40
0.0428394104
 40
0.0874448899
 40
0.1352571039
 40
0.1871950253
 40
0.2436735499
 40
0.3046656819
 40
0.4382689093
 40
0.5825434307
 40
0.7296392143
 40
0.871166535
 40
0.9376088396
 40
1.0
 40
1.0
 40
1.0
 40
1.0
 10
32.6908605146
 20
57.4917046563
 30
0.0
 10
32.7438627331
 20
57.522310659
 30
0.0
 10
32.860715056
 20
57.5708313202
 30
0.0
 10
33.0535729581
 20
57.5991424533
 30
0.0
 10
33.2606829282
 20
57.5838671419
 30
0.0
 10
33.4774338373
 20
57.5262944323
 30
0.0
 10
33.6995939572
 20
57.4281355822
 30
0.0
 10
34.0062552771
 20
57.2404147612
 30
0.0
 10
34.3715863185
 20
56.9168881302
 30
0.0
 10
34.7470759087
 20
56.4361570749
 30
0.0
 10
35.0427454767
 20
55.8897903346
 30
0.0
 10
35.2063510513
 20
55.406246985
 30
0.0
 10
35.2739925945
 20
55.025363744
 30
0.0
 10
35.2861379434
 20
54.8411736551
 30
0.0
 10
35.2861379434
 20
54.7520359818
 30
0.0
  0
SPLINE
  5
24D
100
AcDbEntity
  8
0
100
AcDbSpline
 62
7
  6
BYLAYER
 70
0
 71
3
 72
13
 73
9
 74
0
 42
0.0000001
 43
0.0000001
 44
0.0000000001
 40
0.0
 40
0.0
 40
0.0
 40
0.0
 40
0.1009057443
 40
0.2051329859
 40
0.3155155168
 40
0.4340112056
 40
0.6986131456
 40
1.0
 40
1.0
 40
1.0
 40
1.0
 10
25.804540282
 20
47.6839054095
 30
0.0
 10
25.8516090524
 20
47.7110862504
 30
0.0
 10
25.9540428394
 20
47.7554054907
 30
0.0
 10
26.1222262931
 20
47.7872223128
 30
0.0
 10
26.3027182583
 20
47.7845875026
 30
0.0
 10
26.5648846123
 20
47.7343494533
 30
0.0
 10
26.9056948943
 20
47.5818173337
 30
0.0
 10
27.1515427955
 20
47.3981598927
 30
0.0
 10
27.2730089623
 20
47.2904510801
 30
0.0
  0
SPLINE
  5
24E
100
AcDbEntity
  8
0
100
AcDbSpline
 62
7
  6
BYLAYER
 70
0
 71
3
 72
19
 73
15
 74
0
 42
0.0000001
 43
0.0000001
 44
0.0000000001
 40
0.0
 40
0.0
 40
0.0
 40
0.0
 40
0.0428394104
 40
0.0874448899
 40
0.1352571039
 40
0.1871950253
 40
0.2436735499
 40
0.3046656819
 40
0.4382689093
 40
0.5825434307
 40
0.7296392143
 40
0.871166535
 40
0.9376088396
 40
1.0
 40
1.0
 40
1.0
 40
1.0
 10
31.2766410643
 20
68.1062151709
 30
0.0
 10
31.3296432828
 20
68.1368211736
 30
0.0
 10
31.4464956057
 20
68.1853418348
 30
0.0
 10
31.6393535078
 20
68.2136529679
 30
0.0
 10
31.8464634779
 20
68.1983776565
 30
0.0
 10
32.063214387
 20
68.1408049469
 30
0.0
 10
32.2853745069
 20
68.0426460968
 30
0.0
 10
32.5920358268
 20
67.8549252758
 30
0.0
 10
32.9573668683
 20
67.5313986448
 30
0.0
 10
33.3328564585
 20
67.0506675895
 30
0.0
 10
33.6285260264
 20
66.5043008492
 30
0.0
 10
33.792131601
 20
66.0207574996
 30
0.0
 10
33.8597731442
 20
65.6398742586
 30
0.0
 10
33.8719184931
 20
65.4556841697
 30
0.0
 10
33.8719184931
 20
65.3665464964
 30
0.0
  0
SPLINE
  5
24F
100
AcDbEntity
  8
0
100
AcDbSpline
 62
7
  6
BYLAYER
 70
0
 71
3
 72
14
 73
10
 74
0
 42
0.0000001
 43
0.0000001
 44
0.0000000001
 40
0.0
 40
0.0
 40
0.0
 40
0.0
 40
0.1080407776
 40
0.2181281214
 40
0.3321093109
 40
0.4515021193
 40
0.5774464977
 40
0.7107230282
 40
1.0
 40
1.0
 40
1.0
 40
1.0
 10
13.7607123911
 20
81.8439677686
 30
0.0
 10
13.8426823623
 20
81.891293796
 30
0.0
 10
14.0167436639
 20
81.9727589929
 30
0.0
 10
14.2983501455
 20
82.0506849378
 30
0.0
 10
14.5985765607
 20
82.0841275738
 30
0.0
 10
14.9141674507
 20
82.0731888769
 30
0.0
 10
15.2421599222
 20
82.0181617244
 30
0.0
 10
15.7042629288
 20
81.8834397514
 30
0.0
 10
16.0412244205
 20
81.7230606203
 30
0.0
 10
16.2606993277
 20
81.5963495901
 30
0.0
  0
SPLINE
  5
250
100
AcDbEntity
  8
0
100
AcDbSpline
 62
7
  6
BYLAYER
 70
0
 71
3
 72
13
 73
9
 74
0
 42
0.0000001
 43
0.0000001
 44
0.0000000001
 40
0.0
 40
0.0
 40
0.0
 40
0.0
 40
0.1232834585
 40
0.2516537273
 40
0.5139086852
 40
0.768799412
 40
0.888250673
 40
1.0
 40
1.0
 40
1.0
 40
1.0
 10
13.2894114742
 20
62.3115172981
 30
0.0
 10
13.3114117243
 20
62.2040075507
 30
0.0
 10
13.3690970274
 20
61.9870128557
 30
0.0
 10
13.5311434808
 20
61.5585866069
 30
0.0
 10
13.8111891901
 20
61.0528458725
 30
0.0
 10
14.17475994
 20
60.6128911723
 30
0.0
 10
14.5014180075
 20
60.3279585804
 30
0.0
 10
14.6722889872
 20
60.2119763214
 30
0.0
 10
14.7584493096
 20
60.1622686772
 30
0.0
  0
SPLINE
  5
251
100
AcDbEntity
  8
0
100
AcDbSpline
 62
7
  6
BYLAYER
 70
0
 71
3
 72
9
 73
5
 74
0
 42
0.0000001
 43
0.0000001
 44
0.0000000001
 40
0.0
 40
0.0
 40
0.0
 40
0.0
 40
0.4860215575
 40
1.0
 40
1.0
 40
1.0
 40
1.0
 10
12.5171930178
 20
69.5303580941
 30
0.0
 10
12.5171930178
 20
68.3526959241
 30
0.0
 10
12.6582011041
 20
65.928432281
 30
0.0
 10
13.0397325017
 20
63.5316363031
 30
0.0
 10
13.2894114742
 20
62.3115172981
 30
0.0
  0
SPLINE
  5
252
100
AcDbEntity
  8
0
100
AcDbSpline
 62
7
  6
BYLAYER
 70
0
 71
3
 72
9
 73
5
 74
0
 42
0.0000001
 43
0.0000001
 44
0.0000000001
 40
0.0
 40
0.0
 40
0.0
 40
0.0
 40
0.4829720237
 40
1.0
 40
1.0
 40
1.0
 40
1.0
 10
13.2066470608
 20
75.5380097989
 30
0.0
 10
12.9699053604
 20
74.5918367925
 30
0.0
 10
12.6213116489
 20
72.5958894871
 30
0.0
 10
12.5171930178
 20
70.5744735683
 30
0.0
 10
12.5171930178
 20
69.5303580941
 30
0.0
  0
SPLINE
  5
253
100
AcDbEntity
  8
0
100
AcDbSpline
 62
7
  6
BYLAYER
 70
0
 71
3
 72
15
 73
11
 74
0
 42
0.0000001
 43
0.0000001
 44
0.0000000001
 40
0.0
 40
0.0
 40
0.0
 40
0.0
 40
0.1140768332
 40
0.2372359125
 40
0.3667937549
 40
0.4997656704
 40
0.6327635545
 40
0.7624351528
 40
0.8856941827
 40
1.0
 40
1.0
 40
1.0
 40
1.0
 10
33.6597737997
 20
57.323959534
 30
0.0
 10
33.6597737997
 20
57.2041286684
 30
0.0
 10
33.6817189926
 20
56.9547006048
 30
0.0
 10
33.7689697408
 20
56.5783867108
 30
0.0
 10
33.9089398054
 20
56.1971481288
 30
0.0
 10
34.0961854053
 20
55.8252779396
 30
0.0
 10
34.3238829884
 20
55.4765591432
 30
0.0
 10
34.5835339898
 20
55.1639636495
 30
0.0
 10
34.8653959467
 20
54.8991334224
 30
0.0
 10
35.070297894
 20
54.7546264659
 30
0.0
 10
35.1740786351
 20
54.6942385633
 30
0.0
  0
SPLINE
  5
254
100
AcDbEntity
  8
0
100
AcDbSpline
 62
7
  6
BYLAYER
 70
0
 71
3
 72
11
 73
7
 74
0
 42
0.0000001
 43
0.0000001
 44
0.0000000001
 40
0.0
 40
0.0
 40
0.0
 40
0.0
 40
0.2727749576
 40
0.5311842056
 40
0.7737834352
 40
1.0
 40
1.0
 40
1.0
 40
1.0
 10
27.9002587422
 20
45.1699521422
 30
0.0
 10
28.8070942247
 20
44.3658255645
 30
0.0
 10
30.64144108
 20
42.8745532245
 30
0.0
 10
33.5111370837
 20
40.9702595634
 30
0.0
 10
36.3873151791
 20
39.4829749802
 30
0.0
 10
38.3491635831
 20
38.7606832513
 30
0.0
 10
39.3156271683
 20
38.4845423651
 30
0.0
  0
SPLINE
  5
255
100
AcDbEntity
  8
0
100
AcDbSpline
 62
7
  6
BYLAYER
 70
0
 71
3
 72
13
 73
9
 74
0
 42
0.0000001
 43
0.0000001
 44
0.0000000001
 40
0.0
 40
0.0
 40
0.0
 40
0.0
 40
0.1117045817
 40
0.2312483569
 40
0.4861175218
 40
0.7483631314
 40
0.8767232826
 40
1.0
 40
1.0
 40
1.0
 40
1.0
 10
26.7734517804
 20
47.5161633873
 30
0.0
 10
26.7734517804
 20
47.4167557901
 30
0.0
 10
26.788555675
 20
47.2108020004
 30
0.0
 10
26.8719615952
 20
46.7855180066
 30
0.0
 10
27.0713213442
 20
46.2508092588
 30
0.0
 10
27.3691981753
 20
45.7555730347
 30
0.0
 10
27.6591426333
 20
45.4011422985
 30
0.0
 10
27.8181760351
 20
45.242738097
 30
0.0
 10
27.9002587422
 20
45.1699521422
 30
0.0
  0
SPLINE
  5
256
100
AcDbEntity
  8
0
100
AcDbSpline
 62
7
  6
BYLAYER
 70
0
 71
3
 72
11
 73
7
 74
0
 42
0.0000001
 43
0.0000001
 44
0.0000000001
 40
0.0
 40
0.0
 40
0.0
 40
0.0
 40
0.2177795458
 40
0.4509094454
 40
0.7102955281
 40
1.0
 40
1.0
 40
1.0
 40
1.0
 10
60.1558535323
 20
37.812446713
 30
0.0
 10
60.0849435725
 20
37.8534093203
 30
0.0
 10
59.9522509997
 20
37.964948442
 30
0.0
 10
59.8109681545
 20
38.1959168113
 30
0.0
 10
59.7270789586
 20
38.4805687821
 30
0.0
 10
59.7105574223
 20
38.6877420318
 30
0.0
 10
59.7105574223
 20
38.7966789259
 30
0.0
  0
SPLINE
  5
257
100
AcDbEntity
  8
0
100
AcDbSpline
 62
7
  6
BYLAYER
 70
0
 71
3
 72
15
 73
11
 74
0
 42
0.0000001
 43
0.0000001
 44
0.0000000001
 40
0.0
 40
0.0
 40
0.0
 40
0.0
 40
0.1140768332
 40
0.2372359125
 40
0.3667937549
 40
0.4997656704
 40
0.6327635545
 40
0.7624351528
 40
0.8856941827
 40
1.0
 40
1.0
 40
1.0
 40
1.0
 10
32.2455543494
 20
67.9384700486
 30
0.0
 10
32.2455543494
 20
67.818639183
 30
0.0
 10
32.2674995423
 20
67.5692111194
 30
0.0
 10
32.3547502905
 20
67.1928972254
 30
0.0
 10
32.4947203551
 20
66.8116586434
 30
0.0
 10
32.681965955
 20
66.4397884542
 30
0.0
 10
32.9096635381
 20
66.0910696578
 30
0.0
 10
33.1693145395
 20
65.7784741641
 30
0.0
 10
33.4511764964
 20
65.513643937
 30
0.0
 10
33.6560784437
 20
65.3691369805
 30
0.0
 10
33.7598591848
 20
65.3087490779
 30
0.0
  0
SPLINE
  5
258
100
AcDbEntity
  8
0
100
AcDbSpline
 62
7
  6
BYLAYER
 70
0
 71
3
 72
11
 73
7
 74
0
 42
0.0000001
 43
0.0000001
 44
0.0000000001
 40
0.0
 40
0.0
 40
0.0
 40
0.0
 40
0.2204348105
 40
0.4583130946
 40
0.7176949479
 40
1.0
 40
1.0
 40
1.0
 40
1.0
 10
46.2473187288
 20
35.0688767475
 30
0.0
 10
46.5492042268
 20
35.1361655579
 30
0.0
 10
47.1965124848
 20
35.1957413776
 30
0.0
 10
48.2017152552
 20
35.0683864417
 30
0.0
 10
49.2487867816
 20
34.7351202454
 30
0.0
 10
49.9320154447
 20
34.3956055845
 30
0.0
 10
50.2750538432
 20
34.1975567533
 30
0.0
  0
SPLINE
  5
259
100
AcDbEntity
  8
0
100
AcDbSpline
 62
7
  6
BYLAYER
 70
0
 71
3
 72
20
 73
16
 74
0
 42
0.0000001
 43
0.0000001
 44
0.0000000001
 40
0.0
 40
0.0
 40
0.0
 40
0.0
 40
0.1513988887
 40
0.2980750469
 40
0.369008886
 40
0.438010418
 40
0.5048818914
 40
0.569459514
 40
0.6316175058
 40
0.6912781479
 40
0.8029688193
 40
0.8552408728
 40
0.9053137106
 40
0.9534595772
 40
1.0
 40
1.0
 40
1.0
 40
1.0
 10
17.9032348533
 20
51.888551786
 30
0.0
 10
18.9078079809
 20
50.455929467
 30
0.0
 10
21.0131706603
 20
47.7222740021
 30
0.0
 10
23.9278584708
 20
44.5989922474
 30
0.0
 10
26.3700606289
 20
42.3591741736
 30
0.0
 10
28.2174235509
 20
40.8406787934
 30
0.0
 10
30.089658363
 20
39.4739795411
 30
0.0
 10
31.9755915979
 20
38.2672183396
 30
0.0
 10
33.8645255667
 20
37.2275360225
 30
0.0
 10
36.3167846613
 20
36.0977856744
 30
0.0
 10
38.7860051928
 20
35.2850467857
 30
0.0
 10
41.224767207
 20
34.8512064785
 30
0.0
 10
42.962588291
 20
34.7216520476
 30
0.0
 10
44.6379333004
 20
34.782221731
 30
0.0
 10
45.7223286655
 20
34.9518590138
 30
0.0
 10
46.2473187288
 20
35.0688767475
 30
0.0
  0
SPLINE
  5
25A
100
AcDbEntity
  8
0
100
AcDbSpline
 62
7
  6
BYLAYER
 70
0
 71
3
 72
9
 73
5
 74
0
 42
0.0000001
 43
0.0000001
 44
0.0000000001
 40
0.0
 40
0.0
 40
0.0
 40
0.0
 40
0.4873646779
 40
1.0
 40
1.0
 40
1.0
 40
1.0
 10
15.2135725239
 20
54.8422079109
 30
0.0
 10
15.7146158506
 20
54.4275013493
 30
0.0
 10
16.6776064424
 20
53.4963112744
 30
0.0
 10
17.5104568437
 20
52.448692733
 30
0.0
 10
17.9032348533
 20
51.888551786
 30
0.0
  0
SPLINE
  5
25B
100
AcDbEntity
  8
0
100
AcDbSpline
 62
7
  6
BYLAYER
 70
0
 71
3
 72
15
 73
11
 74
0
 42
0.0000001
 43
0.0000001
 44
0.0000000001
 40
0.0
 40
0.0
 40
0.0
 40
0.0
 40
0.1180124832
 40
0.2414887369
 40
0.3688121354
 40
0.4982360207
 40
0.6278935271
 40
0.7559073778
 40
0.8805000016
 40
1.0
 40
1.0
 40
1.0
 40
1.0
 10
9.7509569023
 20
64.5393585125
 30
0.0
 10
9.8137851692
 20
64.0969697836
 30
0.0
 10
9.9928866842
 20
63.1983694323
 30
0.0
 10
10.3982314301
 20
61.8600920028
 30
0.0
 10
10.9389246967
 20
60.5238075602
 30
0.0
 10
11.6032027634
 20
59.2182925102
 30
0.0
 10
12.3769652342
 20
57.9714697273
 30
0.0
 10
13.2436000068
 20
56.8099226622
 30
0.0
 10
14.1844971774
 20
55.7587748517
 30
0.0
 10
14.8649987453
 20
55.1306804723
 30
0.0
 10
15.2135725239
 20
54.8422079109
 30
0.0
  0
SPLINE
  5
25C
100
AcDbEntity
  8
0
100
AcDbSpline
 62
7
  6
BYLAYER
 70
0
 71
3
 72
9
 73
5
 74
0
 42
0.0000001
 43
0.0000001
 44
0.0000000001
 40
0.0
 40
0.0
 40
0.0
 40
0.0
 40
0.4900062031
 40
1.0
 40
1.0
 40
1.0
 40
1.0
 10
9.3705665167
 20
69.714059635
 30
0.0
 10
9.3705665167
 20
68.8660417491
 30
0.0
 10
9.4381022629
 20
67.1349480237
 30
0.0
 10
9.6268179765
 20
65.4131937886
 30
0.0
 10
9.7509569023
 20
64.5393585125
 30
0.0
  0
SPLINE
  5
25D
100
AcDbEntity
  8
0
100
AcDbSpline
 62
7
  6
BYLAYER
 70
0
 71
3
 72
11
 73
7
 74
0
 42
0.0000001
 43
0.0000001
 44
0.0000000001
 40
0.0
 40
0.0
 40
0.0
 40
0.0
 40
0.2274137669
 40
0.4693257852
 40
0.7267865567
 40
1.0
 40
1.0
 40
1.0
 40
1.0
 10
11.6398204022
 20
80.2681281107
 30
0.0
 10
11.2567222969
 20
79.5366915754
 30
0.0
 10
10.5837727497
 20
77.9635421558
 30
0.0
 10
9.880074476
 20
75.4134810844
 30
0.0
 10
9.4584194362
 20
72.6344502272
 30
0.0
 10
9.3705665167
 20
70.7060380134
 30
0.0
 10
9.3705665167
 20
69.714059635
 30
0.0
  0
SPLINE
  5
25E
100
AcDbEntity
  8
0
100
AcDbSpline
 62
7
  6
BYLAYER
 70
0
 71
3
 72
11
 73
7
 74
0
 42
0.0000001
 43
0.0000001
 44
0.0000000001
 40
0.0
 40
0.0
 40
0.0
 40
0.0
 40
0.2897016594
 40
0.5490895814
 40
0.7822189142
 40
1.0
 40
1.0
 40
1.0
 40
1.0
 10
33.8719184931
 20
65.3665464964
 30
0.0
 10
33.8719184931
 20
65.2576103696
 30
0.0
 10
33.85540229
 20
65.0504358809
 30
0.0
 10
33.7715034968
 20
64.7657868917
 30
0.0
 10
33.6302355007
 20
64.5348105345
 30
0.0
 10
33.497541607
 20
64.4232642068
 30
0.0
 10
33.4266241037
 20
64.3823130663
 30
0.0
  0
SPLINE
  5
25F
100
AcDbEntity
  8
0
100
AcDbSpline
 62
7
  6
BYLAYER
 70
0
 71
3
 72
11
 73
7
 74
0
 42
0.0000001
 43
0.0000001
 44
0.0000000001
 40
0.0
 40
0.0
 40
0.0
 40
0.0
 40
0.2735774309
 40
0.5322739863
 40
0.7746041767
 40
1.0
 40
1.0
 40
1.0
 40
1.0
 10
27.2730089623
 20
47.2904510801
 30
0.0
 10
28.0798049608
 20
46.5750334352
 30
0.0
 10
29.7120448792
 20
45.2512265151
 30
0.0
 10
32.2677110495
 20
43.57063801
 30
0.0
 10
34.8271468385
 20
42.2730225602
 30
0.0
 10
36.5721271464
 20
41.6562173028
 30
0.0
 10
37.4302562057
 20
41.4262943148
 30
0.0
  0
SPLINE
  5
260
100
AcDbEntity
  8
0
100
AcDbSpline
 62
7
  6
BYLAYER
 70
0
 71
3
 72
11
 73
7
 74
0
 42
0.0000001
 43
0.0000001
 44
0.0000000001
 40
0.0
 40
0.0
 40
0.0
 40
0.0
 40
0.2897035226
 40
0.5490894037
 40
0.7822196596
 40
1.0
 40
1.0
 40
1.0
 40
1.0
 10
39.3440210621
 20
38.6257429961
 30
0.0
 10
39.3440210621
 20
38.5168065893
 30
0.0
 10
39.3274994654
 20
38.3096340246
 30
0.0
 10
39.2436103688
 20
38.0249827279
 30
0.0
 10
39.1023277491
 20
37.7940142278
 30
0.0
 10
38.9696355401
 20
37.6824744765
 30
0.0
 10
38.898725716
 20
37.6415112329
 30
0.0
  0
SPLINE
  5
261
100
AcDbEntity
  8
0
100
AcDbSpline
 62
7
  6
BYLAYER
 70
0
 71
3
 72
15
 73
11
 74
0
 42
0.0000001
 43
0.0000001
 44
0.0000000001
 40
0.0
 40
0.0
 40
0.0
 40
0.0
 40
0.1034689891
 40
0.2198758634
 40
0.3470385001
 40
0.4813796305
 40
0.6184338586
 40
0.7534378516
 40
0.8819090553
 40
1.0
 40
1.0
 40
1.0
 40
1.0
 10
37.4302562057
 20
41.4262943148
 30
0.0
 10
37.549698301
 20
41.3942915722
 30
0.0
 10
37.7943165566
 20
41.290777651
 30
0.0
 10
38.1379182973
 20
41.0550392206
 30
0.0
 10
38.4652039839
 20
40.7412292341
 30
0.0
 10
38.7599061071
 20
40.365191944
 30
0.0
 10
39.0073223221
 20
39.9456537646
 30
0.0
 10
39.1951012492
 20
39.5037377194
 30
0.0
 10
39.3136060353
 20
39.0618460759
 30
0.0
 10
39.3440210621
 20
38.7668727252
 30
0.0
 10
39.3440210621
 20
38.6257429961
 30
0.0
  0
SPLINE
  5
262
100
AcDbEntity
  8
0
100
AcDbSpline
 62
7
  6
BYLAYER
 70
0
 71
3
 72
11
 73
7
 74
0
 42
0.0000001
 43
0.0000001
 44
0.0000000001
 40
0.0
 40
0.0
 40
0.0
 40
0.0
 40
0.2897016594
 40
0.5490895814
 40
0.7822189142
 40
1.0
 40
1.0
 40
1.0
 40
1.0
 10
35.2861379434
 20
54.7520359818
 30
0.0
 10
35.2861379434
 20
54.643099855
 30
0.0
 10
35.2696217403
 20
54.4359253663
 30
0.0
 10
35.1857229471
 20
54.1512763771
 30
0.0
 10
35.044454951
 20
53.9203000199
 30
0.0
 10
34.9117610573
 20
53.8087536922
 30
0.0
 10
34.840843554
 20
53.7678025517
 30
0.0
  0
SPLINE
  5
263
100
AcDbEntity
  8
0
100
AcDbSpline
 62
7
  6
BYLAYER
 70
0
 71
3
 72
11
 73
7
 74
0
 42
0.0000001
 43
0.0000001
 44
0.0000000001
 40
0.0
 40
0.0
 40
0.0
 40
0.0
 40
0.2897017385
 40
0.5490897598
 40
0.7822174391
 40
1.0
 40
1.0
 40
1.0
 40
1.0
 10
14.8639731317
 20
60.2238529569
 30
0.0
 10
14.8639731317
 20
60.1149168455
 30
0.0
 10
14.8474560376
 20
59.9077424884
 30
0.0
 10
14.763558263
 20
59.62309395
 30
0.0
 10
14.6222902708
 20
59.392117722
 30
0.0
 10
14.4895963104
 20
59.2805716024
 30
0.0
 10
14.418678259
 20
59.2396203698
 30
0.0
  0
SPLINE
  5
264
100
AcDbEntity
  8
0
100
AcDbSpline
 62
7
  6
BYLAYER
 70
0
 71
3
 72
9
 73
5
 74
0
 42
0.0000001
 43
0.0000001
 44
0.0000000001
 40
0.0
 40
0.0
 40
0.0
 40
0.0
 40
0.2604032204
 40
1.0
 40
1.0
 40
1.0
 40
1.0
 10
14.8121706456
 20
60.7081121678
 30
0.0
 10
14.82065357
 20
60.6666582272
 30
0.0
 10
14.8496502037
 20
60.5067837309
 30
0.0
 10
14.8639731317
 20
60.3440302409
 30
0.0
 10
14.8639731317
 20
60.2238529569
 30
0.0
  0
SPLINE
  5
265
100
AcDbEntity
  8
0
100
AcDbSpline
 62
7
  6
BYLAYER
 70
0
 71
3
 72
9
 73
5
 74
0
 42
0.0000001
 43
0.0000001
 44
0.0000000001
 40
0.0
 40
0.0
 40
0.0
 40
0.0
 40
0.4860215575
 40
1.0
 40
1.0
 40
1.0
 40
1.0
 10
14.1435571615
 20
66.958434542
 30
0.0
 10
14.1435571615
 20
65.9387738487
 30
0.0
 10
14.2656468462
 20
63.839762426
 30
0.0
 10
14.595989944
 20
61.7645334592
 30
0.0
 10
14.8121706456
 20
60.7081121678
 30
0.0
  0
SPLINE
  5
266
100
AcDbEntity
  8
0
100
AcDbSpline
 62
7
  6
BYLAYER
 70
0
 71
3
 72
9
 73
5
 74
0
 42
0.0000001
 43
0.0000001
 44
0.0000000001
 40
0.0
 40
0.0
 40
0.0
 40
0.0
 40
0.4818970559
 40
1.0
 40
1.0
 40
1.0
 40
1.0
 10
14.8121706456
 20
72.4367260317
 30
0.0
 10
14.5822358849
 20
71.5785918619
 30
0.0
 10
14.2439179307
 20
69.7591776344
 30
0.0
 10
14.1435571615
 20
67.9135876702
 30
0.0
 10
14.1435571615
 20
66.958434542
 30
0.0
  0
SPLINE
  5
267
100
AcDbEntity
  8
0
100
AcDbSpline
 62
7
  6
BYLAYER
 70
0
 71
3
 72
9
 73
5
 74
0
 42
0.0000001
 43
0.0000001
 44
0.0000000001
 40
0.0
 40
0.0
 40
0.0
 40
0.0
 40
0.2638117592
 40
1.0
 40
1.0
 40
1.0
 40
1.0
 10
14.8639731317
 20
72.8611702372
 30
0.0
 10
14.8639731317
 20
72.8235109954
 30
0.0
 10
14.8600006594
 20
72.6808407961
 30
0.0
 10
14.8393700701
 20
72.5382363709
 30
0.0
 10
14.8121706456
 20
72.4367260317
 30
0.0
  0
SPLINE
  5
268
100
AcDbEntity
  8
0
100
AcDbSpline
 62
7
  6
BYLAYER
 70
0
 71
3
 72
15
 73
11
 74
0
 42
0.0000001
 43
0.0000001
 44
0.0000000001
 40
0.0
 40
0.0
 40
0.0
 40
0.0
 40
0.1141464977
 40
0.2373352781
 40
0.3669759338
 40
0.4999994786
 40
0.633023096
 40
0.7626639634
 40
0.8858530776
 40
1.0
 40
1.0
 40
1.0
 40
1.0
 10
57.8075591376
 20
33.1146872131
 30
0.0
 10
57.6139452377
 20
33.0029048431
 30
0.0
 10
57.1905179145
 20
32.8057586865
 30
0.0
 10
56.5010434134
 20
32.596155301
 30
0.0
 10
55.7545422923
 20
32.4672140849
 30
0.0
 10
54.9791367828
 20
32.4236564112
 30
0.0
 10
54.2037306534
 20
32.4672104046
 30
0.0
 10
53.4572277011
 20
32.5961480763
 30
0.0
 10
52.7677502317
 20
32.8057481842
 30
0.0
 10
52.3443203144
 20
33.002892226
 30
0.0
 10
52.1507048881
 20
33.1146736157
 30
0.0
  0
SPLINE
  5
269
100
AcDbEntity
  8
0
100
AcDbSpline
 62
7
  6
BYLAYER
 70
0
 71
3
 72
19
 73
15
 74
0
 42
0.0000001
 43
0.0000001
 44
0.0000000001
 40
0.0
 40
0.0
 40
0.0
 40
0.0
 40
0.0428394104
 40
0.0874448899
 40
0.1352571039
 40
0.1871950253
 40
0.2436735499
 40
0.3046656819
 40
0.4382689093
 40
0.5825434307
 40
0.7296392143
 40
0.871166535
 40
0.9376088396
 40
1.0
 40
1.0
 40
1.0
 40
1.0
 10
33.4266241037
 20
64.3823130663
 30
0.0
 10
33.3736218852
 20
64.3517070636
 30
0.0
 10
33.2567695623
 20
64.3031864025
 30
0.0
 10
33.0639116602
 20
64.2748752693
 30
0.0
 10
32.8568016901
 20
64.2901505808
 30
0.0
 10
32.640050781
 20
64.3477232903
 30
0.0
 10
32.4178906611
 20
64.4458821405
 30
0.0
 10
32.1112293413
 20
64.6336029614
 30
0.0
 10
31.7458982998
 20
64.9571295925
 30
0.0
 10
31.3704087096
 20
65.4378606477
 30
0.0
 10
31.0747391417
 20
65.984227388
 30
0.0
 10
30.9111335671
 20
66.4677707376
 30
0.0
 10
30.8434920238
 20
66.8486539787
 30
0.0
 10
30.831346675
 20
67.0328440675
 30
0.0
 10
30.831346675
 20
67.1219817408
 30
0.0
  0
SPLINE
  5
26A
100
AcDbEntity
  8
0
100
AcDbSpline
 62
7
  6
BYLAYER
 70
0
 71
3
 72
13
 73
9
 74
0
 42
0.0000001
 43
0.0000001
 44
0.0000000001
 40
0.0
 40
0.0
 40
0.0
 40
0.0
 40
0.1117046279
 40
0.2312484893
 40
0.4861178311
 40
0.748363449
 40
0.8767234889
 40
1.0
 40
1.0
 40
1.0
 40
1.0
 10
69.33953376
 20
44.3559378222
 30
0.0
 10
69.33953376
 20
44.2565301964
 30
0.0
 10
69.3244299837
 20
44.0505763182
 30
0.0
 10
69.2410247643
 20
43.6252919772
 30
0.0
 10
69.0416667686
 20
43.0905824777
 30
0.0
 10
68.7437924716
 20
42.5953448012
 30
0.0
 10
68.4538503718
 20
42.2409125757
 30
0.0
 10
68.2948182435
 20
42.0825075442
 30
0.0
 10
68.2127361808
 20
42.0097211602
 30
0.0
  0
SPLINE
  5
26B
100
AcDbEntity
  8
0
100
AcDbSpline
 62
7
  6
BYLAYER
 70
0
 71
3
 72
11
 73
7
 74
0
 42
0.0000001
 43
0.0000001
 44
0.0000000001
 40
0.0
 40
0.0
 40
0.0
 40
0.0
 40
0.2177781111
 40
0.4509021252
 40
0.7102931343
 40
1.0
 40
1.0
 40
1.0
 40
1.0
 10
68.8942368165
 20
45.3401685959
 30
0.0
 10
68.9651528503
 20
45.2992173423
 30
0.0
 10
69.0978448536
 20
45.1876750024
 30
0.0
 10
69.2391164654
 20
44.9567030745
 30
0.0
 10
69.3230136822
 20
44.6720527058
 30
0.0
 10
69.33953376
 20
44.4648757772
 30
0.0
 10
69.33953376
 20
44.3559378222
 30
0.0
  0
SPLINE
  5
26C
100
AcDbEntity
  8
0
100
AcDbSpline
 62
7
  6
BYLAYER
 70
0
 71
3
 72
14
 73
10
 74
0
 42
0.0000001
 43
0.0000001
 44
0.0000000001
 40
0.0
 40
0.0
 40
0.0
 40
0.0
 40
0.289276956
 40
0.4225534768
 40
0.5484978562
 40
0.6678906703
 40
0.7818718641
 40
0.8919592151
 40
1.0
 40
1.0
 40
1.0
 40
1.0
 10
14.8464916533
 20
80.7798612824
 30
0.0
 10
14.6270167581
 20
80.9065723056
 30
0.0
 10
14.2900552893
 20
81.0669514312
 30
0.0
 10
13.8279523047
 20
81.2016734052
 30
0.0
 10
13.4999598369
 20
81.256700558
 30
0.0
 10
13.1843689373
 20
81.2676392788
 30
0.0
 10
12.8841425083
 20
81.2341966287
 30
0.0
 10
12.6025360073
 20
81.1562706946
 30
0.0
 10
12.4284746941
 20
81.0748054906
 30
0.0
 10
12.3465047179
 20
81.0274794589
 30
0.0
  0
SPLINE
  5
26D
100
AcDbEntity
  8
0
100
AcDbSpline
 62
7
  6
BYLAYER
 70
0
 71
3
 72
11
 73
7
 74
0
 42
0.0000001
 43
0.0000001
 44
0.0000000001
 40
0.0
 40
0.0
 40
0.0
 40
0.0
 40
0.2897016594
 40
0.5490895814
 40
0.7822189142
 40
1.0
 40
1.0
 40
1.0
 40
1.0
 10
30.831346675
 20
67.1219817408
 30
0.0
 10
30.831346675
 20
67.2309178676
 30
0.0
 10
30.847862878
 20
67.4380923563
 30
0.0
 10
30.9317616713
 20
67.7227413455
 30
0.0
 10
31.0730296674
 20
67.9537177027
 30
0.0
 10
31.2057235611
 20
68.0652640304
 30
0.0
 10
31.2766410643
 20
68.1062151709
 30
0.0
  0
SPLINE
  5
26E
100
AcDbEntity
  8
0
100
AcDbSpline
 62
7
  6
BYLAYER
 70
0
 71
3
 72
17
 73
13
 74
0
 42
0.0000001
 43
0.0000001
 44
0.0000000001
 40
0.0
 40
0.0
 40
0.0
 40
0.0
 40
0.0429300303
 40
0.087271941
 40
0.134229854
 40
0.1846464109
 40
0.2972150367
 40
0.425428936
 40
0.5657907437
 40
0.7127104471
 40
0.8596329793
 40
1.0
 40
1.0
 40
1.0
 40
1.0
 10
14.418678259
 20
59.2396203698
 30
0.0
 10
14.3716071251
 20
59.2124394064
 30
0.0
 10
14.2691679248
 20
59.1681254253
 30
0.0
 10
14.1009866025
 20
59.1363069839
 30
0.0
 10
13.9204881014
 20
59.1389284579
 30
0.0
 10
13.6583312173
 20
59.1891898717
 30
0.0
 10
13.3174618116
 20
59.3417834151
 30
0.0
 10
12.928607211
 20
59.6321477964
 30
0.0
 10
12.5672591902
 20
60.0178296828
 30
0.0
 10
12.2567068292
 20
60.4740054696
 30
0.0
 10
12.0169846967
 20
60.9708805719
 30
0.0
 10
11.9108339369
 20
61.3209133766
 30
0.0
 10
11.8752037998
 20
61.4950289903
 30
0.0
  0
SPLINE
  5
26F
100
AcDbEntity
  8
0
100
AcDbSpline
 62
7
  6
BYLAYER
 70
0
 71
3
 72
11
 73
7
 74
0
 42
0.0000001
 43
0.0000001
 44
0.0000000001
 40
0.0
 40
0.0
 40
0.0
 40
0.0
 40
0.2897059042
 40
0.5490966298
 40
0.7822210391
 40
1.0
 40
1.0
 40
1.0
 40
1.0
 10
25.359244106
 20
46.6996750795
 30
0.0
 10
25.359244106
 20
46.8086125427
 30
0.0
 10
25.3757642008
 20
47.0157887544
 30
0.0
 10
25.4596613363
 20
47.30043843
 30
0.0
 10
25.60093273
 20
47.5314104722
 30
0.0
 10
25.7336243532
 20
47.6429535307
 30
0.0
 10
25.804540282
 20
47.6839054095
 30
0.0
  0
SPLINE
  5
270
100
AcDbEntity
  8
0
100
AcDbSpline
 62
7
  6
BYLAYER
 70
0
 71
3
 72
13
 73
9
 74
0
 42
0.0000001
 43
0.0000001
 44
0.0000000001
 40
0.0
 40
0.0
 40
0.0
 40
0.0
 40
0.123276757
 40
0.2516369896
 40
0.5138826354
 40
0.7687517572
 40
0.8882954562
 40
1.0
 40
1.0
 40
1.0
 40
1.0
 10
26.4860510678
 20
44.3534638345
 30
0.0
 10
26.4039683343
 20
44.4262498126
 30
0.0
 10
26.2449348811
 20
44.5846541155
 30
0.0
 10
25.9549903194
 20
44.9390849464
 30
0.0
 10
25.6571135123
 20
45.4343212728
 30
0.0
 10
25.4577538696
 20
45.9690299714
 30
0.0
 10
25.374347954
 20
46.394313825
 30
0.0
 10
25.359244106
 20
46.6002675161
 30
0.0
 10
25.359244106
 20
46.6996750795
 30
0.0
  0
SPLINE
  5
271
100
AcDbEntity
  8
0
100
AcDbSpline
 62
7
  6
BYLAYER
 70
0
 71
3
 72
12
 73
8
 74
0
 42
0.0000001
 43
0.0000001
 44
0.0000000001
 40
0.0
 40
0.0
 40
0.0
 40
0.0
 40
0.2253707089
 40
0.3444850063
 40
0.4677853213
 40
0.7264530519
 40
1.0
 40
1.0
 40
1.0
 40
1.0
 10
38.2172141003
 20
37.5806269218
 30
0.0
 10
37.2261136912
 20
37.846177616
 30
0.0
 10
35.7410625332
 20
38.3710555121
 30
0.0
 10
33.8092823633
 20
39.2693068698
 30
0.0
 10
31.8014279008
 20
40.3552125334
 30
0.0
 10
29.3029341335
 20
41.998355
 30
0.0
 10
27.4178641038
 20
43.5271886807
 30
0.0
 10
26.4860510678
 20
44.3534638345
 30
0.0
  0
SPLINE
  5
272
100
AcDbEntity
  8
0
100
AcDbSpline
 62
7
  6
BYLAYER
 70
0
 71
3
 72
15
 73
11
 74
0
 42
0.0000001
 43
0.0000001
 44
0.0000000001
 40
0.0
 40
0.0
 40
0.0
 40
0.0
 40
0.1141469224
 40
0.2373360366
 40
0.366976904
 40
0.5000005214
 40
0.6330240662
 40
0.7626647219
 40
0.8858535023
 40
1.0
 40
1.0
 40
1.0
 40
1.0
 10
52.1507048881
 20
59.2427509638
 30
0.0
 10
52.3443203144
 20
59.1309695742
 30
0.0
 10
52.7677502317
 20
58.9338255324
 30
0.0
 10
53.4572277011
 20
58.7242254244
 30
0.0
 10
54.2037306534
 20
58.5952877528
 30
0.0
 10
54.9791367828
 20
58.5517337593
 30
0.0
 10
55.7545422923
 20
58.595291433
 30
0.0
 10
56.5010434134
 20
58.7242326492
 30
0.0
 10
57.1905179145
 20
58.9338360347
 30
0.0
 10
57.6139452377
 20
59.1309821913
 30
0.0
 10
57.8075591376
 20
59.2427645613
 30
0.0
  0
SPLINE
  5
273
100
AcDbEntity
  8
0
100
AcDbSpline
 62
7
  6
BYLAYER
 70
0
 71
3
 72
11
 73
7
 74
0
 42
0.0000001
 43
0.0000001
 44
0.0000000001
 40
0.0
 40
0.0
 40
0.0
 40
0.0
 40
0.2177839237
 40
0.4509111717
 40
0.7102971901
 40
1.0
 40
1.0
 40
1.0
 40
1.0
 10
72.3460674957
 20
67.2778109065
 30
0.0
 10
72.2965891592
 20
67.3063765661
 30
0.0
 10
72.1829050769
 20
67.3476324497
 30
0.0
 10
71.9940781424
 20
67.3524118974
 30
0.0
 10
71.7928331113
 20
67.3038130263
 30
0.0
 10
71.6619012652
 20
67.2415249719
 30
0.0
 10
71.5960839632
 20
67.2035255617
 30
0.0
  0
SPLINE
  5
274
100
AcDbEntity
  8
0
100
AcDbSpline
 62
7
  6
BYLAYER
 70
0
 71
3
 72
11
 73
7
 74
0
 42
0.0000001
 43
0.0000001
 44
0.0000000001
 40
0.0
 40
0.0
 40
0.0
 40
0.0
 40
0.2897016594
 40
0.5490895814
 40
0.7822189142
 40
1.0
 40
1.0
 40
1.0
 40
1.0
 10
32.2455661252
 20
56.5074712262
 30
0.0
 10
32.2455661252
 20
56.616407353
 30
0.0
 10
32.2620823283
 20
56.8235818417
 30
0.0
 10
32.3459811216
 20
57.1082308309
 30
0.0
 10
32.4872491177
 20
57.3392071881
 30
0.0
 10
32.6199430114
 20
57.4507535158
 30
0.0
 10
32.6908605146
 20
57.4917046563
 30
0.0
  0
SPLINE
  5
275
100
AcDbEntity
  8
0
100
AcDbSpline
 62
7
  6
BYLAYER
 70
0
 71
3
 72
11
 73
7
 74
0
 42
0.0000001
 43
0.0000001
 44
0.0000000001
 40
0.0
 40
0.0
 40
0.0
 40
0.0
 40
0.2727905217
 40
0.5273531228
 40
0.7675608398
 40
1.0
 40
1.0
 40
1.0
 40
1.0
 10
11.8752037998
 20
75.0410496872
 30
0.0
 10
11.8917104033
 20
75.1026535982
 30
0.0
 10
11.9324273854
 20
75.2196855775
 30
0.0
 10
12.0203270413
 20
75.3773277559
 30
0.0
 10
12.1320067822
 20
75.5071477679
 30
0.0
 10
12.2216269427
 20
75.5736782124
 30
0.0
 10
12.2686942859
 20
75.6008413601
 30
0.0
  0
SPLINE
  5
276
100
AcDbEntity
  8
0
100
AcDbSpline
 62
7
  6
BYLAYER
 70
0
 71
3
 72
9
 73
5
 74
0
 42
0.0000001
 43
0.0000001
 44
0.0000000001
 40
0.0
 40
0.0
 40
0.0
 40
0.0
 40
0.5181029441
 40
1.0
 40
1.0
 40
1.0
 40
1.0
 10
11.1029853434
 20
68.7138697864
 30
0.0
 10
11.1029853434
 20
69.8170286246
 30
0.0
 10
11.2188975111
 20
71.9486018986
 30
0.0
 10
11.6096395086
 20
74.0499433757
 30
0.0
 10
11.8752037998
 20
75.0410496872
 30
0.0
  0
SPLINE
  5
277
100
AcDbEntity
  8
0
100
AcDbSpline
 62
7
  6
BYLAYER
 70
0
 71
3
 72
9
 73
5
 74
0
 42
0.0000001
 43
0.0000001
 44
0.0000000001
 40
0.0
 40
0.0
 40
0.0
 40
0.0
 40
0.5139784425
 40
1.0
 40
1.0
 40
1.0
 40
1.0
 10
11.8752037998
 20
61.4950289903
 30
0.0
 10
11.6255248273
 20
62.7151479953
 30
0.0
 10
11.2439934296
 20
65.1119439732
 30
0.0
 10
11.1029853434
 20
67.5362076163
 30
0.0
 10
11.1029853434
 20
68.7138697864
 30
0.0
  0
SPLINE
  5
278
100
AcDbEntity
  8
0
100
AcDbSpline
 62
7
  6
BYLAYER
 70
0
 71
3
 72
19
 73
15
 74
0
 42
0.0000001
 43
0.0000001
 44
0.0000000001
 40
0.0
 40
0.0
 40
0.0
 40
0.0
 40
0.0428394104
 40
0.0874448899
 40
0.1352571039
 40
0.1871950253
 40
0.2436735499
 40
0.3046656819
 40
0.4382689093
 40
0.5825434307
 40
0.7296392143
 40
0.871166535
 40
0.9376088396
 40
1.0
 40
1.0
 40
1.0
 40
1.0
 10
34.840843554
 20
53.7678025517
 30
0.0
 10
34.7878413355
 20
53.737196549
 30
0.0
 10
34.6709890126
 20
53.6886758879
 30
0.0
 10
34.4781311105
 20
53.6603647547
 30
0.0
 10
34.2710211404
 20
53.6756400662
 30
0.0
 10
34.0542702313
 20
53.7332127757
 30
0.0
 10
33.8321101114
 20
53.8313716259
 30
0.0
 10
33.5254487916
 20
54.0190924469
 30
0.0
 10
33.1601177501
 20
54.3426190779
 30
0.0
 10
32.7846281599
 20
54.8233501331
 30
0.0
 10
32.488958592
 20
55.3697168734
 30
0.0
 10
32.3253530174
 20
55.853260223
 30
0.0
 10
32.2577114741
 20
56.2341434641
 30
0.0
 10
32.2455661252
 20
56.418333553
 30
0.0
 10
32.2455661252
 20
56.5074712262
 30
0.0
  0
SPLINE
  5
279
100
AcDbEntity
  8
0
100
AcDbSpline
 62
7
  6
BYLAYER
 70
0
 71
3
 72
11
 73
7
 74
0
 42
0.0000001
 43
0.0000001
 44
0.0000000001
 40
0.0
 40
0.0
 40
0.0
 40
0.0
 40
0.2177830968
 40
0.450915839
 40
0.7103069095
 40
1.0
 40
1.0
 40
1.0
 40
1.0
 10
65.6000223892
 20
60.9005285397
 30
0.0
 10
65.6709383721
 20
60.8595731987
 30
0.0
 10
65.8036404476
 20
60.7480348486
 30
0.0
 10
65.9449049208
 20
60.5170498754
 30
0.0
 10
66.028803115
 20
60.2324026106
 30
0.0
 10
66.0453188411
 20
60.0252298098
 30
0.0
 10
66.0453188411
 20
59.9162968682
 30
0.0
  0
SPLINE
  5
27A
100
AcDbEntity
  8
0
100
AcDbSpline
 62
7
  6
BYLAYER
 70
0
 71
3
 72
19
 73
15
 74
0
 42
0.0000001
 43
0.0000001
 44
0.0000000001
 40
0.0
 40
0.0
 40
0.0
 40
0.0
 40
0.0623918057
 40
0.1288327497
 40
0.270353951
 40
0.4174439676
 40
0.5617182817
 40
0.6953254595
 40
0.7563187559
 40
0.8127988782
 40
0.8647373587
 40
0.9125509587
 40
0.9571581598
 40
1.0
 40
1.0
 40
1.0
 40
1.0
 10
66.0453188411
 20
50.5265190712
 30
0.0
 10
66.0453188411
 20
50.4373808068
 30
0.0
 10
66.0331741644
 20
50.2531923946
 30
0.0
 10
65.965535182
 20
49.8723200783
 30
0.0
 10
65.8019406697
 20
49.3887956161
 30
0.0
 10
65.5062911223
 20
48.8424403331
 30
0.0
 10
65.1308147972
 20
48.3617066628
 30
0.0
 10
64.7654914333
 20
48.0381616096
 30
0.0
 10
64.4588242647
 20
47.8504358928
 30
0.0
 10
64.2366669107
 20
47.7522598287
 30
0.0
 10
64.0199115269
 20
47.6946896785
 30
0.0
 10
63.8127978608
 20
47.6793963231
 30
0.0
 10
63.6199338659
 20
47.7077134342
 30
0.0
 10
63.5030721771
 20
47.7562270666
 30
0.0
 10
63.450068793
 20
47.7868375381
 30
0.0
  0
SPLINE
  5
27B
100
AcDbEntity
  8
0
100
AcDbSpline
 62
7
  6
BYLAYER
 70
0
 71
3
 72
11
 73
7
 74
0
 42
0.0000001
 43
0.0000001
 44
0.0000000001
 40
0.0
 40
0.0
 40
0.0
 40
0.0
 40
0.2727917375
 40
0.5273532614
 40
0.7675584629
 40
1.0
 40
1.0
 40
1.0
 40
1.0
 10
60.8373550014
 20
37.7515682686
 30
0.0
 10
60.7757541076
 20
37.7350627868
 30
0.0
 10
60.6540490231
 20
37.7118120507
 30
0.0
 10
60.4735878332
 20
37.7091177176
 30
0.0
 10
60.3053294134
 20
37.7409185052
 30
0.0
 10
60.2029074047
 20
37.7852650688
 30
0.0
 10
60.1558535323
 20
37.812446713
 30
0.0
  0
SPLINE
  5
27C
100
AcDbEntity
  8
0
100
AcDbSpline
 62
7
  6
BYLAYER
 70
0
 71
3
 72
11
 73
7
 74
0
 42
0.0000001
 43
0.0000001
 44
0.0000000001
 40
0.0
 40
0.0
 40
0.0
 40
0.0
 40
0.2735778325
 40
0.5322745236
 40
0.7746045772
 40
1.0
 40
1.0
 40
1.0
 40
1.0
 10
68.2127361808
 20
42.0097211602
 30
0.0
 10
67.6269056509
 20
41.490235118
 30
0.0
 10
66.4417040937
 20
40.5289790537
 30
0.0
 10
64.5859837124
 20
39.3086508639
 30
0.0
 10
62.7275261093
 20
38.3664093447
 30
0.0
 10
61.4604601347
 20
37.9185244578
 30
0.0
 10
60.8373550014
 20
37.7515682686
 30
0.0
  0
SPLINE
  5
27D
100
AcDbEntity
  8
0
100
AcDbSpline
 62
7
  6
BYLAYER
 70
0
 71
3
 72
11
 73
7
 74
0
 42
0.0000001
 43
0.0000001
 44
0.0000000001
 40
0.0
 40
0.0
 40
0.0
 40
0.0
 40
0.2324417379
 40
0.4726469889
 40
0.7272084131
 40
1.0
 40
1.0
 40
1.0
 40
1.0
 10
38.898725716
 20
37.6415112329
 30
0.0
 10
38.851671275
 20
37.614328786
 30
0.0
 10
38.7492479273
 20
37.5699807818
 30
0.0
 10
38.5809870902
 20
37.5381782437
 30
0.0
 10
38.4005231087
 20
37.5408713101
 30
0.0
 10
38.2788160286
 20
37.5641215963
 30
0.0
 10
38.2172141003
 20
37.5806269218
 30
0.0
  0
ENDSEC
  0
SECTION
  2
OBJECTS
  0
DICTIONARY
  5
C
100
AcDbDictionary
280
0
281
1
  3
ACAD_GROUP
350
D
  3
ACAD_MLINESTYLE
350
17
  3
ACAD_LAYOUT
350
1A
  3
ACAD_PLOTSETTINGS
350
19
  3
ACAD_PLOTSTYLENAME
350
E
  0
DICTIONARY
  5
D
102
{ACAD_REACTORS
330
C
102
}
100
AcDbDictionary
280
0
281
1
  0
ACDBDICTIONARYWDFLT
  5
E
102
{ACAD_REACTORS
330
C
102
}
100
AcDbDictionary
281
1
  3
Normal
350
F
100
AcDbDictionaryWithDefault
340
F
  0
DICTIONARY
  5
17
102
{ACAD_REACTORS
330
C
102
}
100
AcDbDictionary
280
0
281
1
  3
Standard
350
18
  0
DICTIONARY
  5
19
102
{ACAD_REACTORS
330
C
102
}
100
AcDbDictionary
281
1
  0
DICTIONARY
  5
1A
102
{ACAD_REACTORS
330
C
102
}
100
AcDbDictionary
281
1
  3
Model
350
27E
  3
Layout1
350
27F
  0
ACDBPLACEHOLDER
  5
F
102
{ACAD_REACTORS
330
E
102
}
  0
MLINESTYLE
  5
18
102
{ACAD_REACTORS
330
17
102
}
100
AcDbMlineStyle
  2
STANDARD
 70
0
  3

 62
256
 51
90.0
 52
90.0
 71
2
 49
0.5
 62
256
  6
BYLAYER
 49
-0.5
 62
256
  6
BYLAYER
  0
LAYOUT
  5
27E
102
{ACAD_REACTORS
330
1A
102
}
100
AcDbPlotSettings
  1

  2
none_device
  4

  6

 40
0.0
 41
0.0
 42
0.0
 43
0.0
 44
210.0
 45
297.0
 46
0.0
 47
0.0
 48
0.0
 49
0.0
140
0.0
141
0.0
142
1.0
143
1.0
 70
1024
 72
1
 73
0
 74
0
  7

 75
0
147
1.0
148
0.0
149
0.0
100
AcDbLayout
  1
Model
 70
0
 71
0
 10
0.0
 20
0.0
 11
210.0
 21
297.0
 12
0.0
 22
0.0
 32
0.0
 14
0.0
 24
0.0
 34
0.0
 15
0.0
 25
0.0
 35
0.0
146
0.0
 13
0.0
 23
0.0
 33
0.0
 16
1.0
 26
0.0
 36
0.0
 17
0.0
 27
1.0
 37
0.0
 76
0
330
211
345
0
346
0
  0
LAYOUT
  5
27F
102
{ACAD_REACTORS
330
1A
102
}
100
AcDbPlotSettings
  1

  2
none_device
  4

  6

 40
0.0
 41
0.0
 42
0.0
 43
0.0
 44
210.0
 45
297.0
 46
0.0
 47
0.0
 48
0.0
 49
0.0
140
0.0
141
0.0
142
1.0
143
1.0
 70
0
 72
1
 73
0
 74
0
  7

 75
0
147
1.0
148
0.0
149
0.0
100
AcDbLayout
  1
Layout1
 70
0
 71
1
 10
0.0
 20
0.0
 11
210.0
 21
297.0
 12
0.0
 22
0.0
 32
0.0
 14
0.0
 24
0.0
 34
0.0
 15
0.0
 25
0.0
 35
0.0
146
0.0
 13
0.0
 23
0.0
 33
0.0
 16
1.0
 26
0.0
 36
0.0
 17
0.0
 27
1.0
 37
0.0
 76
0
330
212
345
0
346
0
  0
ENDSEC
  0
EOF
