999
DXF file: C:\Users\sesa63760\Dev\_Creo\CAD\MCADID0004770_3D-CAD\drw0001_6.dxf
999
Pro/ENGINEER 2019471 by Parametric Technology Corporation
  0
SECTION
  2
HEADER
  9
$ACADVER
  1
AC1024
  9
$DWGCODEPAGE
  3
ANSI_1252
  9
$EXTMAX
 10
55.0123718546
 20
77.8032116229
 30
0.0
  9
$EXTMIN
 10
0.0
 20
0.0
 30
0.0
  9
$LIMMIN
 10
0.0
 20
0.0
  9
$LIMMAX
 10
55.0123718546
 20
77.8032116229
  9
$VIEWCTR
 10
27.5061859273
 20
38.9016058115
  9
$VIEWSIZE
 40
77.8032116229
  9
$CLAYER
  8
0
  9
$LTSCALE
 40
5.0716167576
  9
$CELTYPE
  6
BYLAYER
  9
$DIMSCALE
 40
1.0
  9
$DIMASZ
 40
0.6549091887
  9
$DIMEXO
 40
1.0
  9
$DIMDLI
 40
3.5040261235
  9
$DIMEXE
 40
1.0
  9
$DIMCEN
 40
0.829900924
  9
$DIMLFAC
 40
1.0
  9
$DIMBLK
  1
_FILLED
  9
$DIMALT
 70
0
  9
$DIMALTF
 40
0.0393700787
  9
$DIMTXT
 40
0.9168728642
  9
$DIMTOL
 70
1
  9
$DIMLIM
 70
0
  9
$DIMTFAC
 40
1.0
  9
$DIMTP
 40
0.01
  9
$DIMTM
 40
0.01
  9
$DIMGAP
 40
0.625
  9
$DIMDSEP
 70
46
  9
$AUNITS
 70
0
  9
$PDMODE
 70
3
  9
$PDSIZE
 40
0.3125
  9
$HANDSEED
  5
30E
  9
$TILEMODE
 70
1
  9
$MEASUREMENT
 70
1
  9
$INSUNITS
 70
4
  0
ENDSEC
  0
SECTION
  2
CLASSES
  0
CLASS
  1
ACDBDICTIONARYWDFLT
  2
AcDbDictionaryWithDefault
  3
AutoCAD 2000
 90
0
 91
1
280
0
281
0
  0
CLASS
  1
ACDBPLACEHOLDER
  2
AcDbPlaceHolder
  3
AutoCAD 2000
 90
0
 91
1
280
0
281
0
  0
CLASS
  1
LAYOUT
  2
AcDbLayout
  3
AutoCAD 2000
 90
0
 91
0
280
0
281
0
  0
ENDSEC
  0
SECTION
  2
TABLES
  0
TABLE
  2
VPORT
  5
8
100
AcDbSymbolTable
 70
2
  0
VPORT
  5
1F4
100
AcDbSymbolTableRecord
100
AcDbViewportTableRecord
  2
*ACTIVE
 70
0
 10
0.0
 20
0.0
 11
1.0
 21
1.0
 12
27.5061859273
 22
38.9016058115
 13
0.0
 23
0.0
 14
1.0
 24
1.0
 15
0.0
 25
0.0
 16
0.0
 26
0.0
 36
1.0
 17
0.0
 27
0.0
 37
0.0
 40
77.8032116229
 41
0.7070707071
 42
50.0
 43
0.0
 44
0.0
 50
0.0
 51
0.0
 71
0
 72
100
 73
1
 74
1
 75
0
 76
0
 77
0
 78
0
  0
ENDTAB
  0
TABLE
  2
LTYPE
  5
5
100
AcDbSymbolTable
 70
6
  0
LTYPE
  5
14
100
AcDbSymbolTableRecord
100
AcDbLinetypeTableRecord
  2
BYBLOCK
 70
0
  3

 72
65
 73
0
 40
0.0
  0
LTYPE
  5
15
100
AcDbSymbolTableRecord
100
AcDbLinetypeTableRecord
  2
BYLAYER
 70
0
  3

 72
65
 73
0
 40
0.0
  0
LTYPE
  5
16
100
AcDbSymbolTableRecord
100
AcDbLinetypeTableRecord
  2
CONTINUOUS
 70
64
  3
Solid line
 72
65
 73
0
 40
0.0
  0
LTYPE
  5
1F5
100
AcDbSymbolTableRecord
100
AcDbLinetypeTableRecord
  2
CENTER
 70
64
  3
____ _ ____ _ ____ _ ____ _ ____ _ ____ _ ____
 72
65
 73
4
 40
0.6
 49
0.375
 74
0
 49
-0.075
 74
0
 49
0.075
 74
0
 49
-0.075
 74
0
  0
LTYPE
  5
1F6
100
AcDbSymbolTableRecord
100
AcDbLinetypeTableRecord
  2
HIDDEN
 70
64
  3
- - - - - - - - - - - - - - - - - - - -
 72
65
 73
2
 40
0.2
 49
0.1
 74
0
 49
-0.1
 74
0
  0
LTYPE
  5
1F7
100
AcDbSymbolTableRecord
100
AcDbLinetypeTableRecord
  2
PHANTOM
 70
64
  3
_____ _ _ _____ _ _ _____ _ _ _____
 72
65
 73
6
 40
0.8
 49
0.45
 74
0
 49
-0.05
 74
0
 49
0.1
 74
0
 49
-0.05
 74
0
 49
0.1
 74
0
 49
-0.05
 74
0
  0
LTYPE
  5
1F8
100
AcDbSymbolTableRecord
100
AcDbLinetypeTableRecord
  2
DOT
 70
64
  3
. . . . . . . . . . . . . . . . . . . .
 72
65
 73
2
 40
0.2
 49
0.1
 74
0
 49
-0.1
 74
0
  0
LTYPE
  5
1F9
100
AcDbSymbolTableRecord
100
AcDbLinetypeTableRecord
  2
DASHED
 70
64
  3
- - - - - - - - - - - - - - - - - - - -
 72
65
 73
2
 40
0.2
 49
0.1
 74
0
 49
-0.1
 74
0
  0
ENDTAB
  0
TABLE
  2
LAYER
  5
2
100
AcDbSymbolTable
 70
36
  0
LAYER
  5
10
100
AcDbSymbolTableRecord
100
AcDbLayerTableRecord
  2
0
 70
0
 62
7
  6
CONTINUOUS
370
-3
390
F
  0
LAYER
  5
1FA
100
AcDbSymbolTableRecord
100
AcDbLayerTableRecord
  2
DEFAULT_1
 70
0
 62
7
  6
CENTER
370
-3
390
F
  0
LAYER
  5
1FB
100
AcDbSymbolTableRecord
100
AcDbLayerTableRecord
  2
DEFAULT_2
 70
0
 62
7
  6
HIDDEN
370
-3
390
F
  0
LAYER
  5
1FC
100
AcDbSymbolTableRecord
100
AcDbLayerTableRecord
  2
DEFAULT_3
 70
0
 62
7
  6
PHANTOM
370
-3
390
F
  0
LAYER
  5
1FD
100
AcDbSymbolTableRecord
100
AcDbLayerTableRecord
  2
00_COMPONENTS
 70
0
 62
7
  6
CONTINUOUS
370
-3
390
F
  0
LAYER
  5
1FE
100
AcDbSymbolTableRecord
100
AcDbLayerTableRecord
  2
01_1_DEFAULT_DATUMS
 70
0
 62
7
  6
CONTINUOUS
370
-3
390
F
  0
LAYER
  5
1FF
100
AcDbSymbolTableRecord
100
AcDbLayerTableRecord
  2
01_PLANES
 70
0
 62
7
  6
CONTINUOUS
370
-3
390
F
  0
LAYER
  5
200
100
AcDbSymbolTableRecord
100
AcDbLayerTableRecord
  2
02_COORD_SYS
 70
0
 62
7
  6
CONTINUOUS
370
-3
390
F
  0
LAYER
  5
201
100
AcDbSymbolTableRecord
100
AcDbLayerTableRecord
  2
03_AXES
 70
0
 62
7
  6
CONTINUOUS
370
-3
390
F
  0
LAYER
  5
202
100
AcDbSymbolTableRecord
100
AcDbLayerTableRecord
  2
04_POINTS
 70
0
 62
7
  6
CONTINUOUS
370
-3
390
F
  0
LAYER
  5
203
100
AcDbSymbolTableRecord
100
AcDbLayerTableRecord
  2
05_CURVES
 70
0
 62
7
  6
CONTINUOUS
370
-3
390
F
  0
LAYER
  5
204
100
AcDbSymbolTableRecord
100
AcDbLayerTableRecord
  2
06_SURFS
 70
0
 62
7
  6
CONTINUOUS
370
-3
390
F
  0
LAYER
  5
205
100
AcDbSymbolTableRecord
100
AcDbLayerTableRecord
  2
07_COSMETICS
 70
0
 62
7
  6
CONTINUOUS
370
-3
390
F
  0
LAYER
  5
206
100
AcDbSymbolTableRecord
100
AcDbLayerTableRecord
  2
10_NOTES
 70
0
 62
7
  6
CONTINUOUS
370
-3
390
F
  0
LAYER
  5
207
100
AcDbSymbolTableRecord
100
AcDbLayerTableRecord
  2
11_NOTES_PUB
 70
0
 62
7
  6
CONTINUOUS
370
-3
390
F
  0
LAYER
  5
208
100
AcDbSymbolTableRecord
100
AcDbLayerTableRecord
  2
13_REF_GTOL
 70
0
 62
7
  6
CONTINUOUS
370
-3
390
F
  0
LAYER
  5
209
100
AcDbSymbolTableRecord
100
AcDbLayerTableRecord
  2
16_MISC
 70
0
 62
7
  6
CONTINUOUS
370
-3
390
F
  0
LAYER
  5
20A
100
AcDbSymbolTableRecord
100
AcDbLayerTableRecord
  2
17_NO_PRINT
 70
0
 62
7
  6
CONTINUOUS
370
-3
390
F
  0
LAYER
  5
20B
100
AcDbSymbolTableRecord
100
AcDbLayerTableRecord
  2
18_DATUM_CAMS_JOINTS
 70
0
 62
7
  6
CONTINUOUS
370
-3
390
F
  0
LAYER
  5
20C
100
AcDbSymbolTableRecord
100
AcDbLayerTableRecord
  2
19_DATUM_FUNCTIONAL
 70
0
 62
7
  6
CONTINUOUS
370
-3
390
F
  0
LAYER
  5
20D
100
AcDbSymbolTableRecord
100
AcDbLayerTableRecord
  2
20_DATUM_KINEMATIC_SCHEME
 70
0
 62
7
  6
CONTINUOUS
370
-3
390
F
  0
ENDTAB
  0
TABLE
  2
STYLE
  5
3
100
AcDbSymbolTable
 70
1
  0
STYLE
  5
11
100
AcDbSymbolTableRecord
100
AcDbTextStyleTableRecord
  2
STANDARD
 70
0
 40
0.0
 41
1.0
 50
0.0
 71
0
 42
0.2
  3
ARIAL.TTF
  4

  0
STYLE
  5
20E
100
AcDbSymbolTableRecord
100
AcDbTextStyleTableRecord
  2
TEXTSTYLE_1
 70
0
 40
0.0
 41
0.8
 50
0.0
 71
0
 42
0.2
  3
gdt
  4

  0
ENDTAB
  0
TABLE
  2
VIEW
  5
6
100
AcDbSymbolTable
 70
0
  0
ENDTAB
  0
TABLE
  2
UCS
  5
7
100
AcDbSymbolTable
 70
0
  0
ENDTAB
  0
TABLE
  2
APPID
  5
9
100
AcDbSymbolTable
 70
1
  0
APPID
  5
20F
100
AcDbSymbolTableRecord
100
AcDbRegAppTableRecord
  2
ACAD
 70
0
  0
ENDTAB
  0
TABLE
  2
BLOCK_RECORD
  5
1
100
AcDbSymbolTable
 70
0
  0
BLOCK_RECORD
  5
210
100
AcDbSymbolTableRecord
100
AcDbBlockTableRecord
  2
*Model_Space
  0
BLOCK_RECORD
  5
211
100
AcDbSymbolTableRecord
100
AcDbBlockTableRecord
  2
*Paper_Space
  0
BLOCK_RECORD
  5
212
100
AcDbSymbolTableRecord
100
AcDbBlockTableRecord
  2
_FILLED
  0
ENDTAB
  0
TABLE
  2
DIMSTYLE
  5
A
100
AcDbSymbolTable
 70
1
100
AcDbDimStyleTable
 71
0
  0
DIMSTYLE
105
213
100
AcDbSymbolTableRecord
100
AcDbDimStyleTableRecord
  2
STANDARD
 70
0
  3

  4

 40
1.0
 41
0.6549091887
 42
1.0
 43
0.38
 44
1.0
 45
0.0
 46
0.0
 47
0.01
 48
0.01
140
0.9168728642
141
0.09
142
0.0
143
25.4
144
1.0
145
0.0
146
1.0
147
0.625
 71
1
 72
0
 73
0
 74
0
 75
0
 76
0
 77
1
 78
8
 79
2
170
0
171
1
172
0
173
0
174
0
175
0
176
0
177
0
178
0
270
2
179
2
271
2
272
2
273
2
274
2
275
0
280
0
281
0
282
0
283
1
284
8
285
0
286
0
287
3
288
0
340
11
278
46
341
212
342
212
343
212
344
212
  0
ENDTAB
  0
ENDSEC
  0
SECTION
  2
BLOCKS
  0
BLOCK
  5
20
100
AcDbEntity
  8
0
100
AcDbBlockBegin
  2
*Model_Space
 70
0
 10
0.0
 20
0.0
 30
0.0
  3
*Model_Space
  1

  0
ENDBLK
  5
21
100
AcDbEntity
  8
0
100
AcDbBlockEnd
  0
BLOCK
  5
1C
100
AcDbEntity
  8
0
100
AcDbBlockBegin
  2
*Paper_Space
 70
0
 10
0.0
 20
0.0
 30
0.0
  3
*Paper_Space
  1

  0
ENDBLK
  5
1D
100
AcDbEntity
  8
0
100
AcDbBlockEnd
  0
BLOCK
  5
214
100
AcDbEntity
  8
0
100
AcDbBlockBegin
  2
_FILLED
 70
64
 10
0.0
 20
0.0
  3
_FILLED
  1

  0
SOLID
  5
215
100
AcDbEntity
  8
0
  6
BYBLOCK
 62
0
100
AcDbTrace
 10
0.0
 20
0.0
 11
-1.0
 21
0.25
 12
-1.0
 22
-0.25
 13
-1.0
 23
-0.25
  0
ENDBLK
  5
216
100
AcDbEntity
  8
0
  6
BYBLOCK
 62
0
100
AcDbBlockEnd
  0
ENDSEC
  0
SECTION
  2
ENTITIES
  0
LINE
  5
217
100
AcDbEntity
  8
0
100
AcDbLine
 62
7
  6
BYLAYER
 10
29.6250948669
 20
6.4280499199
 11
26.3395806796
 21
6.4280499199
  0
LINE
  5
218
100
AcDbEntity
  8
0
100
AcDbLine
 62
7
  6
BYLAYER
 10
34.3592626819
 20
6.4780499199
 11
21.605412865
 21
6.4780499199
  0
LINE
  5
219
100
AcDbEntity
  8
0
100
AcDbLine
 62
7
  6
BYLAYER
 10
34.7099855081
 20
6.8912258311
 11
33.2957719457
 21
6.8912258311
  0
LINE
  5
21A
100
AcDbEntity
  8
0
100
AcDbLine
 62
7
  6
BYLAYER
 10
31.4390624988
 20
6.8912258311
 11
24.5256130477
 21
6.8912258311
  0
LINE
  5
21B
100
AcDbEntity
  8
0
100
AcDbLine
 62
7
  6
BYLAYER
 10
22.6689036007
 20
6.8912258311
 11
22.2842864142
 21
6.8912258311
  0
LINE
  5
21C
100
AcDbEntity
  8
0
100
AcDbLine
 62
7
  6
BYLAYER
 10
21.5771805765
 20
6.8912258311
 11
21.2546900384
 21
6.8912258311
  0
LINE
  5
21D
100
AcDbEntity
  8
0
100
AcDbLine
 62
7
  6
BYLAYER
 10
22.0633474118
 20
6.9280526109
 11
22.2796876709
 21
6.9280521837
  0
LINE
  5
21E
100
AcDbEntity
  8
0
100
AcDbLine
 62
7
  6
BYLAYER
 10
22.2609543998
 20
7.0780499199
 11
22.1694425392
 21
7.0780499199
  0
LINE
  5
21F
100
AcDbEntity
  8
0
100
AcDbLine
 62
7
  6
BYLAYER
 10
22.0649879031
 20
7.2020026932
 11
22.2454738936
 21
7.2020026932
  0
LINE
  5
220
100
AcDbEntity
  8
0
100
AcDbLine
 62
7
  6
BYLAYER
 10
24.2067730705
 20
9.4148740087
 11
31.757902476
 21
9.4148740087
  0
LINE
  5
221
100
AcDbEntity
  8
0
100
AcDbLine
 62
7
  6
BYLAYER
 10
37.1275808213
 20
9.8280499199
 11
21.8788600272
 21
9.8280499199
  0
LINE
  5
222
100
AcDbEntity
  8
0
100
AcDbLine
 62
7
  6
BYLAYER
 10
21.2104223412
 20
9.8280499199
 11
18.8374372653
 21
9.8280499199
  0
LINE
  5
223
100
AcDbEntity
  8
0
100
AcDbLine
 62
7
  6
BYLAYER
 10
37.5606499367
 20
10.0780499199
 11
21.5722358508
 21
10.0780499199
  0
LINE
  5
224
100
AcDbEntity
  8
0
100
AcDbLine
 62
7
  6
BYLAYER
 10
20.8651292401
 20
10.0780499199
 11
18.4044434531
 21
10.0780499199
  0
LINE
  5
225
100
AcDbEntity
  8
0
100
AcDbLine
 62
7
  6
BYLAYER
 10
17.8371911218
 20
11.0601872567
 11
20.4636565108
 21
11.0601872567
  0
LINE
  5
226
100
AcDbEntity
  8
0
100
AcDbLine
 62
7
  6
BYLAYER
 10
21.170763292
 20
11.0601872567
 11
38.1276871925
 21
11.0601872567
  0
LINE
  5
227
100
AcDbEntity
  8
0
100
AcDbLine
 62
7
  6
BYLAYER
 10
21.1233516926
 20
11.2999205435
 11
20.9886150595
 21
11.2999205435
  0
LINE
  5
228
100
AcDbEntity
  8
0
100
AcDbLine
 62
7
  6
BYLAYER
 10
38.1945983382
 20
11.3014610534
 11
21.1226876526
 21
11.3014610534
  0
LINE
  5
229
100
AcDbEntity
  8
0
100
AcDbLine
 62
7
  6
BYLAYER
 10
20.4169252881
 20
11.3014610534
 11
17.7702813135
 21
11.3014610534
  0
LINE
  5
22A
100
AcDbEntity
  8
0
100
AcDbLine
 62
7
  6
BYLAYER
 10
20.9323306878
 20
11.7624428283
 11
21.1176621667
 21
11.7624428283
  0
LINE
  5
22B
100
AcDbEntity
  8
0
100
AcDbLine
 62
7
  6
BYLAYER
 10
39.2823377732
 20
13.0280499199
 11
36.6823377732
 21
13.0280499199
  0
LINE
  5
22C
100
AcDbEntity
  8
0
100
AcDbLine
 62
7
  6
BYLAYER
 10
19.2823377732
 20
13.0280499199
 11
16.6823377732
 21
13.0280499199
  0
LINE
  5
22D
100
AcDbEntity
  8
0
100
AcDbLine
 62
7
  6
BYLAYER
 10
39.4823377732
 20
13.2280499199
 11
36.4823377732
 21
13.2280499199
  0
LINE
  5
22E
100
AcDbEntity
  8
0
100
AcDbLine
 62
7
  6
BYLAYER
 10
19.4823377732
 20
13.2280499199
 11
16.4823377732
 21
13.2280499199
  0
LINE
  5
22F
100
AcDbEntity
  8
0
100
AcDbLine
 62
7
  6
BYLAYER
 10
16.4823377732
 20
13.2280499199
 11
16.6823377732
 21
13.0280499199
  0
LINE
  5
230
100
AcDbEntity
  8
0
100
AcDbLine
 62
7
  6
BYLAYER
 10
19.2823377732
 20
64.3983305175
 11
19.4823377732
 21
64.5983305175
  0
LINE
  5
231
100
AcDbEntity
  8
0
100
AcDbLine
 62
7
  6
BYLAYER
 10
23.9823380064
 20
66.6483299037
 11
24.232338418
 21
66.898330275
  0
LINE
  5
232
100
AcDbEntity
  8
0
100
AcDbLine
 62
7
  6
BYLAYER
 10
36.4823377732
 20
16.3280499199
 11
21.0616085736
 21
16.3280499199
  0
LINE
  5
233
100
AcDbEntity
  8
0
100
AcDbLine
 62
7
  6
BYLAYER
 10
20.3536109278
 20
16.3280499199
 11
19.4823377732
 21
16.3280499199
  0
LINE
  5
234
100
AcDbEntity
  8
0
100
AcDbLine
 62
7
  6
BYLAYER
 10
21.0613125638
 20
16.3332860406
 11
20.8759146223
 21
16.3332860406
  0
LINE
  5
235
100
AcDbEntity
  8
0
100
AcDbLine
 62
7
  6
BYLAYER
 10
39.9822925639
 20
16.7280499199
 11
39.4823377732
 21
16.7280499199
  0
LINE
  5
236
100
AcDbEntity
  8
0
100
AcDbLine
 62
7
  6
BYLAYER
 10
38.7630187475
 20
16.7280499199
 11
33.5147592298
 21
16.7280499199
  0
LINE
  5
237
100
AcDbEntity
  8
0
100
AcDbLine
 62
7
  6
BYLAYER
 10
22.4499163167
 20
16.7280499199
 11
17.2016567989
 21
16.7280499199
  0
LINE
  5
238
100
AcDbEntity
  8
0
100
AcDbLine
 62
7
  6
BYLAYER
 10
16.4823377732
 20
16.7280499199
 11
15.9823829825
 21
16.7280499199
  0
LINE
  5
239
100
AcDbEntity
  8
0
100
AcDbLine
 62
7
  6
BYLAYER
 10
14.4823388243
 20
17.3280499199
 11
41.4823367172
 21
17.3280499199
  0
LINE
  5
23A
100
AcDbEntity
  8
0
100
AcDbLine
 62
7
  6
BYLAYER
 10
17.8369883539
 20
11.0601872567
 11
18.4040256097
 21
10.0780499199
  0
LINE
  5
23B
100
AcDbEntity
  8
0
100
AcDbLine
 62
7
  6
BYLAYER
 10
17.8369883539
 20
11.0601872567
 11
17.7700772082
 21
11.3014610534
  0
LINE
  5
23C
100
AcDbEntity
  8
0
100
AcDbLine
 62
7
  6
BYLAYER
 10
14.4823388243
 20
23.8280499199
 11
41.4823367172
 21
23.8280499199
  0
LINE
  5
23D
100
AcDbEntity
  8
0
100
AcDbLine
 62
7
  6
BYLAYER
 10
14.4823377732
 20
35.0280499199
 11
14.4823377732
 21
32.0280499199
  0
LINE
  5
23E
100
AcDbEntity
  8
0
100
AcDbLine
 62
7
  6
BYLAYER
 10
14.4823377732
 20
23.8280499199
 11
14.4823377732
 21
17.3280499199
  0
LINE
  5
23F
100
AcDbEntity
  8
0
100
AcDbLine
 62
7
  6
BYLAYER
 10
14.5323377732
 20
32.0280499199
 11
14.5323377732
 21
23.8280499199
  0
LINE
  5
240
100
AcDbEntity
  8
0
100
AcDbLine
 62
7
  6
BYLAYER
 10
15.1822409234
 20
17.3280499199
 11
15.1822390928
 21
23.8280499199
  0
LINE
  5
241
100
AcDbEntity
  8
0
100
AcDbLine
 62
7
  6
BYLAYER
 10
15.2323377732
 20
23.8280499199
 11
15.2323377732
 21
32.0280499199
  0
LINE
  5
242
100
AcDbEntity
  8
0
100
AcDbLine
 62
7
  6
BYLAYER
 10
15.4823377732
 20
32.0280499199
 11
15.4823377732
 21
35.0280499199
  0
LINE
  5
243
100
AcDbEntity
  8
0
100
AcDbLine
 62
7
  6
BYLAYER
 10
15.9823377732
 20
16.7280499199
 11
15.9823377732
 21
17.3280499199
  0
LINE
  5
244
100
AcDbEntity
  8
0
100
AcDbLine
 62
7
  6
BYLAYER
 10
16.1409966271
 20
16.7280499199
 11
16.1409966271
 21
17.3280499199
  0
LINE
  5
245
100
AcDbEntity
  8
0
100
AcDbLine
 62
7
  6
BYLAYER
 10
16.4823377732
 20
17.3280499199
 11
16.4823377732
 21
13.2280499199
  0
LINE
  5
246
100
AcDbEntity
  8
0
100
AcDbLine
 62
7
  6
BYLAYER
 10
15.133356043
 20
36.7541966427
 11
14.9823377732
 21
35.0280499199
  0
LINE
  5
247
100
AcDbEntity
  8
0
100
AcDbLine
 62
7
  6
BYLAYER
 10
16.6323377732
 20
45.5130499199
 11
17.1323377732
 21
46.0130499199
  0
LINE
  5
248
100
AcDbEntity
  8
0
100
AcDbLine
 62
7
  6
BYLAYER
 10
36.4823377732
 20
13.2280499199
 11
36.6823377732
 21
13.0280499199
  0
LINE
  5
249
100
AcDbEntity
  8
0
100
AcDbLine
 62
7
  6
BYLAYER
 10
17.7399394875
 20
13.0280499199
 11
17.7700772083
 21
11.3014610534
  0
LINE
  5
24A
100
AcDbEntity
  8
0
100
AcDbLine
 62
7
  6
BYLAYER
 10
16.6323377732
 20
40.5431145904
 11
16.6323377732
 21
45.5129852494
  0
LINE
  5
24B
100
AcDbEntity
  8
0
100
AcDbLine
 62
7
  6
BYLAYER
 10
17.1323377732
 20
40.0430499199
 11
17.1323377732
 21
46.0130499199
  0
LINE
  5
24C
100
AcDbEntity
  8
0
100
AcDbLine
 62
7
  6
BYLAYER
 10
17.2016567989
 20
17.3280499199
 11
17.2016567989
 21
16.7280499199
  0
LINE
  5
24D
100
AcDbEntity
  8
0
100
AcDbLine
 62
7
  6
BYLAYER
 10
17.3323377732
 20
36.0280499199
 11
17.3323377732
 21
54.0280499199
  0
LINE
  5
24E
100
AcDbEntity
  8
0
100
AcDbLine
 62
7
  6
BYLAYER
 10
18.4999758635
 20
16.7280499199
 11
18.4999758634
 21
17.3280499199
  0
LINE
  5
24F
100
AcDbEntity
  8
0
100
AcDbLine
 62
7
  6
BYLAYER
 10
16.3357361383
 20
16.7280499199
 11
16.3439405518
 21
17.3280499199
  0
LINE
  5
250
100
AcDbEntity
  8
0
100
AcDbLine
 62
7
  6
BYLAYER
 10
26.3395174502
 20
6.4280499199
 11
26.3261199906
 21
6.4780499199
  0
LINE
  5
251
100
AcDbEntity
  8
0
100
AcDbLine
 62
7
  6
BYLAYER
 10
21.8544587431
 20
7.1760414042
 11
21.5162247695
 21
9.8887908971
  0
LINE
  5
252
100
AcDbEntity
  8
0
100
AcDbLine
 62
7
  6
BYLAYER
 10
21.7305590138
 20
9.8842573831
 11
22.0649879031
 21
7.2020026932
  0
LINE
  5
253
100
AcDbEntity
  8
0
100
AcDbLine
 62
7
  6
BYLAYER
 10
20.8529040982
 20
36.5074835949
 11
20.9739257864
 21
35.1241993688
  0
LINE
  5
254
100
AcDbEntity
  8
0
100
AcDbLine
 62
7
  6
BYLAYER
 10
20.3542057826
 20
16.3280499199
 11
20.4162449115
 21
11.3014610534
  0
LINE
  5
255
100
AcDbEntity
  8
0
100
AcDbLine
 62
7
  6
BYLAYER
 10
20.7202149348
 20
11.7598001854
 11
20.663782924
 21
16.3319861902
  0
LINE
  5
256
100
AcDbEntity
  8
0
100
AcDbLine
 62
7
  6
BYLAYER
 10
20.8759146223
 20
16.3332860406
 11
20.9323306878
 21
11.7624428283
  0
LINE
  5
257
100
AcDbEntity
  8
0
100
AcDbLine
 62
7
  6
BYLAYER
 10
21.1233516926
 20
11.3014610534
 11
21.0613125638
 21
16.3280499199
  0
LINE
  5
258
100
AcDbEntity
  8
0
100
AcDbLine
 62
7
  6
BYLAYER
 10
18.9823377732
 20
32.8798045447
 11
18.9823377732
 21
32.0280499199
  0
LINE
  5
259
100
AcDbEntity
  8
0
100
AcDbLine
 62
7
  6
BYLAYER
 10
19.2823377732
 20
58.3983787318
 11
19.2823377732
 21
64.3982823031
  0
LINE
  5
25A
100
AcDbEntity
  8
0
100
AcDbLine
 62
7
  6
BYLAYER
 10
19.4823377732
 20
16.7280499199
 11
19.4823377732
 21
13.2280499199
  0
LINE
  5
25B
100
AcDbEntity
  8
0
100
AcDbLine
 62
7
  6
BYLAYER
 10
19.4823377732
 20
54.0280499199
 11
19.4823377732
 21
69.398320347
  0
LINE
  5
25C
100
AcDbEntity
  8
0
100
AcDbLine
 62
7
  6
BYLAYER
 10
20.3323377732
 20
54.0280499199
 11
20.3323377732
 21
36.0280499199
  0
LINE
  5
25D
100
AcDbEntity
  8
0
100
AcDbLine
 62
7
  6
BYLAYER
 10
20.3542057826
 20
16.3280499199
 11
20.354192298
 21
16.7280499199
  0
LINE
  5
25E
100
AcDbEntity
  8
0
100
AcDbLine
 62
7
  6
BYLAYER
 10
20.6637830424
 20
16.7280499199
 11
20.663782924
 21
16.3319861902
  0
LINE
  5
25F
100
AcDbEntity
  8
0
100
AcDbLine
 62
7
  6
BYLAYER
 10
20.8323377732
 20
36.5280841956
 11
20.8323377732
 21
50.0280370005
  0
LINE
  5
260
100
AcDbEntity
  8
0
100
AcDbLine
 62
7
  6
BYLAYER
 10
20.8759146223
 20
16.3332860406
 11
20.8759146223
 21
16.7280499199
  0
LINE
  5
261
100
AcDbEntity
  8
0
100
AcDbLine
 62
7
  6
BYLAYER
 10
20.9823377732
 20
36.0706853316
 11
20.9823377732
 21
36.3780499199
  0
LINE
  5
262
100
AcDbEntity
  8
0
100
AcDbLine
 62
7
  6
BYLAYER
 10
20.9823377732
 20
49.4425890268
 11
20.9823377732
 21
65.0078883093
  0
LINE
  5
263
100
AcDbEntity
  8
0
100
AcDbLine
 62
7
  6
BYLAYER
 10
21.0612990792
 20
16.7280499199
 11
21.0613125638
 21
16.3280499199
  0
LINE
  5
264
100
AcDbEntity
  8
0
100
AcDbLine
 62
7
  6
BYLAYER
 10
37.2823377732
 20
59.2983305175
 11
36.8823377732
 21
58.8983305175
  0
LINE
  5
265
100
AcDbEntity
  8
0
100
AcDbLine
 62
7
  6
BYLAYER
 10
14.4823377732
 20
32.0280499199
 11
20.9823377732
 21
32.0280499199
  0
LINE
  5
266
100
AcDbEntity
  8
0
100
AcDbLine
 62
7
  6
BYLAYER
 10
21.3323377732
 20
32.0280499199
 11
34.6323377732
 21
32.0280499199
  0
LINE
  5
267
100
AcDbEntity
  8
0
100
AcDbLine
 62
7
  6
BYLAYER
 10
34.9823377732
 20
32.0280499199
 11
41.4823377732
 21
32.0280499199
  0
LINE
  5
268
100
AcDbEntity
  8
0
100
AcDbLine
 62
7
  6
BYLAYER
 10
16.6323377732
 20
40.5430499199
 11
17.1323377732
 21
40.0430499199
  0
LINE
  5
269
100
AcDbEntity
  8
0
100
AcDbLine
 62
7
  6
BYLAYER
 10
20.8323377732
 20
36.5280499199
 11
21.3323377732
 21
36.0280499199
  0
LINE
  5
26A
100
AcDbEntity
  8
0
100
AcDbLine
 62
7
  6
BYLAYER
 10
21.3323377732
 20
36.0280499199
 11
21.3323377732
 21
37.2522554319
  0
LINE
  5
26B
100
AcDbEntity
  8
0
100
AcDbLine
 62
7
  6
BYLAYER
 10
22.4499163167
 20
17.3280499199
 11
22.4499163167
 21
16.7280499199
  0
LINE
  5
26C
100
AcDbEntity
  8
0
100
AcDbLine
 62
7
  6
BYLAYER
 10
22.9823377732
 20
35.0280499199
 11
22.9823377732
 21
32.0280499199
  0
LINE
  5
26D
100
AcDbEntity
  8
0
100
AcDbLine
 62
7
  6
BYLAYER
 10
20.8323377732
 20
39.9041177318
 11
20.3323377732
 21
39.4041177318
  0
LINE
  5
26E
100
AcDbEntity
  8
0
100
AcDbLine
 62
7
  6
BYLAYER
 10
23.6823377732
 20
69.3982154345
 11
23.6823377732
 21
58.0127293515
  0
LINE
  5
26F
100
AcDbEntity
  8
0
100
AcDbLine
 62
7
  6
BYLAYER
 10
23.9823377732
 20
58.0127293515
 11
23.9823377732
 21
66.6483299037
  0
LINE
  5
270
100
AcDbEntity
  8
0
100
AcDbLine
 62
7
  6
BYLAYER
 10
24.232338418
 20
58.0127293515
 11
24.232338418
 21
66.8983305175
  0
LINE
  5
271
100
AcDbEntity
  8
0
100
AcDbLine
 62
7
  6
BYLAYER
 10
24.4823377732
 20
58.0127293515
 11
24.4823377732
 21
71.3982465426
  0
LINE
  5
272
100
AcDbEntity
  8
0
100
AcDbLine
 62
7
  6
BYLAYER
 10
14.4823377732
 20
35.0280499199
 11
17.5314775243
 21
35.0280499199
  0
LINE
  5
273
100
AcDbEntity
  8
0
100
AcDbLine
 62
7
  6
BYLAYER
 10
21.3323377732
 20
35.0280499199
 11
34.6323377732
 21
35.0280499199
  0
LINE
  5
274
100
AcDbEntity
  8
0
100
AcDbLine
 62
7
  6
BYLAYER
 10
38.4332043717
 20
35.0280499199
 11
41.4823377732
 21
35.0280499199
  0
LINE
  5
275
100
AcDbEntity
  8
0
100
AcDbLine
 62
7
  6
BYLAYER
 10
21.3323377732
 20
36.0280499199
 11
34.6323377732
 21
36.0280499199
  0
LINE
  5
276
100
AcDbEntity
  8
0
100
AcDbLine
 62
7
  6
BYLAYER
 10
20.9823377732
 20
36.0706853316
 11
21.2897023615
 21
36.0706853316
  0
LINE
  5
277
100
AcDbEntity
  8
0
100
AcDbLine
 62
7
  6
BYLAYER
 10
34.6749731849
 20
36.0706853316
 11
34.9823377732
 21
36.0706853316
  0
LINE
  5
278
100
AcDbEntity
  8
0
100
AcDbLine
 62
7
  6
BYLAYER
 10
39.7057589698
 20
36.2280499199
 11
40.3084768802
 21
36.2280499199
  0
LINE
  5
279
100
AcDbEntity
  8
0
100
AcDbLine
 62
7
  6
BYLAYER
 10
15.133356043
 20
36.7541966427
 11
17.3323377732
 21
36.7541966427
  0
LINE
  5
27A
100
AcDbEntity
  8
0
100
AcDbLine
 62
7
  6
BYLAYER
 10
20.3323377732
 20
36.7541966427
 11
20.8313195034
 21
36.7541966427
  0
LINE
  5
27B
100
AcDbEntity
  8
0
100
AcDbLine
 62
7
  6
BYLAYER
 10
35.133356043
 20
36.7541966427
 11
35.6323377732
 21
36.7541966427
  0
LINE
  5
27C
100
AcDbEntity
  8
0
100
AcDbLine
 62
7
  6
BYLAYER
 10
38.6323377732
 20
36.7541966427
 11
39.6616044842
 21
36.7541966427
  0
LINE
  5
27D
100
AcDbEntity
  8
0
100
AcDbLine
 62
7
  6
BYLAYER
 10
40.2838069154
 20
36.7541966427
 11
40.8313195034
 21
36.7541966427
  0
LINE
  5
27E
100
AcDbEntity
  8
0
100
AcDbLine
 62
7
  6
BYLAYER
 10
15.4322144525
 20
37.0280499199
 11
17.3323377732
 21
37.0280499199
  0
LINE
  5
27F
100
AcDbEntity
  8
0
100
AcDbLine
 62
7
  6
BYLAYER
 10
20.3323377732
 20
37.0280499199
 11
20.532461094
 21
37.0280499199
  0
LINE
  5
280
100
AcDbEntity
  8
0
100
AcDbLine
 62
7
  6
BYLAYER
 10
35.4322144525
 20
37.0280499199
 11
35.6323377732
 21
37.0280499199
  0
LINE
  5
281
100
AcDbEntity
  8
0
100
AcDbLine
 62
7
  6
BYLAYER
 10
38.6323377732
 20
37.0280499199
 11
40.532461094
 21
37.0280499199
  0
LINE
  5
282
100
AcDbEntity
  8
0
100
AcDbLine
 62
7
  6
BYLAYER
 10
20.8323377732
 20
37.2522554319
 11
21.3323377732
 21
37.2522554319
  0
LINE
  5
283
100
AcDbEntity
  8
0
100
AcDbLine
 62
7
  6
BYLAYER
 10
34.6323377732
 20
37.2522554319
 11
35.1323377732
 21
37.2522554319
  0
LINE
  5
284
100
AcDbEntity
  8
0
100
AcDbLine
 62
7
  6
BYLAYER
 10
35.6323377732
 20
39.0185907766
 11
35.1323377732
 21
39.0185907766
  0
LINE
  5
285
100
AcDbEntity
  8
0
100
AcDbLine
 62
7
  6
BYLAYER
 10
20.8323377732
 20
39.0185907766
 11
20.3323377732
 21
39.0185907766
  0
LINE
  5
286
100
AcDbEntity
  8
0
100
AcDbLine
 62
7
  6
BYLAYER
 10
17.1323377732
 20
40.0430499199
 11
17.3323377732
 21
40.0430499199
  0
LINE
  5
287
100
AcDbEntity
  8
0
100
AcDbLine
 62
7
  6
BYLAYER
 10
20.3323377732
 20
40.0430499199
 11
20.8323377732
 21
40.0430499199
  0
LINE
  5
288
100
AcDbEntity
  8
0
100
AcDbLine
 62
7
  6
BYLAYER
 10
35.1323377732
 20
40.0430499199
 11
35.6323377732
 21
40.0430499199
  0
LINE
  5
289
100
AcDbEntity
  8
0
100
AcDbLine
 62
7
  6
BYLAYER
 10
38.6323377732
 20
41.0580499199
 11
39.6323377732
 21
41.0580499199
  0
LINE
  5
28A
100
AcDbEntity
  8
0
100
AcDbLine
 62
7
  6
BYLAYER
 10
31.4823377732
 20
71.3982465426
 11
31.4823377732
 21
58.0127293515
  0
LINE
  5
28B
100
AcDbEntity
  8
0
100
AcDbLine
 62
7
  6
BYLAYER
 10
31.732337026
 20
66.8983305175
 11
31.732337026
 21
58.0127293515
  0
LINE
  5
28C
100
AcDbEntity
  8
0
100
AcDbLine
 62
7
  6
BYLAYER
 10
31.9823377732
 20
66.6483298063
 11
31.9823377732
 21
58.0127293515
  0
LINE
  5
28D
100
AcDbEntity
  8
0
100
AcDbLine
 62
7
  6
BYLAYER
 10
32.2823377732
 20
58.0127293515
 11
32.2823377732
 21
69.3981936019
  0
LINE
  5
28E
100
AcDbEntity
  8
0
100
AcDbLine
 62
7
  6
BYLAYER
 10
32.9823377732
 20
35.0280499199
 11
32.9823377732
 21
32.0280499199
  0
LINE
  5
28F
100
AcDbEntity
  8
0
100
AcDbLine
 62
7
  6
BYLAYER
 10
17.3323377732
 20
42.9764122506
 11
20.3323377732
 21
42.9764122506
  0
LINE
  5
290
100
AcDbEntity
  8
0
100
AcDbLine
 62
7
  6
BYLAYER
 10
35.6323377732
 20
42.9764122506
 11
38.6323377732
 21
42.9764122506
  0
LINE
  5
291
100
AcDbEntity
  8
0
100
AcDbLine
 62
7
  6
BYLAYER
 10
33.5147592298
 20
16.7280499199
 11
33.5147592298
 21
17.3280499199
  0
LINE
  5
292
100
AcDbEntity
  8
0
100
AcDbLine
 62
7
  6
BYLAYER
 10
34.6323377732
 20
37.2522554319
 11
34.6323377732
 21
36.0280499199
  0
LINE
  5
293
100
AcDbEntity
  8
0
100
AcDbLine
 62
7
  6
BYLAYER
 10
34.9823377732
 20
65.0078883092
 11
34.9823377732
 21
49.4425890268
  0
LINE
  5
294
100
AcDbEntity
  8
0
100
AcDbLine
 62
7
  6
BYLAYER
 10
34.9823377732
 20
36.3780499199
 11
34.9823377732
 21
36.0706853316
  0
LINE
  5
295
100
AcDbEntity
  8
0
100
AcDbLine
 62
7
  6
BYLAYER
 10
35.1323377732
 20
50.0280187854
 11
35.1323377732
 21
36.5280841956
  0
LINE
  5
296
100
AcDbEntity
  8
0
100
AcDbLine
 62
7
  6
BYLAYER
 10
35.1117714482
 20
36.5074835949
 11
34.9907503023
 21
35.1242055676
  0
LINE
  5
297
100
AcDbEntity
  8
0
100
AcDbLine
 62
7
  6
BYLAYER
 10
40.1323377732
 20
41.5580499199
 11
39.6323377732
 21
41.0580499199
  0
LINE
  5
298
100
AcDbEntity
  8
0
100
AcDbLine
 62
7
  6
BYLAYER
 10
35.1323377732
 20
36.5280499199
 11
34.6323377732
 21
36.0280499199
  0
LINE
  5
299
100
AcDbEntity
  8
0
100
AcDbLine
 62
7
  6
BYLAYER
 10
38.6323377732
 20
44.9980499199
 11
39.6323377732
 21
44.9980499199
  0
LINE
  5
29A
100
AcDbEntity
  8
0
100
AcDbLine
 62
7
  6
BYLAYER
 10
17.1323377732
 20
46.0130499199
 11
17.3323377732
 21
46.0130499199
  0
LINE
  5
29B
100
AcDbEntity
  8
0
100
AcDbLine
 62
7
  6
BYLAYER
 10
20.3323377732
 20
46.0130499199
 11
20.8323377732
 21
46.0130499199
  0
LINE
  5
29C
100
AcDbEntity
  8
0
100
AcDbLine
 62
7
  6
BYLAYER
 10
35.1323377732
 20
46.0130499199
 11
35.6323377732
 21
46.0130499199
  0
LINE
  5
29D
100
AcDbEntity
  8
0
100
AcDbLine
 62
7
  6
BYLAYER
 10
35.1323377732
 20
39.9041177318
 11
35.6323377732
 21
39.4041177318
  0
LINE
  5
29E
100
AcDbEntity
  8
0
100
AcDbLine
 62
7
  6
BYLAYER
 10
35.6323377732
 20
36.0280499199
 11
35.6323377732
 21
54.0280499199
  0
LINE
  5
29F
100
AcDbEntity
  8
0
100
AcDbLine
 62
7
  6
BYLAYER
 10
36.4823377732
 20
69.3982971289
 11
36.4823377732
 21
54.0280499199
  0
LINE
  5
2A0
100
AcDbEntity
  8
0
100
AcDbLine
 62
7
  6
BYLAYER
 10
36.4823377732
 20
16.7280499199
 11
36.4823377732
 21
13.2280499199
  0
LINE
  5
2A1
100
AcDbEntity
  8
0
100
AcDbLine
 62
7
  6
BYLAYER
 10
36.8823377732
 20
63.8983305175
 11
36.8823377732
 21
58.8983305175
  0
LINE
  5
2A2
100
AcDbEntity
  8
0
100
AcDbLine
 62
7
  6
BYLAYER
 10
36.9823377732
 20
32.0280499199
 11
36.9823377732
 21
32.8798099564
  0
LINE
  5
2A3
100
AcDbEntity
  8
0
100
AcDbLine
 62
7
  6
BYLAYER
 10
37.2823377732
 20
63.4982759212
 11
37.2823377732
 21
59.2983851137
  0
LINE
  5
2A4
100
AcDbEntity
  8
0
100
AcDbLine
 62
7
  6
BYLAYER
 10
37.464699683
 20
17.3280499199
 11
37.464699683
 21
16.7280499199
  0
LINE
  5
2A5
100
AcDbEntity
  8
0
100
AcDbLine
 62
7
  6
BYLAYER
 10
35.6323377732
 20
47.1472049099
 11
35.1323377732
 21
47.1472049099
  0
LINE
  5
2A6
100
AcDbEntity
  8
0
100
AcDbLine
 62
7
  6
BYLAYER
 10
20.8323377732
 20
47.1472049099
 11
20.3323377732
 21
47.1472049099
  0
LINE
  5
2A7
100
AcDbEntity
  8
0
100
AcDbLine
 62
7
  6
BYLAYER
 10
19.2823377732
 20
58.3983305175
 11
19.4823377732
 21
58.1983305175
  0
LINE
  5
2A8
100
AcDbEntity
  8
0
100
AcDbLine
 62
7
  6
BYLAYER
 10
39.6207349946
 20
17.3280499199
 11
39.6289394082
 21
16.7280499199
  0
LINE
  5
2A9
100
AcDbEntity
  8
0
100
AcDbLine
 62
7
  6
BYLAYER
 10
38.6323377732
 20
54.0280499199
 11
38.6323377732
 21
36.0280499199
  0
LINE
  5
2AA
100
AcDbEntity
  8
0
100
AcDbLine
 62
7
  6
BYLAYER
 10
38.7630187475
 20
16.7280499199
 11
38.7630187475
 21
17.3280499199
  0
LINE
  5
2AB
100
AcDbEntity
  8
0
100
AcDbLine
 62
7
  6
BYLAYER
 10
39.4823377732
 20
17.3280499199
 11
39.4823377732
 21
13.2280499199
  0
LINE
  5
2AC
100
AcDbEntity
  8
0
100
AcDbLine
 62
7
  6
BYLAYER
 10
39.6323377732
 20
44.9980499199
 11
39.6323377732
 21
41.0580499199
  0
LINE
  5
2AD
100
AcDbEntity
  8
0
100
AcDbLine
 62
7
  6
BYLAYER
 10
39.8236789193
 20
17.3280499199
 11
39.8236789193
 21
16.7280499199
  0
LINE
  5
2AE
100
AcDbEntity
  8
0
100
AcDbLine
 62
7
  6
BYLAYER
 10
39.9823377732
 20
16.7280499199
 11
39.9823377732
 21
17.3280499199
  0
LINE
  5
2AF
100
AcDbEntity
  8
0
100
AcDbLine
 62
7
  6
BYLAYER
 10
38.1945983382
 20
11.3014610534
 11
38.2247360589
 21
13.0280499199
  0
LINE
  5
2B0
100
AcDbEntity
  8
0
100
AcDbLine
 62
7
  6
BYLAYER
 10
29.6251580962
 20
6.4280499199
 11
29.6385555559
 21
6.4780499199
  0
LINE
  5
2B1
100
AcDbEntity
  8
0
100
AcDbLine
 62
7
  6
BYLAYER
 10
35.6323377732
 20
49.349124589
 11
35.1323377732
 21
49.349124589
  0
LINE
  5
2B2
100
AcDbEntity
  8
0
100
AcDbLine
 62
7
  6
BYLAYER
 10
20.8323377732
 20
49.349124589
 11
20.3323377732
 21
49.349124589
  0
LINE
  5
2B3
100
AcDbEntity
  8
0
100
AcDbLine
 62
7
  6
BYLAYER
 10
34.9823377732
 20
49.4425890268
 11
20.9823377732
 21
49.4425890268
  0
LINE
  5
2B4
100
AcDbEntity
  8
0
100
AcDbLine
 62
7
  6
BYLAYER
 10
38.6323377732
 20
49.658961182
 11
35.6323377732
 21
49.658961182
  0
LINE
  5
2B5
100
AcDbEntity
  8
0
100
AcDbLine
 62
7
  6
BYLAYER
 10
20.3323377732
 20
49.658961182
 11
17.3323377732
 21
49.658961182
  0
LINE
  5
2B6
100
AcDbEntity
  8
0
100
AcDbLine
 62
7
  6
BYLAYER
 10
20.8323377732
 20
50.0280499199
 11
20.9823377732
 21
50.0280499199
  0
LINE
  5
2B7
100
AcDbEntity
  8
0
100
AcDbLine
 62
7
  6
BYLAYER
 10
34.9823377732
 20
50.0280499199
 11
35.1323377732
 21
50.0280499199
  0
LINE
  5
2B8
100
AcDbEntity
  8
0
100
AcDbLine
 62
7
  6
BYLAYER
 10
40.8313195034
 20
36.7541966427
 11
40.9823377732
 21
35.0280499199
  0
LINE
  5
2B9
100
AcDbEntity
  8
0
100
AcDbLine
 62
7
  6
BYLAYER
 10
40.1323377732
 20
44.4979927115
 11
40.1323377732
 21
41.5581071282
  0
LINE
  5
2BA
100
AcDbEntity
  8
0
100
AcDbLine
 62
7
  6
BYLAYER
 10
40.4823377732
 20
35.0280499199
 11
40.4823377732
 21
32.0280499199
  0
LINE
  5
2BB
100
AcDbEntity
  8
0
100
AcDbLine
 62
7
  6
BYLAYER
 10
40.7323377732
 20
32.0280499199
 11
40.7323377732
 21
23.8280499199
  0
LINE
  5
2BC
100
AcDbEntity
  8
0
100
AcDbLine
 62
7
  6
BYLAYER
 10
40.7824364542
 20
23.8280499199
 11
40.7824340144
 21
17.3280499199
  0
LINE
  5
2BD
100
AcDbEntity
  8
0
100
AcDbLine
 62
7
  6
BYLAYER
 10
41.4323377732
 20
23.8280499199
 11
41.4323377732
 21
32.0280499199
  0
LINE
  5
2BE
100
AcDbEntity
  8
0
100
AcDbLine
 62
7
  6
BYLAYER
 10
41.4823377732
 20
17.3280499199
 11
41.4823377732
 21
23.8280499199
  0
LINE
  5
2BF
100
AcDbEntity
  8
0
100
AcDbLine
 62
7
  6
BYLAYER
 10
41.4823377732
 20
32.0280499199
 11
41.4823377732
 21
35.0280499199
  0
LINE
  5
2C0
100
AcDbEntity
  8
0
100
AcDbLine
 62
7
  6
BYLAYER
 10
19.4823377732
 20
13.2280499199
 11
19.2823377732
 21
13.0280499199
  0
LINE
  5
2C1
100
AcDbEntity
  8
0
100
AcDbLine
 62
7
  6
BYLAYER
 10
40.1323377732
 20
44.4980499199
 11
39.6323377732
 21
44.9980499199
  0
LINE
  5
2C2
100
AcDbEntity
  8
0
100
AcDbLine
 62
7
  6
BYLAYER
 10
20.3323377732
 20
53.3983305175
 11
20.9823377732
 21
53.3983305175
  0
LINE
  5
2C3
100
AcDbEntity
  8
0
100
AcDbLine
 62
7
  6
BYLAYER
 10
34.9823377732
 20
53.3983305175
 11
35.6323377732
 21
53.3983305175
  0
LINE
  5
2C4
100
AcDbEntity
  8
0
100
AcDbLine
 62
7
  6
BYLAYER
 10
20.3323377732
 20
54.0280499199
 11
17.3323377732
 21
54.0280499199
  0
LINE
  5
2C5
100
AcDbEntity
  8
0
100
AcDbLine
 62
7
  6
BYLAYER
 10
35.6323377732
 20
54.0280499199
 11
38.6323377732
 21
54.0280499199
  0
LINE
  5
2C6
100
AcDbEntity
  8
0
100
AcDbLine
 62
7
  6
BYLAYER
 10
38.1276871925
 20
11.0601872567
 11
38.1945983382
 21
11.3014610534
  0
LINE
  5
2C7
100
AcDbEntity
  8
0
100
AcDbLine
 62
7
  6
BYLAYER
 10
20.9823377732
 20
58.0127293515
 11
34.9823377732
 21
58.0127293515
  0
LINE
  5
2C8
100
AcDbEntity
  8
0
100
AcDbLine
 62
7
  6
BYLAYER
 10
36.4823377732
 20
58.8983305175
 11
36.8823377732
 21
58.8983305175
  0
LINE
  5
2C9
100
AcDbEntity
  8
0
100
AcDbLine
 62
7
  6
BYLAYER
 10
37.5606499367
 20
10.0780499199
 11
38.1276871925
 21
11.0601872567
  0
LINE
  5
2CA
100
AcDbEntity
  8
0
100
AcDbLine
 62
7
  6
BYLAYER
 10
32.2823377732
 20
64.8983305175
 11
31.9823377732
 21
65.1983305175
  0
LINE
  5
2CB
100
AcDbEntity
  8
0
100
AcDbLine
 62
7
  6
BYLAYER
 10
31.9823375302
 20
66.6483298063
 11
31.732337026
 21
66.8983302652
  0
LINE
  5
2CC
100
AcDbEntity
  8
0
100
AcDbLine
 62
7
  6
BYLAYER
 10
36.4823377732
 20
63.8983305175
 11
36.8823377732
 21
63.8983305175
  0
LINE
  5
2CD
100
AcDbEntity
  8
0
100
AcDbLine
 62
7
  6
BYLAYER
 10
37.2823377732
 20
63.4983305175
 11
36.8823377732
 21
63.8983305175
  0
LINE
  5
2CE
100
AcDbEntity
  8
0
100
AcDbLine
 62
7
  6
BYLAYER
 10
39.4823377732
 20
13.2280499199
 11
39.2823377732
 21
13.0280499199
  0
LINE
  5
2CF
100
AcDbEntity
  8
0
100
AcDbLine
 62
7
  6
BYLAYER
 10
20.9823377732
 20
65.0078883093
 11
23.6823377732
 21
65.0078883093
  0
LINE
  5
2D0
100
AcDbEntity
  8
0
100
AcDbLine
 62
7
  6
BYLAYER
 10
32.2823377732
 20
65.0078883093
 11
34.9823377732
 21
65.0078883093
  0
LINE
  5
2D1
100
AcDbEntity
  8
0
100
AcDbLine
 62
7
  6
BYLAYER
 10
23.6823377732
 20
65.3983305175
 11
23.9823377732
 21
65.3983305175
  0
LINE
  5
2D2
100
AcDbEntity
  8
0
100
AcDbLine
 62
7
  6
BYLAYER
 10
24.2323386605
 20
66.8983305175
 11
24.4823377732
 21
66.8983305175
  0
LINE
  5
2D3
100
AcDbEntity
  8
0
100
AcDbLine
 62
7
  6
BYLAYER
 10
31.4823377732
 20
66.8983305175
 11
31.7323367737
 21
66.8983305175
  0
LINE
  5
2D4
100
AcDbEntity
  8
0
100
AcDbLine
 62
7
  6
BYLAYER
 10
19.4823377732
 20
69.3983305175
 11
23.6823377732
 21
69.3983305175
  0
LINE
  5
2D5
100
AcDbEntity
  8
0
100
AcDbLine
 62
7
  6
BYLAYER
 10
32.2823377732
 20
69.3983305175
 11
36.4823377732
 21
69.3983305175
  0
LINE
  5
2D6
100
AcDbEntity
  8
0
100
AcDbLine
 62
7
  6
BYLAYER
 10
31.4823377732
 20
71.3983305175
 11
24.4823377732
 21
71.3983305175
  0
ARC
  5
2D7
100
AcDbEntity
  8
0
100
AcDbCircle
 62
7
  6
BYLAYER
 10
34.6323377732
 20
36.0280499199
 40
4.0
100
AcDbArc
 50
270.0
 51
360.0
  0
ARC
  5
2D8
100
AcDbEntity
  8
0
100
AcDbCircle
 62
7
  6
BYLAYER
 10
21.3323377732
 20
36.0280499199
 40
4.0
100
AcDbArc
 50
180.0
 51
270.0
  0
ARC
  5
2D9
100
AcDbEntity
  8
0
100
AcDbCircle
 62
7
  6
BYLAYER
 10
23.4237084207
 20
11.8745264303
 40
2.5019695447
100
AcDbArc
 50
193.2771391486
 51
199.8567701714
  0
ARC
  5
2DA
100
AcDbEntity
  8
0
100
AcDbCircle
 62
7
  6
BYLAYER
 10
34.6323377732
 20
36.0280499199
 40
1.0
100
AcDbArc
 50
270.0
 51
360.0
  0
ARC
  5
2DB
100
AcDbEntity
  8
0
100
AcDbCircle
 62
7
  6
BYLAYER
 10
21.3323377732
 20
36.0280499199
 40
1.0
100
AcDbArc
 50
180.0
 51
270.0
  0
ARC
  5
2DC
100
AcDbEntity
  8
0
100
AcDbCircle
 62
7
  6
BYLAYER
 10
37.1276372348
 20
10.3280499199
 40
0.5
100
AcDbArc
 50
270.0
 51
330.0
  0
ARC
  5
2DD
100
AcDbEntity
  8
0
100
AcDbCircle
 62
7
  6
BYLAYER
 10
18.8370383116
 20
10.3280499199
 40
0.5
100
AcDbArc
 50
210.0
 51
270.0
  0
ARC
  5
2DE
100
AcDbEntity
  8
0
100
AcDbCircle
 62
7
  6
BYLAYER
 10
40.532461094
 20
36.7280499199
 40
0.3
100
AcDbArc
 50
4.9999999999
 51
90.0
  0
ARC
  5
2DF
100
AcDbEntity
  8
0
100
AcDbCircle
 62
7
  6
BYLAYER
 10
35.4322144525
 20
36.7280499199
 40
0.3
100
AcDbArc
 50
90.0
 51
175.0000000001
  0
ARC
  5
2E0
100
AcDbEntity
  8
0
100
AcDbCircle
 62
7
  6
BYLAYER
 10
20.532461094
 20
36.7280499199
 40
0.3
100
AcDbArc
 50
4.9999999999
 51
90.0
  0
ARC
  5
2E1
100
AcDbEntity
  8
0
100
AcDbCircle
 62
7
  6
BYLAYER
 10
15.4322144525
 20
36.7280499199
 40
0.3
100
AcDbArc
 50
90.0
 51
175.0000000001
  0
LINE
  5
2E2
100
AcDbEntity
  8
0
100
AcDbLine
 62
7
  6
BYLAYER
 10
39.7057589698
 20
36.2280499199
 11
39.6616044842
 21
36.7541966427
  0
SPLINE
  5
2E3
100
AcDbEntity
  8
0
100
AcDbSpline
 62
7
  6
BYLAYER
 70
0
 71
3
 72
13
 73
9
 74
0
 42
0.0000001
 43
0.0000001
 44
0.0000000001
 40
0.0
 40
0.0
 40
0.0
 40
0.0
 40
0.2869787902
 40
0.5521388555
 40
0.6737709668
 40
0.7878366466
 40
0.8958461845
 40
1.0
 40
1.0
 40
1.0
 40
1.0
 10
39.6616044842
 20
36.7541966427
 30
0.0
 10
39.6585385866
 20
36.7906844111
 30
0.0
 10
39.6435056922
 20
36.8604811846
 30
0.0
 10
39.6017771263
 20
36.9374399165
 30
0.0
 10
39.5572759
 20
36.9837957015
 30
0.0
 10
39.5209335951
 20
37.0089483977
 30
0.0
 10
39.4819115583
 20
37.0244740363
 30
0.0
 10
39.4547296351
 20
37.0280499199
 30
0.0
 10
39.4414403868
 20
37.0280499199
 30
0.0
  0
LINE
  5
2E4
100
AcDbEntity
  8
0
100
AcDbLine
 62
7
  6
BYLAYER
 10
40.2838069154
 20
36.7541966427
 11
40.3084768802
 21
36.2280499199
  0
SPLINE
  5
2E5
100
AcDbEntity
  8
0
100
AcDbSpline
 62
7
  6
BYLAYER
 70
0
 71
3
 72
14
 73
10
 74
0
 42
0.0000001
 43
0.0000001
 44
0.0000000001
 40
0.0
 40
0.0
 40
0.0
 40
0.0
 40
0.1048713322
 40
0.2127644572
 40
0.3261781264
 40
0.4469759035
 40
0.7110907517
 40
0.8536185363
 40
1.0
 40
1.0
 40
1.0
 40
1.0
 10
40.0737842855
 20
37.0280499199
 30
0.0
 10
40.0870111826
 20
37.0280499199
 30
0.0
 10
40.1139648186
 20
37.024518974
 30
0.0
 10
40.1524853222
 20
37.0090004333
 30
0.0
 10
40.1879667843
 20
36.9838110385
 30
0.0
 10
40.2308393863
 20
36.9373661163
 30
0.0
 10
40.2614211594
 20
36.8766548821
 30
0.0
 10
40.2787806934
 20
36.808992897
 30
0.0
 10
40.2829402725
 20
36.7726386534
 30
0.0
 10
40.2838069154
 20
36.7541966427
 30
0.0
  0
LINE
  5
2E6
100
AcDbEntity
  8
0
100
AcDbLine
 62
7
  6
BYLAYER
 10
20.886148797
 20
9.8280499199
 11
21.2546900384
 21
6.8912258311
  0
SPLINE
  5
2E7
100
AcDbEntity
  8
0
100
AcDbSpline
 62
7
  6
BYLAYER
 70
0
 71
3
 72
13
 73
9
 74
0
 42
0.0000001
 43
0.0000001
 44
0.0000000001
 40
0.0
 40
0.0
 40
0.0
 40
0.0
 40
0.2873719025
 40
0.5508652922
 40
0.6718822544
 40
0.785883455
 40
0.8945201858
 40
1.0
 40
1.0
 40
1.0
 40
1.0
 10
21.2546900384
 20
6.8912258311
 30
0.0
 10
21.2617116303
 20
6.8352942758
 30
0.0
 10
21.2882864132
 20
6.729175218
 30
0.0
 10
21.3554180659
 20
6.6130321017
 30
0.0
 10
21.4252156494
 20
6.5437905611
 30
0.0
 10
21.4818751074
 20
6.5063402879
 30
0.0
 10
21.5425567897
 20
6.4833055706
 30
0.0
 10
21.5847220747
 20
6.4780499199
 30
0.0
 10
21.6054128856
 20
6.4780499199
 30
0.0
  0
LINE
  5
2E8
100
AcDbEntity
  8
0
100
AcDbLine
 62
7
  6
BYLAYER
 10
21.170763292
 20
11.0601872567
 11
21.5722588411
 21
10.0779938905
  0
SPLINE
  5
2E9
100
AcDbEntity
  8
0
100
AcDbSpline
 62
7
  6
BYLAYER
 70
0
 71
3
 72
12
 73
8
 74
0
 42
0.0000001
 43
0.0000001
 44
0.0000000001
 40
0.0
 40
0.0
 40
0.0
 40
0.0
 40
0.2817340484
 40
0.54011336
 40
0.7764502495
 40
0.8892416546
 40
1.0
 40
1.0
 40
1.0
 40
1.0
 10
21.5722588411
 20
10.0779938905
 30
0.0
 10
21.58712993
 20
10.0416169753
 30
0.0
 10
21.6228843059
 20
9.9744479469
 30
0.0
 10
21.6961108794
 20
9.8930265185
 30
0.0
 10
21.7701547297
 20
9.8484675353
 30
0.0
 10
21.8321885092
 20
9.830985448
 30
0.0
 10
21.8634453479
 20
9.8280499199
 30
0.0
 10
21.8788950863
 20
9.8280499199
 30
0.0
  0
SPLINE
  5
2EA
100
AcDbEntity
  8
0
100
AcDbSpline
 62
7
  6
BYLAYER
 70
0
 71
3
 72
9
 73
5
 74
0
 42
0.0000001
 43
0.0000001
 44
0.0000000001
 40
0.0
 40
0.0
 40
0.0
 40
0.0
 40
0.2432904811
 40
1.0
 40
1.0
 40
1.0
 40
1.0
 10
21.170763292
 20
11.0601872567
 30
0.0
 10
21.1631935297
 20
11.0787067799
 30
0.0
 10
21.1360387286
 20
11.1564113689
 30
0.0
 10
21.1241206022
 20
11.2392382411
 30
0.0
 10
21.1233516926
 20
11.3014610534
 30
0.0
  0
LINE
  5
2EB
100
AcDbEntity
  8
0
100
AcDbLine
 62
7
  6
BYLAYER
 10
21.9175291224
 20
9.8280499199
 11
22.2843172196
 21
6.8909832793
  0
SPLINE
  5
2EC
100
AcDbEntity
  8
0
100
AcDbSpline
 62
7
  6
BYLAYER
 70
0
 71
3
 72
13
 73
9
 74
0
 42
0.0000001
 43
0.0000001
 44
0.0000000001
 40
0.0
 40
0.0
 40
0.0
 40
0.0
 40
0.2872869874
 40
0.5508703586
 40
0.6719537314
 40
0.7859786792
 40
0.894580509
 40
1.0
 40
1.0
 40
1.0
 40
1.0
 10
22.2843172196
 20
6.8909832793
 30
0.0
 10
22.291283836
 20
6.8352033174
 30
0.0
 10
22.3176912572
 20
6.729342307
 30
0.0
 10
22.3843007653
 20
6.6132920819
 30
0.0
 10
22.4537072264
 20
6.5439552593
 30
0.0
 10
22.5101113888
 20
6.5064006415
 30
0.0
 10
22.5705910371
 20
6.4833064273
 30
0.0
 10
22.6126351562
 20
6.4780499199
 30
0.0
 10
22.6332625439
 20
6.4780499199
 30
0.0
  0
SPLINE
  5
2ED
100
AcDbEntity
  8
0
100
AcDbSpline
 62
7
  6
BYLAYER
 70
0
 71
3
 72
13
 73
9
 74
0
 42
0.0000001
 43
0.0000001
 44
0.0000000001
 40
0.0
 40
0.0
 40
0.0
 40
0.0
 40
0.1054791018
 40
0.2141153206
 40
0.3281177535
 40
0.4491367898
 40
0.7126322928
 40
1.0
 40
1.0
 40
1.0
 40
1.0
 10
34.3592626811
 20
6.4780499199
 30
0.0
 10
34.3799533514
 20
6.4780499199
 30
0.0
 10
34.4221184549
 20
6.4833051889
 30
0.0
 10
34.482800002
 20
6.5063402846
 30
0.0
 10
34.5394601107
 20
6.5437905368
 30
0.0
 10
34.6092581554
 20
6.6130331945
 30
0.0
 10
34.6763895318
 20
6.7291764173
 30
0.0
 10
34.7029640189
 20
6.8352950947
 30
0.0
 10
34.7099855081
 20
6.8912258311
 30
0.0
  0
LINE
  5
2EE
100
AcDbEntity
  8
0
100
AcDbLine
 62
7
  6
BYLAYER
 10
34.7099855081
 20
6.8912258311
 11
35.0785267494
 21
9.8280499199
  0
LINE
  5
2EF
100
AcDbEntity
  8
0
100
AcDbLine
 62
7
  6
BYLAYER
 10
21.5772087261
 20
6.8909970389
 11
21.2104223412
 21
9.8280499199
  0
SPLINE
  5
2F0
100
AcDbEntity
  8
0
100
AcDbSpline
 62
7
  6
BYLAYER
 70
0
 71
3
 72
13
 73
9
 74
0
 42
0.0000001
 43
0.0000001
 44
0.0000000001
 40
0.0
 40
0.0
 40
0.0
 40
0.0
 40
0.1054185561
 40
0.2140216016
 40
0.32804698
 40
0.4491307815
 40
0.7127148268
 40
1.0
 40
1.0
 40
1.0
 40
1.0
 10
21.9261312158
 20
6.4780499199
 30
0.0
 10
21.905504371
 20
6.4780499199
 30
0.0
 10
21.8634610393
 20
6.4833109578
 30
0.0
 10
21.8029853587
 20
6.5064118497
 30
0.0
 10
21.7465839101
 20
6.5439688858
 30
0.0
 10
21.6771823395
 20
6.613308585
 30
0.0
 10
21.6105777534
 20
6.7293586441
 30
0.0
 10
21.5841751769
 20
6.835218403
 30
0.0
 10
21.5772087261
 20
6.8909970389
 30
0.0
  0
SPLINE
  5
2F1
100
AcDbEntity
  8
0
100
AcDbSpline
 62
7
  6
BYLAYER
 70
0
 71
3
 72
9
 73
5
 74
0
 42
0.0000001
 43
0.0000001
 44
0.0000000001
 40
0.0
 40
0.0
 40
0.0
 40
0.0
 40
0.2473975139
 40
1.0
 40
1.0
 40
1.0
 40
1.0
 10
20.7819764227
 20
11.2522722796
 30
0.0
 10
20.7722422303
 20
11.2933450957
 30
0.0
 10
20.7376547208
 20
11.4604635943
 30
0.0
 10
20.7217996993
 20
11.6314021808
 30
0.0
 10
20.7202149348
 20
11.7598001854
 30
0.0
  0
SPLINE
  5
2F2
100
AcDbEntity
  8
0
100
AcDbSpline
 62
7
  6
BYLAYER
 70
0
 71
3
 72
12
 73
8
 74
0
 42
0.0000001
 43
0.0000001
 44
0.0000000001
 40
0.0
 40
0.0
 40
0.0
 40
0.0
 40
0.2306715893
 40
0.4751081794
 40
0.6022765147
 40
0.7324128278
 40
1.0
 40
1.0
 40
1.0
 40
1.0
 10
21.4056271749
 20
10.1230926612
 30
0.0
 10
21.33094897
 20
10.1904875157
 30
0.0
 10
21.1902360758
 20
10.3442711688
 30
0.0
 10
21.0465521322
 20
10.5653785561
 30
0.0
 10
20.9479418696
 20
10.7608807725
 30
0.0
 10
20.8594453852
 20
10.9721355211
 30
0.0
 10
20.8088866112
 20
11.1387264218
 30
0.0
 10
20.7819764227
 20
11.2522722796
 30
0.0
  0
SPLINE
  5
2F3
100
AcDbEntity
  8
0
100
AcDbSpline
 62
7
  6
BYLAYER
 70
0
 71
3
 72
10
 73
6
 74
0
 42
0.0000001
 43
0.0000001
 44
0.0000000001
 40
0.0
 40
0.0
 40
0.0
 40
0.0
 40
0.269270021
 40
0.5285872112
 40
1.0
 40
1.0
 40
1.0
 40
1.0
 10
21.5162247695
 20
9.8887908971
 30
0.0
 10
21.5132985566
 20
9.912260306
 30
0.0
 10
21.5041330011
 20
9.9580352316
 30
0.0
 10
21.4738373199
 20
10.0405796216
 30
0.0
 10
21.4363663655
 20
10.0953514581
 30
0.0
 10
21.4056271749
 20
10.1230926612
 30
0.0
  0
SPLINE
  5
2F4
100
AcDbEntity
  8
0
100
AcDbSpline
 62
7
  6
BYLAYER
 70
0
 71
3
 72
13
 73
9
 74
0
 42
0.0000001
 43
0.0000001
 44
0.0000000001
 40
0.0
 40
0.0
 40
0.0
 40
0.0
 40
0.10528728
 40
0.2139638464
 40
0.3280693714
 40
0.4491125002
 40
0.7127665927
 40
1.0
 40
1.0
 40
1.0
 40
1.0
 10
22.0633474118
 20
6.9280526109
 30
0.0
 10
22.0509928117
 20
6.9280526109
 30
0.0
 10
22.0257911385
 20
6.9312650031
 30
0.0
 10
21.9895372299
 20
6.9451591636
 30
0.0
 10
21.9557559949
 20
6.9677740833
 30
0.0
 10
21.9141894672
 20
7.0094254888
 30
0.0
 10
21.8743818057
 20
7.079100993
 30
0.0
 10
21.8586287983
 20
7.1425958787
 30
0.0
 10
21.8544587431
 20
7.1760414042
 30
0.0
  0
SPLINE
  5
2F5
100
AcDbEntity
  8
0
100
AcDbSpline
 62
7
  6
BYLAYER
 70
0
 71
3
 72
9
 73
5
 74
0
 42
0.0000001
 43
0.0000001
 44
0.0000000001
 40
0.0
 40
0.0
 40
0.0
 40
0.0
 40
0.255887774
 40
1.0
 40
1.0
 40
1.0
 40
1.0
 10
20.4162449115
 20
11.3014610534
 30
0.0
 10
20.4165048945
 20
11.2804223339
 30
0.0
 10
20.4212511965
 20
11.1983227432
 30
0.0
 10
20.4405068359
 20
11.1168232412
 30
0.0
 10
20.4636565108
 20
11.0601872567
 30
0.0
  0
SPLINE
  5
2F6
100
AcDbEntity
  8
0
100
AcDbSpline
 62
7
  6
BYLAYER
 70
0
 71
3
 72
13
 73
9
 74
0
 42
0.0000001
 43
0.0000001
 44
0.0000000001
 40
0.0
 40
0.0
 40
0.0
 40
0.0
 40
0.2870578318
 40
0.5535851311
 40
0.6754532606
 40
0.7893508235
 40
0.8967447968
 40
1.0
 40
1.0
 40
1.0
 40
1.0
 10
22.063376522
 20
6.9280499199
 30
0.0
 10
22.063376522
 20
6.9473724495
 30
0.0
 10
22.068409338
 20
6.9848236896
 30
0.0
 10
22.0875024197
 20
7.0270702629
 30
0.0
 10
22.1095306124
 20
7.0529881409
 30
0.0
 10
22.1280008589
 20
7.0672020013
 30
0.0
 10
22.1482481083
 20
7.0759971086
 30
0.0
 10
22.1624921915
 20
7.0780499199
 30
0.0
 10
22.1694425392
 20
7.0780499199
 30
0.0
  0
SPLINE
  5
2F7
100
AcDbEntity
  8
0
100
AcDbSpline
 62
7
  6
BYLAYER
 70
0
 71
3
 72
11
 73
7
 74
0
 42
0.0000001
 43
0.0000001
 44
0.0000000001
 40
0.0
 40
0.0
 40
0.0
 40
0.0
 40
0.2286317406
 40
0.4984452907
 40
0.7690687819
 40
1.0
 40
1.0
 40
1.0
 40
1.0
 10
22.0649879032
 20
7.2020026931
 30
0.0
 10
22.0487941298
 20
7.2020026931
 30
0.0
 10
22.0134972024
 20
7.2002481106
 30
0.0
 10
21.9592827868
 20
7.1948047183
 30
0.0
 10
21.9052153028
 20
7.1868436924
 30
0.0
 10
21.8703378968
 20
7.1799130346
 30
0.0
 10
21.8544672499
 20
7.1759554665
 30
0.0
  0
SPLINE
  5
2F8
100
AcDbEntity
  8
0
100
AcDbSpline
 62
7
  6
BYLAYER
 70
0
 71
3
 72
12
 73
8
 74
0
 42
0.0000001
 43
0.0000001
 44
0.0000000001
 40
0.0
 40
0.0
 40
0.0
 40
0.0
 40
0.1054077584
 40
0.2141976134
 40
0.4484812058
 40
0.7124491929
 40
1.0
 40
1.0
 40
1.0
 40
1.0
 10
22.1694425391
 20
7.0780499199
 30
0.0
 10
22.1632660605
 20
7.0780499199
 30
0.0
 10
22.1506667595
 20
7.0796525823
 30
0.0
 10
22.1259184353
 20
7.0891191078
 30
0.0
 10
22.0980922415
 20
7.1129451063
 30
0.0
 10
22.0749946549
 20
7.1535114957
 30
0.0
 10
22.0670725717
 20
7.18528281
 30
0.0
 10
22.0649879031
 20
7.2020026932
 30
0.0
  0
SPLINE
  5
2F9
100
AcDbEntity
  8
0
100
AcDbSpline
 62
7
  6
BYLAYER
 70
0
 71
3
 72
11
 73
7
 74
0
 42
0.0000001
 43
0.0000001
 44
0.0000000001
 40
0.0
 40
0.0
 40
0.0
 40
0.0
 40
0.2205498225
 40
0.4787622523
 40
0.7475910843
 40
1.0
 40
1.0
 40
1.0
 40
1.0
 10
21.5162210183
 20
9.8888267821
 30
0.0
 10
21.5290842765
 20
9.8920344157
 30
0.0
 10
21.5572858452
 20
9.897870809
 30
0.0
 10
21.6016656316
 20
9.90498714
 30
0.0
 10
21.6481929531
 20
9.9105915538
 30
0.0
 10
21.6794353808
 20
9.913115001
 30
0.0
 10
21.6945860115
 20
9.9139237023
 30
0.0
  0
SPLINE
  5
2FA
100
AcDbEntity
  8
0
100
AcDbSpline
 62
7
  6
BYLAYER
 70
0
 71
3
 72
10
 73
6
 74
0
 42
0.0000001
 43
0.0000001
 44
0.0000000001
 40
0.0
 40
0.0
 40
0.0
 40
0.0
 40
0.4951470979
 40
0.7527457336
 40
1.0
 40
1.0
 40
1.0
 40
1.0
 10
21.5115584068
 20
10.2343831383
 30
0.0
 10
21.4885196391
 20
10.2228931988
 30
0.0
 10
21.4568432691
 20
10.1981890687
 30
0.0
 10
21.4240459368
 20
10.1577431823
 30
0.0
 10
21.4109141744
 20
10.134809724
 30
0.0
 10
21.4056266639
 20
10.123091533
 30
0.0
  0
SPLINE
  5
2FB
100
AcDbEntity
  8
0
100
AcDbSpline
 62
7
  6
BYLAYER
 70
0
 71
3
 72
11
 73
7
 74
0
 42
0.0000001
 43
0.0000001
 44
0.0000000001
 40
0.0
 40
0.0
 40
0.0
 40
0.0
 40
0.2268564666
 40
0.4948409434
 40
0.7655272346
 40
1.0
 40
1.0
 40
1.0
 40
1.0
 10
20.9886150595
 20
11.2999205436
 30
0.0
 10
20.9724880165
 20
11.2999205436
 30
0.0
 10
20.9373341409
 20
11.2967099671
 30
0.0
 10
20.8837917407
 20
11.286702343
 30
0.0
 10
20.8307545555
 20
11.2720780677
 30
0.0
 10
20.7970438224
 20
11.2593913193
 30
0.0
 10
20.7819817009
 20
11.2522519422
 30
0.0
  0
SPLINE
  5
2FC
100
AcDbEntity
  8
0
100
AcDbSpline
 62
7
  6
BYLAYER
 70
0
 71
3
 72
9
 73
5
 74
0
 42
0.0000001
 43
0.0000001
 44
0.0000000001
 40
0.0
 40
0.0
 40
0.0
 40
0.0
 40
0.4842540437
 40
1.0
 40
1.0
 40
1.0
 40
1.0
 10
21.4376701582
 20
10.3833832103
 30
0.0
 10
21.3590401539
 20
10.4737522746
 30
0.0
 10
21.2166062065
 20
10.6782378718
 30
0.0
 10
21.1138783249
 20
10.9047071383
 30
0.0
 10
21.0704942842
 20
11.0246824267
 30
0.0
  0
SPLINE
  5
2FD
100
AcDbEntity
  8
0
100
AcDbSpline
 62
7
  6
BYLAYER
 70
0
 71
3
 72
9
 73
5
 74
0
 42
0.0000001
 43
0.0000001
 44
0.0000000001
 40
0.0
 40
0.0
 40
0.0
 40
0.0
 40
0.4999842299
 40
1.0
 40
1.0
 40
1.0
 40
1.0
 10
20.9323306878
 20
11.7624428283
 30
0.0
 10
20.8969760021
 20
11.7624428283
 30
0.0
 10
20.8262658649
 20
11.7617819331
 30
0.0
 10
20.7555609562
 20
11.7606974937
 30
0.0
 10
20.7202148079
 20
11.7598249673
 30
0.0
  0
SPLINE
  5
2FE
100
AcDbEntity
  8
0
100
AcDbSpline
 62
7
  6
BYLAYER
 70
0
 71
3
 72
9
 73
5
 74
0
 42
0.0000001
 43
0.0000001
 44
0.0000000001
 40
0.0
 40
0.0
 40
0.0
 40
0.0
 40
0.2473973782
 40
1.0
 40
1.0
 40
1.0
 40
1.0
 10
20.9886150595
 20
11.2999205435
 30
0.0
 10
20.9797440622
 20
11.337351162
 30
0.0
 10
20.9482221609
 20
11.4896499544
 30
0.0
 10
20.9337749219
 20
11.6454306366
 30
0.0
 10
20.9323306878
 20
11.7624428283
 30
0.0
  0
SPLINE
  5
2FF
100
AcDbEntity
  8
0
100
AcDbSpline
 62
7
  6
BYLAYER
 70
0
 71
3
 72
9
 73
5
 74
0
 42
0.0000001
 43
0.0000001
 44
0.0000000001
 40
0.0
 40
0.0
 40
0.0
 40
0.0
 40
0.5000161318
 40
1.0
 40
1.0
 40
1.0
 40
1.0
 10
20.8759146223
 20
16.3332860406
 30
0.0
 10
20.8405574318
 20
16.3332997063
 30
0.0
 10
20.7698531551
 20
16.3327271097
 30
0.0
 10
20.6991293187
 20
16.3312309462
 30
0.0
 10
20.6637824746
 20
16.3319861931
 30
0.0
  0
LINE
  5
300
100
AcDbEntity
  8
0
100
AcDbLine
 62
7
  6
BYLAYER
 10
20.8651520643
 20
10.0779938802
 11
20.4636565108
 21
11.0601872567
  0
SPLINE
  5
301
100
AcDbEntity
  8
0
100
AcDbSpline
 62
7
  6
BYLAYER
 70
0
 71
3
 72
12
 73
8
 74
0
 42
0.0000001
 43
0.0000001
 44
0.0000000001
 40
0.0
 40
0.0
 40
0.0
 40
0.0
 40
0.1107585567
 40
0.2235497186
 40
0.4598863495
 40
0.7182655907
 40
1.0
 40
1.0
 40
1.0
 40
1.0
 10
21.1717944021
 20
9.8280499199
 30
0.0
 10
21.1563444142
 20
9.8280499199
 30
0.0
 10
21.12508714
 20
9.8309848609
 30
0.0
 10
21.0630519436
 20
9.8484652996
 30
0.0
 10
20.9890065856
 20
9.8930243308
 30
0.0
 10
20.9157783934
 20
9.9744463794
 30
0.0
 10
20.880023384
 20
10.0416164004
 30
0.0
 10
20.8651520643
 20
10.0779938802
 30
0.0
  0
LINE
  5
302
100
AcDbEntity
  8
0
100
AcDbLine
 62
7
  6
BYLAYER
 10
22.6689036007
 20
6.8912258311
 11
22.3003623594
 21
9.8280499199
  0
SPLINE
  5
303
100
AcDbEntity
  8
0
100
AcDbSpline
 62
7
  6
BYLAYER
 70
0
 71
3
 72
13
 73
9
 74
0
 42
0.0000001
 43
0.0000001
 44
0.0000000001
 40
0.0
 40
0.0
 40
0.0
 40
0.0
 40
0.1054791018
 40
0.2141153206
 40
0.3281177535
 40
0.4491367898
 40
0.7126322928
 40
1.0
 40
1.0
 40
1.0
 40
1.0
 10
23.0196264277
 20
6.4780499199
 30
0.0
 10
22.9989357574
 20
6.4780499199
 30
0.0
 10
22.9567706539
 20
6.4833051889
 30
0.0
 10
22.8960891068
 20
6.5063402846
 30
0.0
 10
22.8394289981
 20
6.5437905368
 30
0.0
 10
22.7696309534
 20
6.6130331945
 30
0.0
 10
22.702499577
 20
6.7291764173
 30
0.0
 10
22.6759250899
 20
6.8352950947
 30
0.0
 10
22.6689036007
 20
6.8912258311
 30
0.0
  0
SPLINE
  5
304
100
AcDbEntity
  8
0
100
AcDbSpline
 62
7
  6
BYLAYER
 70
0
 71
3
 72
13
 73
9
 74
0
 42
0.0000001
 43
0.0000001
 44
0.0000000001
 40
0.0
 40
0.0
 40
0.0
 40
0.0
 40
0.2874238404
 40
0.550822825
 40
0.6717962287
 40
0.7857912375
 40
0.8944632537
 40
1.0
 40
1.0
 40
1.0
 40
1.0
 10
31.757902476
 20
9.4148740087
 30
0.0
 10
31.7649747692
 20
9.4709038539
 30
0.0
 10
31.7917609803
 20
9.5771689994
 30
0.0
 10
31.8593298021
 20
9.6933051642
 30
0.0
 10
31.9294193319
 20
9.7624406281
 30
0.0
 10
31.9862562353
 20
9.799815636
 30
0.0
 10
32.0470846371
 20
9.822801691
 30
0.0
 10
32.0893364951
 20
9.8280499199
 30
0.0
 10
32.1100728656
 20
9.8280499199
 30
0.0
  0
SPLINE
  5
305
100
AcDbEntity
  8
0
100
AcDbSpline
 62
7
  6
BYLAYER
 70
0
 71
3
 72
13
 73
9
 74
0
 42
0.0000001
 43
0.0000001
 44
0.0000000001
 40
0.0
 40
0.0
 40
0.0
 40
0.0
 40
0.1055355674
 40
0.2142057674
 40
0.3282017964
 40
0.4491780532
 40
0.7125807919
 40
1.0
 40
1.0
 40
1.0
 40
1.0
 10
23.8545976754
 20
9.8280499199
 30
0.0
 10
23.8753339869
 20
9.8280499199
 30
0.0
 10
23.9175857306
 20
9.8228032379
 30
0.0
 10
23.9784146594
 20
9.7998179213
 30
0.0
 10
24.0352530999
 20
9.7624434818
 30
0.0
 10
24.1053446045
 20
9.6933066041
 30
0.0
 10
24.1729146041
 20
9.5771693286
 30
0.0
 10
24.1997008323
 20
9.4709034174
 30
0.0
 10
24.2067730705
 20
9.4148740087
 30
0.0
  0
SPLINE
  5
306
100
AcDbEntity
  8
0
100
AcDbSpline
 62
7
  6
BYLAYER
 70
0
 71
3
 72
13
 73
9
 74
0
 42
0.0000001
 43
0.0000001
 44
0.0000000001
 40
0.0
 40
0.0
 40
0.0
 40
0.0
 40
0.2873719025
 40
0.5508652922
 40
0.6718822544
 40
0.7858834551
 40
0.8945201858
 40
1.0
 40
1.0
 40
1.0
 40
1.0
 10
33.2957719457
 20
6.8912258311
 30
0.0
 10
33.2887503538
 20
6.8352942758
 30
0.0
 10
33.2621755709
 20
6.7291752179
 30
0.0
 10
33.195043918
 20
6.6130321015
 30
0.0
 10
33.1252463345
 20
6.543790561
 30
0.0
 10
33.0685868765
 20
6.5063402878
 30
0.0
 10
33.0079051941
 20
6.4833055706
 30
0.0
 10
32.9657399091
 20
6.4780499199
 30
0.0
 10
32.9450490982
 20
6.4780499199
 30
0.0
  0
LINE
  5
307
100
AcDbEntity
  8
0
100
AcDbLine
 62
7
  6
BYLAYER
 10
33.6643131871
 20
9.8280499199
 11
33.2957719457
 21
6.8912258311
  0
LINE
  5
308
100
AcDbEntity
  8
0
100
AcDbLine
 62
7
  6
BYLAYER
 10
24.2067730705
 20
9.4148740087
 11
24.5256130477
 21
6.8912258311
  0
LINE
  5
309
100
AcDbEntity
  8
0
100
AcDbLine
 62
7
  6
BYLAYER
 10
31.4390624988
 20
6.8912258311
 11
31.757902476
 21
9.4148740087
  0
SPLINE
  5
30A
100
AcDbEntity
  8
0
100
AcDbSpline
 62
7
  6
BYLAYER
 70
0
 71
3
 72
13
 73
9
 74
0
 42
0.0000001
 43
0.0000001
 44
0.0000000001
 40
0.0
 40
0.0
 40
0.0
 40
0.0
 40
0.2875188949
 40
0.5508579462
 40
0.6717723786
 40
0.7857283204
 40
0.8944098755
 40
1.0
 40
1.0
 40
1.0
 40
1.0
 10
24.5256130477
 20
6.8912258311
 30
0.0
 10
24.5327149656
 20
6.8350695785
 30
0.0
 10
24.5596364151
 20
6.7285957527
 30
0.0
 10
24.6275995149
 20
6.6123659752
 30
0.0
 10
24.6980295788
 20
6.5433425798
 30
0.0
 10
24.7550929722
 20
6.5061034018
 30
0.0
 10
24.8161083273
 20
6.4832532416
 30
0.0
 10
24.8584533686
 20
6.4780499199
 30
0.0
 10
24.8792407883
 20
6.4780499199
 30
0.0
  0
SPLINE
  5
30B
100
AcDbEntity
  8
0
100
AcDbSpline
 62
7
  6
BYLAYER
 70
0
 71
3
 72
13
 73
9
 74
0
 42
0.0000001
 43
0.0000001
 44
0.0000000001
 40
0.0
 40
0.0
 40
0.0
 40
0.0
 40
0.1055883011
 40
0.2142679361
 40
0.328225538
 40
0.4491441487
 40
0.7124887475
 40
1.0
 40
1.0
 40
1.0
 40
1.0
 10
31.0854366406
 20
6.4780499199
 30
0.0
 10
31.1062236365
 20
6.4780499199
 30
0.0
 10
31.148567936
 20
6.4832526316
 30
0.0
 10
31.2095822384
 20
6.5061038186
 30
0.0
 10
31.2666464926
 20
6.5433426009
 30
0.0
 10
31.3370773293
 20
6.612368141
 30
0.0
 10
31.4050399826
 20
6.7285980823
 30
0.0
 10
31.4319607918
 20
6.8350712465
 30
0.0
 10
31.4390624988
 20
6.8912258311
 30
0.0
  0
ENDSEC
  0
SECTION
  2
OBJECTS
  0
DICTIONARY
  5
C
100
AcDbDictionary
280
0
281
1
  3
ACAD_GROUP
350
D
  3
ACAD_MLINESTYLE
350
17
  3
ACAD_LAYOUT
350
1A
  3
ACAD_PLOTSETTINGS
350
19
  3
ACAD_PLOTSTYLENAME
350
E
  0
DICTIONARY
  5
D
102
{ACAD_REACTORS
330
C
102
}
100
AcDbDictionary
280
0
281
1
  0
ACDBDICTIONARYWDFLT
  5
E
102
{ACAD_REACTORS
330
C
102
}
100
AcDbDictionary
281
1
  3
Normal
350
F
100
AcDbDictionaryWithDefault
340
F
  0
DICTIONARY
  5
17
102
{ACAD_REACTORS
330
C
102
}
100
AcDbDictionary
280
0
281
1
  3
Standard
350
18
  0
DICTIONARY
  5
19
102
{ACAD_REACTORS
330
C
102
}
100
AcDbDictionary
281
1
  0
DICTIONARY
  5
1A
102
{ACAD_REACTORS
330
C
102
}
100
AcDbDictionary
281
1
  3
Model
350
30C
  3
Layout1
350
30D
  0
ACDBPLACEHOLDER
  5
F
102
{ACAD_REACTORS
330
E
102
}
  0
MLINESTYLE
  5
18
102
{ACAD_REACTORS
330
17
102
}
100
AcDbMlineStyle
  2
STANDARD
 70
0
  3

 62
256
 51
90.0
 52
90.0
 71
2
 49
0.5
 62
256
  6
BYLAYER
 49
-0.5
 62
256
  6
BYLAYER
  0
LAYOUT
  5
30C
102
{ACAD_REACTORS
330
1A
102
}
100
AcDbPlotSettings
  1

  2
none_device
  4

  6

 40
0.0
 41
0.0
 42
0.0
 43
0.0
 44
210.0
 45
297.0
 46
0.0
 47
0.0
 48
0.0
 49
0.0
140
0.0
141
0.0
142
1.0
143
1.0
 70
1024
 72
1
 73
0
 74
0
  7

 75
0
147
1.0
148
0.0
149
0.0
100
AcDbLayout
  1
Model
 70
0
 71
0
 10
0.0
 20
0.0
 11
210.0
 21
297.0
 12
0.0
 22
0.0
 32
0.0
 14
0.0
 24
0.0
 34
0.0
 15
0.0
 25
0.0
 35
0.0
146
0.0
 13
0.0
 23
0.0
 33
0.0
 16
1.0
 26
0.0
 36
0.0
 17
0.0
 27
1.0
 37
0.0
 76
0
330
210
345
0
346
0
  0
LAYOUT
  5
30D
102
{ACAD_REACTORS
330
1A
102
}
100
AcDbPlotSettings
  1

  2
none_device
  4

  6

 40
0.0
 41
0.0
 42
0.0
 43
0.0
 44
210.0
 45
297.0
 46
0.0
 47
0.0
 48
0.0
 49
0.0
140
0.0
141
0.0
142
1.0
143
1.0
 70
0
 72
1
 73
0
 74
0
  7

 75
0
147
1.0
148
0.0
149
0.0
100
AcDbLayout
  1
Layout1
 70
0
 71
1
 10
0.0
 20
0.0
 11
210.0
 21
297.0
 12
0.0
 22
0.0
 32
0.0
 14
0.0
 24
0.0
 34
0.0
 15
0.0
 25
0.0
 35
0.0
146
0.0
 13
0.0
 23
0.0
 33
0.0
 16
1.0
 26
0.0
 36
0.0
 17
0.0
 27
1.0
 37
0.0
 76
0
330
211
345
0
346
0
  0
ENDSEC
  0
EOF
