999
DXF file: C:\Users\sesa63760\Dev\_Creo\CAD\MCADID0004736_3D-CAD\drw0001_1.dxf
999
Pro/ENGINEER 2019471 by Parametric Technology Corporation
  0
SECTION
  2
HEADER
  9
$ACADVER
  1
AC1024
  9
$DWGCODEPAGE
  3
ANSI_1252
  9
$EXTMAX
 10
32.1555715602
 20
45.4771654923
 30
0.0
  9
$EXTMIN
 10
0.0
 20
0.0
 30
0.0
  9
$LIMMIN
 10
0.0
 20
0.0
  9
$LIMMAX
 10
32.1555715602
 20
45.4771654923
  9
$VIEWCTR
 10
16.0777857801
 20
22.7385827461
  9
$VIEWSIZE
 40
45.4771654923
  9
$CLAYER
  8
0
  9
$LTSCALE
 40
2.9644374543
  9
$CELTYPE
  6
BYLAYER
  9
$DIMSCALE
 40
1.0
  9
$DIMASZ
 40
0.3828044233
  9
$DIMEXO
 40
1.0
  9
$DIMDLI
 40
2.0481567866
  9
$DIMEXE
 40
1.0
  9
$DIMCEN
 40
0.4850897653
  9
$DIMLFAC
 40
1.0
  9
$DIMBLK
  1
_FILLED
  9
$DIMALT
 70
0
  9
$DIMALTF
 40
0.0393700787
  9
$DIMTXT
 40
0.5359261927
  9
$DIMTOL
 70
1
  9
$DIMLIM
 70
0
  9
$DIMTFAC
 40
1.0
  9
$DIMTP
 40
0.01
  9
$DIMTM
 40
0.01
  9
$DIMGAP
 40
0.625
  9
$DIMDSEP
 70
46
  9
$AUNITS
 70
0
  9
$PDMODE
 70
3
  9
$PDSIZE
 40
0.3125
  9
$HANDSEED
  5
288
  9
$TILEMODE
 70
1
  9
$MEASUREMENT
 70
1
  9
$INSUNITS
 70
4
  0
ENDSEC
  0
SECTION
  2
CLASSES
  0
CLASS
  1
ACDBDICTIONARYWDFLT
  2
AcDbDictionaryWithDefault
  3
AutoCAD 2000
 90
0
 91
1
280
0
281
0
  0
CLASS
  1
ACDBPLACEHOLDER
  2
AcDbPlaceHolder
  3
AutoCAD 2000
 90
0
 91
1
280
0
281
0
  0
CLASS
  1
LAYOUT
  2
AcDbLayout
  3
AutoCAD 2000
 90
0
 91
0
280
0
281
0
  0
ENDSEC
  0
SECTION
  2
TABLES
  0
TABLE
  2
VPORT
  5
8
100
AcDbSymbolTable
 70
2
  0
VPORT
  5
1F4
100
AcDbSymbolTableRecord
100
AcDbViewportTableRecord
  2
*ACTIVE
 70
0
 10
0.0
 20
0.0
 11
1.0
 21
1.0
 12
16.0777857801
 22
22.7385827461
 13
0.0
 23
0.0
 14
1.0
 24
1.0
 15
0.0
 25
0.0
 16
0.0
 26
0.0
 36
1.0
 17
0.0
 27
0.0
 37
0.0
 40
45.4771654923
 41
0.7070707071
 42
50.0
 43
0.0
 44
0.0
 50
0.0
 51
0.0
 71
0
 72
100
 73
1
 74
1
 75
0
 76
0
 77
0
 78
0
  0
ENDTAB
  0
TABLE
  2
LTYPE
  5
5
100
AcDbSymbolTable
 70
6
  0
LTYPE
  5
14
100
AcDbSymbolTableRecord
100
AcDbLinetypeTableRecord
  2
BYBLOCK
 70
0
  3

 72
65
 73
0
 40
0.0
  0
LTYPE
  5
15
100
AcDbSymbolTableRecord
100
AcDbLinetypeTableRecord
  2
BYLAYER
 70
0
  3

 72
65
 73
0
 40
0.0
  0
LTYPE
  5
16
100
AcDbSymbolTableRecord
100
AcDbLinetypeTableRecord
  2
CONTINUOUS
 70
64
  3
Solid line
 72
65
 73
0
 40
0.0
  0
LTYPE
  5
1F5
100
AcDbSymbolTableRecord
100
AcDbLinetypeTableRecord
  2
CENTER
 70
64
  3
____ _ ____ _ ____ _ ____ _ ____ _ ____ _ ____
 72
65
 73
4
 40
0.6
 49
0.375
 74
0
 49
-0.075
 74
0
 49
0.075
 74
0
 49
-0.075
 74
0
  0
LTYPE
  5
1F6
100
AcDbSymbolTableRecord
100
AcDbLinetypeTableRecord
  2
HIDDEN
 70
64
  3
- - - - - - - - - - - - - - - - - - - -
 72
65
 73
2
 40
0.2
 49
0.1
 74
0
 49
-0.1
 74
0
  0
LTYPE
  5
1F7
100
AcDbSymbolTableRecord
100
AcDbLinetypeTableRecord
  2
PHANTOM
 70
64
  3
_____ _ _ _____ _ _ _____ _ _ _____
 72
65
 73
6
 40
0.8
 49
0.45
 74
0
 49
-0.05
 74
0
 49
0.1
 74
0
 49
-0.05
 74
0
 49
0.1
 74
0
 49
-0.05
 74
0
  0
LTYPE
  5
1F8
100
AcDbSymbolTableRecord
100
AcDbLinetypeTableRecord
  2
DOT
 70
64
  3
. . . . . . . . . . . . . . . . . . . .
 72
65
 73
2
 40
0.2
 49
0.1
 74
0
 49
-0.1
 74
0
  0
LTYPE
  5
1F9
100
AcDbSymbolTableRecord
100
AcDbLinetypeTableRecord
  2
DASHED
 70
64
  3
- - - - - - - - - - - - - - - - - - - -
 72
65
 73
2
 40
0.2
 49
0.1
 74
0
 49
-0.1
 74
0
  0
ENDTAB
  0
TABLE
  2
LAYER
  5
2
100
AcDbSymbolTable
 70
36
  0
LAYER
  5
10
100
AcDbSymbolTableRecord
100
AcDbLayerTableRecord
  2
0
 70
0
 62
7
  6
CONTINUOUS
370
-3
390
F
  0
LAYER
  5
1FA
100
AcDbSymbolTableRecord
100
AcDbLayerTableRecord
  2
DEFAULT_1
 70
0
 62
7
  6
CENTER
370
-3
390
F
  0
LAYER
  5
1FB
100
AcDbSymbolTableRecord
100
AcDbLayerTableRecord
  2
DEFAULT_2
 70
0
 62
7
  6
HIDDEN
370
-3
390
F
  0
LAYER
  5
1FC
100
AcDbSymbolTableRecord
100
AcDbLayerTableRecord
  2
DEFAULT_3
 70
0
 62
7
  6
PHANTOM
370
-3
390
F
  0
LAYER
  5
1FD
100
AcDbSymbolTableRecord
100
AcDbLayerTableRecord
  2
00_COMPONENTS
 70
0
 62
7
  6
CONTINUOUS
370
-3
390
F
  0
LAYER
  5
1FE
100
AcDbSymbolTableRecord
100
AcDbLayerTableRecord
  2
01_1_DEFAULT_DATUMS
 70
0
 62
7
  6
CONTINUOUS
370
-3
390
F
  0
LAYER
  5
1FF
100
AcDbSymbolTableRecord
100
AcDbLayerTableRecord
  2
01_PLANES
 70
0
 62
7
  6
CONTINUOUS
370
-3
390
F
  0
LAYER
  5
200
100
AcDbSymbolTableRecord
100
AcDbLayerTableRecord
  2
02_COORD_SYS
 70
0
 62
7
  6
CONTINUOUS
370
-3
390
F
  0
LAYER
  5
201
100
AcDbSymbolTableRecord
100
AcDbLayerTableRecord
  2
03_AXES
 70
0
 62
7
  6
CONTINUOUS
370
-3
390
F
  0
LAYER
  5
202
100
AcDbSymbolTableRecord
100
AcDbLayerTableRecord
  2
04_POINTS
 70
0
 62
7
  6
CONTINUOUS
370
-3
390
F
  0
LAYER
  5
203
100
AcDbSymbolTableRecord
100
AcDbLayerTableRecord
  2
05_CURVES
 70
0
 62
7
  6
CONTINUOUS
370
-3
390
F
  0
LAYER
  5
204
100
AcDbSymbolTableRecord
100
AcDbLayerTableRecord
  2
06_SURFS
 70
0
 62
7
  6
CONTINUOUS
370
-3
390
F
  0
LAYER
  5
205
100
AcDbSymbolTableRecord
100
AcDbLayerTableRecord
  2
07_COSMETICS
 70
0
 62
7
  6
CONTINUOUS
370
-3
390
F
  0
LAYER
  5
206
100
AcDbSymbolTableRecord
100
AcDbLayerTableRecord
  2
10_NOTES
 70
0
 62
7
  6
CONTINUOUS
370
-3
390
F
  0
LAYER
  5
207
100
AcDbSymbolTableRecord
100
AcDbLayerTableRecord
  2
11_NOTES_PUB
 70
0
 62
7
  6
CONTINUOUS
370
-3
390
F
  0
LAYER
  5
208
100
AcDbSymbolTableRecord
100
AcDbLayerTableRecord
  2
13_REF_GTOL
 70
0
 62
7
  6
CONTINUOUS
370
-3
390
F
  0
LAYER
  5
209
100
AcDbSymbolTableRecord
100
AcDbLayerTableRecord
  2
16_MISC
 70
0
 62
7
  6
CONTINUOUS
370
-3
390
F
  0
LAYER
  5
20A
100
AcDbSymbolTableRecord
100
AcDbLayerTableRecord
  2
17_NO_PRINT
 70
0
 62
7
  6
CONTINUOUS
370
-3
390
F
  0
LAYER
  5
20B
100
AcDbSymbolTableRecord
100
AcDbLayerTableRecord
  2
18_DATUM_CAMS_JOINTS
 70
0
 62
7
  6
CONTINUOUS
370
-3
390
F
  0
LAYER
  5
20C
100
AcDbSymbolTableRecord
100
AcDbLayerTableRecord
  2
19_DATUM_FUNCTIONAL
 70
0
 62
7
  6
CONTINUOUS
370
-3
390
F
  0
LAYER
  5
20D
100
AcDbSymbolTableRecord
100
AcDbLayerTableRecord
  2
20_DATUM_KINEMATIC_SCHEME
 70
0
 62
7
  6
CONTINUOUS
370
-3
390
F
  0
ENDTAB
  0
TABLE
  2
STYLE
  5
3
100
AcDbSymbolTable
 70
1
  0
STYLE
  5
11
100
AcDbSymbolTableRecord
100
AcDbTextStyleTableRecord
  2
STANDARD
 70
0
 40
0.0
 41
1.0
 50
0.0
 71
0
 42
0.2
  3
ARIAL.TTF
  4

  0
STYLE
  5
20E
100
AcDbSymbolTableRecord
100
AcDbTextStyleTableRecord
  2
TEXTSTYLE_1
 70
0
 40
0.0
 41
0.8
 50
0.0
 71
0
 42
0.2
  3
gdt
  4

  0
ENDTAB
  0
TABLE
  2
VIEW
  5
6
100
AcDbSymbolTable
 70
0
  0
ENDTAB
  0
TABLE
  2
UCS
  5
7
100
AcDbSymbolTable
 70
0
  0
ENDTAB
  0
TABLE
  2
APPID
  5
9
100
AcDbSymbolTable
 70
1
  0
APPID
  5
20F
100
AcDbSymbolTableRecord
100
AcDbRegAppTableRecord
  2
ACAD
 70
0
  0
ENDTAB
  0
TABLE
  2
BLOCK_RECORD
  5
1
100
AcDbSymbolTable
 70
0
  0
BLOCK_RECORD
  5
210
100
AcDbSymbolTableRecord
100
AcDbBlockTableRecord
  2
*Model_Space
  0
BLOCK_RECORD
  5
211
100
AcDbSymbolTableRecord
100
AcDbBlockTableRecord
  2
*Paper_Space
  0
BLOCK_RECORD
  5
212
100
AcDbSymbolTableRecord
100
AcDbBlockTableRecord
  2
_FILLED
  0
ENDTAB
  0
TABLE
  2
DIMSTYLE
  5
A
100
AcDbSymbolTable
 70
1
100
AcDbDimStyleTable
 71
0
  0
DIMSTYLE
105
213
100
AcDbSymbolTableRecord
100
AcDbDimStyleTableRecord
  2
STANDARD
 70
0
  3

  4

 40
1.0
 41
0.3828044233
 42
1.0
 43
0.38
 44
1.0
 45
0.0
 46
0.0
 47
0.01
 48
0.01
140
0.5359261927
141
0.09
142
0.0
143
25.4
144
1.0
145
0.0
146
1.0
147
0.625
 71
1
 72
0
 73
0
 74
0
 75
0
 76
0
 77
1
 78
8
 79
2
170
0
171
1
172
0
173
0
174
0
175
0
176
0
177
0
178
0
270
2
179
2
271
2
272
2
273
2
274
2
275
0
280
0
281
0
282
0
283
1
284
8
285
0
286
0
287
3
288
0
340
11
278
46
341
212
342
212
343
212
344
212
  0
ENDTAB
  0
ENDSEC
  0
SECTION
  2
BLOCKS
  0
BLOCK
  5
20
100
AcDbEntity
  8
0
100
AcDbBlockBegin
  2
*Model_Space
 70
0
 10
0.0
 20
0.0
 30
0.0
  3
*Model_Space
  1

  0
ENDBLK
  5
21
100
AcDbEntity
  8
0
100
AcDbBlockEnd
  0
BLOCK
  5
1C
100
AcDbEntity
  8
0
100
AcDbBlockBegin
  2
*Paper_Space
 70
0
 10
0.0
 20
0.0
 30
0.0
  3
*Paper_Space
  1

  0
ENDBLK
  5
1D
100
AcDbEntity
  8
0
100
AcDbBlockEnd
  0
BLOCK
  5
214
100
AcDbEntity
  8
0
100
AcDbBlockBegin
  2
_FILLED
 70
64
 10
0.0
 20
0.0
  3
_FILLED
  1

  0
SOLID
  5
215
100
AcDbEntity
  8
0
  6
BYBLOCK
 62
0
100
AcDbTrace
 10
0.0
 20
0.0
 11
-1.0
 21
0.25
 12
-1.0
 22
-0.25
 13
-1.0
 23
-0.25
  0
ENDBLK
  5
216
100
AcDbEntity
  8
0
  6
BYBLOCK
 62
0
100
AcDbBlockEnd
  0
ENDSEC
  0
SECTION
  2
ENTITIES
  0
LINE
  5
217
100
AcDbEntity
  8
0
100
AcDbLine
 62
7
  6
BYLAYER
 10
5.484048378
 20
7.8602706664
 11
3.7304162596
 21
8.8727077377
  0
LINE
  5
218
100
AcDbEntity
  8
0
100
AcDbLine
 62
7
  6
BYLAYER
 10
14.7060269176
 20
9.5969802588
 11
14.3592569954
 21
9.6132719754
  0
LINE
  5
219
100
AcDbEntity
  8
0
100
AcDbLine
 62
7
  6
BYLAYER
 10
11.0581841464
 20
10.7215257131
 11
11.6005604842
 21
10.4083916725
  0
LINE
  5
21A
100
AcDbEntity
  8
0
100
AcDbLine
 62
7
  6
BYLAYER
 10
3.7304162596
 20
18.1236397694
 11
3.7304162596
 21
8.8727077377
  0
LWPOLYLINE
  5
21B
100
AcDbEntity
  8
0
100
AcDbPolyline
 62
7
  6
BYLAYER
 90
5
 70
0
 10
9.1378200968
 20
13.251596649
 10
8.7300260078
 20
13.4241284524
 10
7.5990924578
 20
14.8024379331
 10
7.0087641254
 20
16.7806258991
 10
7.008296293
 20
19.1983331673
  0
LINE
  5
21C
100
AcDbEntity
  8
0
100
AcDbLine
 62
7
  6
BYLAYER
 10
14.0629803881
 20
9.9682349468
 11
16.0086791764
 21
8.8449106406
  0
LINE
  5
21D
100
AcDbEntity
  8
0
100
AcDbLine
 62
7
  6
BYLAYER
 10
4.7910808473
 20
18.7360322633
 11
4.7910808473
 21
26.9502418538
  0
LINE
  5
21E
100
AcDbEntity
  8
0
100
AcDbLine
 62
7
  6
BYLAYER
 10
5.484048378
 20
26.5501659144
 11
5.484048378
 21
7.8602706664
  0
LINE
  5
21F
100
AcDbEntity
  8
0
100
AcDbLine
 62
7
  6
BYLAYER
 10
16.069378219
 20
35.4537804686
 11
15.3976295736
 21
35.0659485224
  0
LWPOLYLINE
  5
220
100
AcDbEntity
  8
0
100
AcDbPolyline
 62
7
  6
BYLAYER
 90
9
 70
0
 10
8.7670606266
 20
14.548199125
 10
8.4083550976
 20
14.9856127574
 10
7.8526728972
 20
16.8500635418
 10
7.8526728972
 20
19.1275915669
 10
8.4083550976
 20
21.6336850571
 10
9.4747014312
 20
24.1653152221
 10
10.9653228599
 20
26.5173844423
 10
12.7594581007
 20
28.4993420575
 10
14.7117569864
 20
29.9506216491
  0
LINE
  5
221
100
AcDbEntity
  8
0
100
AcDbLine
 62
7
  6
BYLAYER
 10
10.0590044346
 20
30.7589777981
 11
10.7307530799
 21
31.1468097443
  0
LINE
  5
222
100
AcDbEntity
  8
0
100
AcDbLine
 62
7
  6
BYLAYER
 10
10.7519719652
 20
30.3589018587
 11
11.4237206106
 21
30.7467338048
  0
LINE
  5
223
100
AcDbEntity
  8
0
100
AcDbLine
 62
7
  6
BYLAYER
 10
17.151261692
 20
34.0535114512
 11
17.8230103374
 21
34.4413433974
  0
LINE
  5
224
100
AcDbEntity
  8
0
100
AcDbLine
 62
7
  6
BYLAYER
 10
13.7925773446
 20
13.7432224223
 11
12.4137133805
 21
14.5392918936
  0
LWPOLYLINE
  5
225
100
AcDbEntity
  8
0
100
AcDbPolyline
 62
7
  6
BYLAYER
 90
6
 70
0
 10
7.008296293
 20
19.1983331673
 10
7.5972501681
 20
21.8564734145
 10
8.726159498
 20
24.5389978845
 10
10.3051503243
 20
27.0334041481
 10
12.2095402707
 20
29.1397185212
 10
14.2874911513
 20
30.685467552
  0
LINE
  5
226
100
AcDbEntity
  8
0
100
AcDbLine
 62
7
  6
BYLAYER
 10
16.7411380514
 20
32.9838872214
 11
11.4237206106
 21
29.9138931559
  0
LINE
  5
227
100
AcDbEntity
  8
0
100
AcDbLine
 62
7
  6
BYLAYER
 10
17.151261692
 20
32.7471075838
 11
11.4237206106
 21
29.4403299374
  0
LWPOLYLINE
  5
228
100
AcDbEntity
  8
0
100
AcDbPolyline
 62
7
  6
BYLAYER
 90
4
 70
0
 10
14.2874911513
 20
30.685467552
 10
16.3606361276
 20
31.5379732782
 10
18.2627681339
 20
31.6329573892
 10
19.4318061106
 20
31.1383542655
  0
LWPOLYLINE
  5
229
100
AcDbEntity
  8
0
100
AcDbPolyline
 62
7
  6
BYLAYER
 90
3
 70
0
 10
16.8330861618
 20
30.1547786155
 10
17.9920029802
 20
30.7284451954
 10
20.2164926119
 20
31.2608533959
  0
LWPOLYLINE
  5
22A
100
AcDbEntity
  8
0
100
AcDbPolyline
 62
7
  6
BYLAYER
 90
4
 70
0
 10
18.2183947054
 20
29.2321915393
 10
20.4696010726
 20
30.1428972737
 10
22.535226585
 20
30.2311592718
 10
22.8274628468
 20
30.1047181646
  0
LINE
  5
22B
100
AcDbEntity
  8
0
100
AcDbLine
 62
7
  6
BYLAYER
 10
11.4237206106
 20
29.4403299374
 11
11.4237206106
 21
30.7467338048
  0
LINE
  5
22C
100
AcDbEntity
  8
0
100
AcDbLine
 62
7
  6
BYLAYER
 10
12.4137133805
 20
14.5392918936
 11
12.4510497012
 21
19.5010805567
  0
LINE
  5
22D
100
AcDbEntity
  8
0
100
AcDbLine
 62
7
  6
BYLAYER
 10
20.3751959994
 20
28.6889096914
 11
19.1480017304
 21
28.1837191905
  0
LINE
  5
22E
100
AcDbEntity
  8
0
100
AcDbLine
 62
7
  6
BYLAYER
 10
12.5953866929
 20
19.8069787557
 11
13.8328298576
 21
19.0925567738
  0
LINE
  5
22F
100
AcDbEntity
  8
0
100
AcDbLine
 62
7
  6
BYLAYER
 10
13.8328298576
 20
19.0925567738
 11
13.7925773446
 21
13.7432224223
  0
LINE
  5
230
100
AcDbEntity
  8
0
100
AcDbLine
 62
7
  6
BYLAYER
 10
19.0998041337
 20
28.1557163906
 11
17.9265246512
 21
27.2751770682
  0
LINE
  5
231
100
AcDbEntity
  8
0
100
AcDbLine
 62
7
  6
BYLAYER
 10
23.6424950952
 20
30.5752744438
 11
16.4868891416
 21
26.4440052587
  0
LINE
  5
232
100
AcDbEntity
  8
0
100
AcDbLine
 62
7
  6
BYLAYER
 10
14.8015363423
 20
14.3189731026
 11
14.7996217192
 21
14.3275540298
  0
LINE
  5
233
100
AcDbEntity
  8
0
100
AcDbLine
 62
7
  6
BYLAYER
 10
14.8002635802
 20
14.3181260803
 11
14.7996217192
 21
14.3275540298
  0
LWPOLYLINE
  5
234
100
AcDbEntity
  8
0
100
AcDbPolyline
 62
7
  6
BYLAYER
 90
7
 70
0
 10
13.3681858279
 20
21.7802546131
 10
12.20619521
 20
19.00161626
 10
11.6043407784
 20
16.2541302018
 10
11.6111863248
 20
13.7594918082
 10
12.2261794805
 20
11.7189941045
 10
13.3996962864
 20
10.2972853849
 10
14.0809345694
 20
10.0109510035
  0
LINE
  5
235
100
AcDbEntity
  8
0
100
AcDbLine
 62
7
  6
BYLAYER
 10
13.440585524
 20
21.8952136466
 11
13.3681858279
 21
21.7802546131
  0
LINE
  5
236
100
AcDbEntity
  8
0
100
AcDbLine
 62
7
  6
BYLAYER
 10
4.7910900116
 20
18.7360163902
 11
3.7304162596
 21
18.1236397694
  0
LINE
  5
237
100
AcDbEntity
  8
0
100
AcDbLine
 62
7
  6
BYLAYER
 10
24.8799371142
 20
29.8608531234
 11
17.8372396913
 21
25.7947741417
  0
LINE
  5
238
100
AcDbEntity
  8
0
100
AcDbLine
 62
7
  6
BYLAYER
 10
4.7910808473
 20
26.9502418538
 11
5.484048378
 21
26.5501659144
  0
LINE
  5
239
100
AcDbEntity
  8
0
100
AcDbLine
 62
7
  6
BYLAYER
 10
15.3976295736
 20
35.0659485224
 11
15.3976295736
 21
32.2082168702
  0
LWPOLYLINE
  5
23A
100
AcDbEntity
  8
0
100
AcDbPolyline
 62
7
  6
BYLAYER
 90
4
 70
0
 10
21.1291776442
 20
25.5323815905
 10
22.701821835
 20
26.1666317473
 10
24.344485032
 20
26.2015647236
 10
25.223893699
 20
25.8679534687
  0
LINE
  5
23B
100
AcDbEntity
  8
0
100
AcDbLine
 62
7
  6
BYLAYER
 10
17.151261692
 20
34.0535114512
 11
17.151261692
 21
32.7471075838
  0
LINE
  5
23C
100
AcDbEntity
  8
0
100
AcDbLine
 62
7
  6
BYLAYER
 10
16.5175228214
 20
24.2435541298
 11
15.2800808024
 21
24.9579754502
  0
LWPOLYLINE
  5
23D
100
AcDbEntity
  8
0
100
AcDbPolyline
 62
7
  6
BYLAYER
 90
5
 70
0
 10
15.2284599057
 20
17.3064789005
 10
16.57889785
 20
18.8068751816
 10
17.8996975956
 20
20.9113465997
 10
18.4212386106
 20
22.0336800605
 10
18.9480958623
 20
23.7139064961
  0
LINE
  5
23E
100
AcDbEntity
  8
0
100
AcDbLine
 62
7
  6
BYLAYER
 10
17.8372396913
 20
25.7947741417
 11
16.5997976723
 21
26.5091954621
  0
LINE
  5
23F
100
AcDbEntity
  8
0
100
AcDbLine
 62
7
  6
BYLAYER
 10
10.7519719652
 20
30.3589018587
 11
10.0590044346
 21
30.7589777981
  0
LINE
  5
240
100
AcDbEntity
  8
0
100
AcDbLine
 62
7
  6
BYLAYER
 10
20.5241323934
 20
36.6886226619
 11
20.5241323934
 21
37.4795124687
  0
LINE
  5
241
100
AcDbEntity
  8
0
100
AcDbLine
 62
7
  6
BYLAYER
 10
11.4237206106
 20
30.7467338048
 11
10.7307530799
 21
31.1468097443
  0
LINE
  5
242
100
AcDbEntity
  8
0
100
AcDbLine
 62
7
  6
BYLAYER
 10
23.0909339246
 20
30.4480031327
 11
23.0909339246
 21
36.7154453458
  0
LINE
  5
243
100
AcDbEntity
  8
0
100
AcDbLine
 62
7
  6
BYLAYER
 10
5.484048378
 20
7.8602706664
 11
11.1127292608
 21
10.690034789
  0
LWPOLYLINE
  5
244
100
AcDbEntity
  8
0
100
AcDbPolyline
 62
7
  6
BYLAYER
 90
3
 70
0
 10
20.2164926119
 20
31.2608533959
 10
22.1684685447
 20
30.9445935287
 10
22.6079881772
 20
30.7268256821
  0
LINE
  5
245
100
AcDbEntity
  8
0
100
AcDbLine
 62
7
  6
BYLAYER
 10
16.7411380514
 20
32.9838872214
 11
17.151261692
 21
32.7471075838
  0
LINE
  5
246
100
AcDbEntity
  8
0
100
AcDbLine
 62
7
  6
BYLAYER
 10
27.3084564112
 20
29.3969446043
 11
26.1996539842
 21
29.8335017955
  0
LINE
  5
247
100
AcDbEntity
  8
0
100
AcDbLine
 62
7
  6
BYLAYER
 10
24.9622119652
 20
30.5479231159
 11
26.0710454299
 21
30.1114196797
  0
LINE
  5
248
100
AcDbEntity
  8
0
100
AcDbLine
 62
7
  6
BYLAYER
 10
22.6079881772
 20
30.7268256821
 11
23.1503645151
 21
30.4136916415
  0
LINE
  5
249
100
AcDbEntity
  8
0
100
AcDbLine
 62
7
  6
BYLAYER
 10
15.3976295736
 20
35.0659485224
 11
17.151261692
 21
34.0535114512
  0
LINE
  5
24A
100
AcDbEntity
  8
0
100
AcDbLine
 62
7
  6
BYLAYER
 10
23.6424950952
 20
30.5752744438
 11
24.8799371142
 21
29.8608531234
  0
LINE
  5
24B
100
AcDbEntity
  8
0
100
AcDbLine
 62
7
  6
BYLAYER
 10
16.069378219
 20
35.4537804686
 11
17.8230103374
 21
34.4413433974
  0
LINE
  5
24C
100
AcDbEntity
  8
0
100
AcDbLine
 62
7
  6
BYLAYER
 10
24.9622119652
 20
30.5479231159
 11
26.1996539842
 21
29.8335017955
  0
LINE
  5
24D
100
AcDbEntity
  8
0
100
AcDbLine
 62
7
  6
BYLAYER
 10
26.0710454299
 20
30.1114196797
 11
27.308487449
 21
29.3969983593
  0
LINE
  5
24E
100
AcDbEntity
  8
0
100
AcDbLine
 62
7
  6
BYLAYER
 10
28.924599461
 20
22.4796473151
 11
28.8843469479
 21
27.7825023457
  0
LINE
  5
24F
100
AcDbEntity
  8
0
100
AcDbLine
 62
7
  6
BYLAYER
 10
20.3827186915
 20
36.6353421505
 11
19.5341870213
 21
37.125231056
  0
LINE
  5
250
100
AcDbEntity
  8
0
100
AcDbLine
 62
7
  6
BYLAYER
 10
20.5241323934
 20
37.4795124687
 11
21.3726640636
 21
36.9896235633
  0
LINE
  5
251
100
AcDbEntity
  8
0
100
AcDbLine
 62
7
  6
BYLAYER
 10
23.0909339246
 20
36.7154453458
 11
21.3373018062
 21
37.727882417
  0
ARC
  5
252
100
AcDbEntity
  8
0
100
AcDbCircle
 62
7
  6
BYLAYER
 10
27.9551236757
 20
17.0364768431
 40
21.0108742937
100
AcDbArc
 50
108.2575066719
 51
111.1250145091
  0
ARC
  5
253
100
AcDbEntity
  8
0
100
AcDbCircle
 62
7
  6
BYLAYER
 10
31.7382560225
 20
12.2379728644
 40
20.8450825054
100
AcDbArc
 50
142.2985585039
 51
142.4281633975
  0
ARC
  5
254
100
AcDbEntity
  8
0
100
AcDbCircle
 62
7
  6
BYLAYER
 10
31.5534842987
 20
12.4523473354
 40
20.5235083721
100
AcDbArc
 50
137.1155459191
 51
142.458790184
  0
ARC
  5
255
100
AcDbEntity
  8
0
100
AcDbCircle
 62
7
  6
BYLAYER
 10
31.1837444877
 20
12.6750821111
 40
20.1390367622
100
AcDbArc
 50
136.8670762274
 51
142.3177184052
  0
ARC
  5
256
100
AcDbEntity
  8
0
100
AcDbCircle
 62
7
  6
BYLAYER
 10
32.4908735476
 20
11.9910482271
 40
20.1313644426
100
AcDbArc
 50
136.7106881148
 51
142.5096577383
  0
ARC
  5
257
100
AcDbEntity
  8
0
100
AcDbCircle
 62
7
  6
BYLAYER
 10
31.492575687
 20
13.2906300165
 40
19.9742819609
100
AcDbArc
 50
144.2592672561
 51
144.3761733885
  0
ARC
  5
258
100
AcDbEntity
  8
0
100
AcDbCircle
 62
7
  6
BYLAYER
 10
26.6189989301
 20
18.9801206869
 40
19.4775484699
100
AcDbArc
 50
105.7338097756
 51
108.2351432172
  0
ARC
  5
259
100
AcDbEntity
  8
0
100
AcDbCircle
 62
7
  6
BYLAYER
 10
30.6339973273
 20
13.2767491924
 40
19.288763419
100
AcDbArc
 50
136.6842501649
 51
137.0511791598
  0
ARC
  5
25A
100
AcDbEntity
  8
0
100
AcDbCircle
 62
7
  6
BYLAYER
 10
29.5449401859
 20
14.0079042252
 40
17.9548343939
100
AcDbArc
 50
161.1362345859
 51
162.1850254798
  0
ARC
  5
25B
100
AcDbEntity
  8
0
100
AcDbCircle
 62
7
  6
BYLAYER
 10
22.1603048064
 20
20.6828430537
 40
10.9544125912
100
AcDbArc
 50
120.0000705266
 51
120.2986091818
  0
ARC
  5
25C
100
AcDbEntity
  8
0
100
AcDbCircle
 62
7
  6
BYLAYER
 10
22.3023637072
 20
20.6817413028
 40
10.9385297365
100
AcDbArc
 50
120.0000766752
 51
120.2986153305
  0
ARC
  5
25D
100
AcDbEntity
  8
0
100
AcDbCircle
 62
7
  6
BYLAYER
 10
22.7954990642
 20
20.4538954177
 40
10.8400475367
100
AcDbArc
 50
119.7002569348
 51
120.0000780985
  0
ARC
  5
25E
100
AcDbEntity
  8
0
100
AcDbCircle
 62
7
  6
BYLAYER
 10
22.0752590685
 20
20.8302990551
 40
10.7841890794
100
AcDbArc
 50
119.2571638541
 51
120.0004766516
  0
ARC
  5
25F
100
AcDbEntity
  8
0
100
AcDbCircle
 62
7
  6
BYLAYER
 10
23.4876522671
 20
19.9942958759
 40
10.6350266356
100
AcDbArc
 50
119.7002569349
 51
120.0000780985
  0
ARC
  5
260
100
AcDbEntity
  8
0
100
AcDbCircle
 62
7
  6
BYLAYER
 10
24.2503778794
 20
19.3461797067
 40
10.2047217745
100
AcDbArc
 50
120.0000989458
 51
120.3130699985
  0
ARC
  5
261
100
AcDbEntity
  8
0
100
AcDbCircle
 62
7
  6
BYLAYER
 10
20.7232914562
 20
15.7846977484
 40
9.068714371
100
AcDbArc
 50
153.6704325763
 51
155.8074738776
  0
ARC
  5
262
100
AcDbEntity
  8
0
100
AcDbCircle
 62
7
  6
BYLAYER
 10
22.2188497726
 20
14.8271401959
 40
7.4360292661
100
AcDbArc
 50
181.8855416775
 51
183.8522920551
  0
ARC
  5
263
100
AcDbEntity
  8
0
100
AcDbCircle
 62
7
  6
BYLAYER
 10
20.2213328427
 20
25.3403420191
 40
5.8581654918
100
AcDbArc
 50
58.8494617548
 51
60.0005767991
  0
ARC
  5
264
100
AcDbEntity
  8
0
100
AcDbCircle
 62
7
  6
BYLAYER
 10
13.5399897717
 20
13.7660350958
 40
3.8775013922
100
AcDbArc
 50
231.0639768737
 51
239.9885730568
  0
ARC
  5
265
100
AcDbEntity
  8
0
100
AcDbCircle
 62
7
  6
BYLAYER
 10
21.2130848975
 20
27.0566505644
 40
3.8759106638
100
AcDbArc
 50
60.0116364472
 51
68.8994912403
  0
SPLINE
  5
266
100
AcDbEntity
  8
0
100
AcDbSpline
 62
7
  6
BYLAYER
 70
0
 71
3
 72
11
 73
7
 74
0
 42
0.0000001
 43
0.0000001
 44
0.0000000001
 40
0.0
 40
0.0
 40
0.0
 40
0.0
 40
0.2601439971
 40
0.5118224037
 40
0.7574580941
 40
1.0
 40
1.0
 40
1.0
 40
1.0
 10
28.8843469479
 20
27.7825023457
 30
0.0
 10
28.7854306751
 20
27.9537679005
 30
0.0
 10
28.5713445077
 20
28.280020525
 30
0.0
 10
28.1967179531
 20
28.7194381368
 30
0.0
 10
27.777014266
 20
29.0964215816
 30
0.0
 10
27.4681765185
 20
29.3047955444
 30
0.0
 10
27.3084853534
 20
29.3969947341
 30
0.0
  0
SPLINE
  5
267
100
AcDbEntity
  8
0
100
AcDbSpline
 62
7
  6
BYLAYER
 70
0
 71
3
 72
23
 73
19
 74
0
 42
0.0000001
 43
0.0000001
 44
0.0000000001
 40
0.0
 40
0.0
 40
0.0
 40
0.0
 40
0.0558311575
 40
0.1141819571
 40
0.1747819539
 40
0.237352019
 40
0.3015477324
 40
0.3669910241
 40
0.4332810919
 40
0.4999984042
 40
0.5667157723
 40
0.6330060064
 40
0.6984495715
 40
0.76264566
 40
0.8252161943
 40
0.8858167435
 40
0.9441681653
 40
1.0
 40
1.0
 40
1.0
 40
1.0
 10
21.3585884028
 20
9.3748590054
 30
0.0
 10
21.6120471859
 20
9.5211926286
 30
0.0
 10
22.1175846131
 20
9.8431016449
 30
0.0
 10
22.850842438
 20
10.3937418554
 30
0.0
 10
23.5697549646
 20
11.0182727772
 30
0.0
 10
24.2673947321
 20
11.7105819685
 30
0.0
 10
24.9371889182
 20
12.4641281837
 30
0.0
 10
25.5727316131
 20
13.2716969134
 30
0.0
 10
26.1679383243
 20
14.1255753875
 30
0.0
 10
26.7171202075
 20
15.017597209
 30
0.0
 10
27.215038781
 20
15.9392167551
 30
0.0
 10
27.6569125934
 20
16.8816245273
 30
0.0
 10
28.0385137998
 20
17.8358105952
 30
0.0
 10
28.3562052138
 20
18.7926491957
 30
0.0
 10
28.6069418502
 20
19.7429853275
 30
0.0
 10
28.7883452543
 20
20.677856051
 30
0.0
 10
28.8985856308
 20
21.5882057077
 30
0.0
 10
28.924599461
 20
22.1869752086
 30
0.0
 10
28.924599461
 20
22.4796473151
 30
0.0
  0
SPLINE
  5
268
100
AcDbEntity
  8
0
100
AcDbSpline
 62
7
  6
BYLAYER
 70
0
 71
3
 72
9
 73
5
 74
0
 42
0.0000001
 43
0.0000001
 44
0.0000000001
 40
0.0
 40
0.0
 40
0.0
 40
0.0
 40
0.5099120895
 40
1.0
 40
1.0
 40
1.0
 40
1.0
 10
23.6424950952
 20
30.5752744438
 30
0.0
 10
23.8662675346
 20
30.5963353763
 30
0.0
 10
24.3077510148
 20
30.614124982
 30
0.0
 10
24.7484465123
 20
30.5790733839
 30
0.0
 10
24.9622119652
 20
30.5479231159
 30
0.0
  0
SPLINE
  5
269
100
AcDbEntity
  8
0
100
AcDbSpline
 62
7
  6
BYLAYER
 70
0
 71
3
 72
11
 73
7
 74
0
 42
0.0000001
 43
0.0000001
 44
0.0000000001
 40
0.0
 40
0.0
 40
0.0
 40
0.0
 40
0.2503476063
 40
0.5002465316
 40
0.750058454
 40
1.0
 40
1.0
 40
1.0
 40
1.0
 10
14.3592569934
 20
9.6132719755
 30
0.0
 10
14.1177843116
 20
9.6246166864
 30
0.0
 10
13.636036633
 20
9.6739106355
 30
0.0
 10
12.9273965798
 20
9.8313047987
 30
0.0
 10
12.2429111258
 20
10.0720722511
 30
0.0
 10
11.809574241
 20
10.2877202537
 30
0.0
 10
11.6005604842
 20
10.4083916725
 30
0.0
  0
SPLINE
  5
26A
100
AcDbEntity
  8
0
100
AcDbSpline
 62
7
  6
BYLAYER
 70
0
 71
3
 72
34
 73
30
 74
0
 42
0.0000001
 43
0.0000001
 44
0.0000000001
 40
0.0
 40
0.0
 40
0.0
 40
0.0
 40
0.0222137715
 40
0.0446106035
 40
0.0673811105
 40
0.0906930267
 40
0.114693783
 40
0.1395115638
 40
0.1652466842
 40
0.1919724634
 40
0.2197343699
 40
0.2485528563
 40
0.2784234835
 40
0.3093211003
 40
0.34120003
 40
0.3739988655
 40
0.4420140802
 40
0.5126343517
 40
0.5849608387
 40
0.6580078615
 40
0.7307544559
 40
0.7667071148
 40
0.8022117429
 40
0.8371533805
 40
0.8714234997
 40
0.9049215317
 40
0.9375663379
 40
0.9692868137
 40
1.0
 40
1.0
 40
1.0
 40
1.0
 10
11.0581841464
 20
10.7215257131
 30
0.0
 10
10.9105521021
 20
10.8067591854
 30
0.0
 10
10.6246156132
 20
10.9969590333
 30
0.0
 10
10.232267885
 20
11.3356931059
 30
0.0
 10
9.878250714
 20
11.7257653762
 30
0.0
 10
9.5644800875
 20
12.1639565471
 30
0.0
 10
9.2924718749
 20
12.6472125488
 30
0.0
 10
9.0631167633
 20
13.1723344251
 30
0.0
 10
8.8770852848
 20
13.7362727818
 30
0.0
 10
8.7348070115
 20
14.3359515091
 30
0.0
 10
8.6365429801
 20
14.9682668812
 30
0.0
 10
8.5824501425
 20
15.630027098
 30
0.0
 10
8.5724741504
 20
16.3179275184
 30
0.0
 10
8.6065004034
 20
17.0285190681
 30
0.0
 10
8.6841303022
 20
17.758251952
 30
0.0
 10
8.8471417588
 20
18.7638394082
 30
0.0
 10
9.159032319
 20
20.044363898
 30
0.0
 10
9.6885826181
 20
21.5764927251
 30
0.0
 10
10.3667547825
 20
23.0912627647
 30
0.0
 10
11.1792000663
 20
24.5569560796
 30
0.0
 10
11.9571875105
 20
25.7168033984
 30
0.0
 10
12.6325450874
 20
26.5938324575
 30
0.0
 10
13.1591806854
 20
27.2181866489
 30
0.0
 10
13.7051018417
 20
27.8082760073
 30
0.0
 10
14.2674458651
 20
28.3610141739
 30
0.0
 10
14.8433607478
 20
28.8734748712
 30
0.0
 10
15.4299652984
 20
29.3430086878
 30
0.0
 10
16.0242350618
 20
29.7669836293
 30
0.0
 10
16.430229403
 20
30.0220594456
 30
0.0
 10
16.6337306398
 20
30.1409683012
 30
0.0
  0
SPLINE
  5
26B
100
AcDbEntity
  8
0
100
AcDbSpline
 62
7
  6
BYLAYER
 70
0
 71
3
 72
11
 73
7
 74
0
 42
0.0000001
 43
0.0000001
 44
0.0000000001
 40
0.0
 40
0.0
 40
0.0
 40
0.0
 40
0.2462881823
 40
0.4967496423
 40
0.7488702896
 40
1.0
 40
1.0
 40
1.0
 40
1.0
 10
12.5544596035
 20
19.81304399
 30
0.0
 10
12.7084837638
 20
20.2639180261
 30
0.0
 10
13.0548591446
 20
21.1614751153
 30
0.0
 10
13.6754563816
 20
22.4719069451
 30
0.0
 10
14.3935813388
 20
23.7422892103
 30
0.0
 10
14.933008689
 20
24.5539638679
 30
0.0
 10
15.2166633186
 20
24.948379592
 30
0.0
  0
SPLINE
  5
26C
100
AcDbEntity
  8
0
100
AcDbSpline
 62
7
  6
BYLAYER
 70
0
 71
3
 72
18
 73
14
 74
0
 42
0.0000001
 43
0.0000001
 44
0.0000000001
 40
0.0
 40
0.0
 40
0.0
 40
0.0
 40
0.1455134391
 40
0.2841033038
 40
0.4158949394
 40
0.5413788351
 40
0.6613100442
 40
0.7195570157
 40
0.7768440501
 40
0.8333381191
 40
0.8892246673
 40
0.9447072483
 40
1.0
 40
1.0
 40
1.0
 40
1.0
 10
16.8046987989
 20
30.2388020468
 30
0.0
 10
17.0624622764
 20
30.3831876685
 30
0.0
 10
17.5777490789
 20
30.6444367394
 30
0.0
 10
18.3645849939
 20
30.9545585315
 30
0.0
 10
19.1406426815
 20
31.1700460161
 30
0.0
 10
19.8992751087
 20
31.2879316558
 30
0.0
 10
20.5177938717
 20
31.3026786621
 30
0.0
 10
20.9945319553
 20
31.2621148847
 30
0.0
 10
21.3397095873
 20
31.2064909185
 30
0.0
 10
21.674892079
 20
31.1254411835
 30
0.0
 10
21.9990604234
 20
31.0189714671
 30
0.0
 10
22.3111883865
 20
30.8873369427
 30
0.0
 10
22.5107630573
 20
30.7829573614
 30
0.0
 10
22.6079881772
 20
30.7268256821
 30
0.0
  0
SPLINE
  5
26D
100
AcDbEntity
  8
0
100
AcDbSpline
 62
7
  6
BYLAYER
 70
0
 71
3
 72
11
 73
7
 74
0
 42
0.0000001
 43
0.0000001
 44
0.0000000001
 40
0.0
 40
0.0
 40
0.0
 40
0.0
 40
0.2598980143
 40
0.5134860283
 40
0.7603109675
 40
1.0
 40
1.0
 40
1.0
 40
1.0
 10
4.7910808473
 20
26.9502418538
 30
0.0
 10
5.215867125
 20
27.3212390822
 30
0.0
 10
6.0711185425
 20
28.0361799379
 30
0.0
 10
7.3845851033
 20
29.0356484752
 30
0.0
 10
8.7086425642
 20
29.9457423109
 30
0.0
 10
9.6085547891
 20
30.4989121264
 30
0.0
 10
10.0590044346
 20
30.7589777981
 30
0.0
  0
SPLINE
  5
26E
100
AcDbEntity
  8
0
100
AcDbSpline
 62
7
  6
BYLAYER
 70
0
 71
3
 72
15
 73
11
 74
0
 42
0.0000001
 43
0.0000001
 44
0.0000000001
 40
0.0
 40
0.0
 40
0.0
 40
0.0
 40
0.1484803481
 40
0.2894747676
 40
0.4227556535
 40
0.5486625662
 40
0.6679988372
 40
0.7819347831
 40
0.8919889139
 40
1.0
 40
1.0
 40
1.0
 40
1.0
 10
4.7910808473
 20
18.7360322633
 30
0.0
 10
4.7910808473
 20
18.6969952219
 30
0.0
 10
4.7879109806
 20
18.6208380363
 30
0.0
 10
4.7729397818
 20
18.510528386
 30
0.0
 10
4.7478931069
 20
18.4081167864
 30
0.0
 10
4.7129854115
 20
18.3146489617
 30
0.0
 10
4.6684927052
 20
18.2310135583
 30
0.0
 10
4.6147518132
 20
18.1580515799
 30
0.0
 10
4.5522942684
 20
18.0965438408
 30
0.0
 10
4.5050001632
 20
18.0635614608
 30
0.0
 10
4.4804073889
 20
18.0493628998
 30
0.0
  0
SPLINE
  5
26F
100
AcDbEntity
  8
0
100
AcDbSpline
 62
7
  6
BYLAYER
 70
0
 71
3
 72
18
 73
14
 74
0
 42
0.0000001
 43
0.0000001
 44
0.0000000001
 40
0.0
 40
0.0
 40
0.0
 40
0.0
 40
0.0550590025
 40
0.1103331426
 40
0.1660338434
 40
0.2223647357
 40
0.3375953086
 40
0.4574528428
 40
0.5194876558
 40
0.5830532555
 40
0.715050432
 40
0.8539664802
 40
1.0
 40
1.0
 40
1.0
 40
1.0
 10
16.574043562
 20
10.8856346156
 30
0.0
 10
16.5101147929
 20
10.9225469179
 30
0.0
 10
16.3847987387
 20
11.0014751108
 30
0.0
 10
16.2058931165
 20
11.1342833538
 30
0.0
 10
16.0362520704
 20
11.2813816349
 30
0.0
 10
15.8213263722
 20
11.4977006335
 30
0.0
 10
15.5769651049
 20
11.8043642393
 30
0.0
 10
15.3724891524
 20
12.1475909223
 30
0.0
 10
15.230542714
 20
12.4446781618
 30
0.0
 10
15.1002324868
 20
12.7647182052
 30
0.0
 10
14.9667523157
 20
13.1938368664
 30
0.0
 10
14.8553421419
 20
13.7424524093
 30
0.0
 10
14.8136900904
 20
14.1227932526
 30
0.0
 10
14.8002635802
 20
14.3181260803
 30
0.0
  0
SPLINE
  5
270
100
AcDbEntity
  8
0
100
AcDbSpline
 62
7
  6
BYLAYER
 70
0
 71
3
 72
23
 73
19
 74
0
 42
0.0000001
 43
0.0000001
 44
0.0000000001
 40
0.0
 40
0.0
 40
0.0
 40
0.0
 40
0.0558381021
 40
0.1141790785
 40
0.1747829149
 40
0.2373529609
 40
0.3015483999
 40
0.366992202
 40
0.4332821868
 40
0.4999996594
 40
0.5667170989
 40
0.6330071764
 40
0.6984505285
 40
0.7626465779
 40
0.8252164096
 40
0.8858170473
 40
0.944170488
 40
1.0
 40
1.0
 40
1.0
 40
1.0
 10
14.7825357048
 20
14.3147085063
 30
0.0
 10
14.7825337904
 20
14.5691166327
 30
0.0
 10
14.8051093467
 20
15.0895274225
 30
0.0
 10
14.9009564714
 20
15.8807621687
 30
0.0
 10
15.0586113044
 20
16.6932826706
 30
0.0
 10
15.2765251252
 20
17.5192939475
 30
0.0
 10
15.5526487054
 20
18.3509387769
 30
0.0
 10
15.8843291471
 20
19.1802749861
 30
0.0
 10
16.2683732077
 20
19.9993880205
 30
0.0
 10
16.701141794
 20
20.80042739
 30
0.0
 10
17.1784790291
 20
21.5757346463
 30
0.0
 10
17.6957988079
 20
22.3179024245
 30
0.0
 10
18.2481872621
 20
23.0198147732
 30
0.0
 10
18.830355325
 20
23.6747621416
 30
0.0
 10
19.4367094201
 20
24.2765038862
 30
0.0
 10
20.061572292
 20
24.8193317732
 30
0.0
 10
20.6989037944
 20
25.2979242701
 30
0.0
 10
21.1382980681
 20
25.5777234232
 30
0.0
 10
21.3585884028
 20
25.704907348
 30
0.0
  0
SPLINE
  5
271
100
AcDbEntity
  8
0
100
AcDbSpline
 62
7
  6
BYLAYER
 70
0
 71
3
 72
19
 73
15
 74
0
 42
0.0000001
 43
0.0000001
 44
0.0000000001
 40
0.0
 40
0.0
 40
0.0
 40
0.0
 40
0.0539072081
 40
0.1080727281
 40
0.1627490907
 40
0.2181757647
 40
0.2745772285
 40
0.332156955
 40
0.3910944391
 40
0.4515471945
 40
0.5774232493
 40
0.7105920905
 40
0.8514662063
 40
1.0
 40
1.0
 40
1.0
 40
1.0
 10
16.0086875056
 20
8.8449250676
 30
0.0
 10
16.0962697058
 20
8.794360603
 30
0.0
 10
16.2762609717
 20
8.700412589
 30
0.0
 10
16.5582467247
 20
8.5824528151
 30
0.0
 10
16.8518198166
 20
8.4875700709
 30
0.0
 10
17.1562084069
 20
8.4159546797
 30
0.0
 10
17.4706779012
 20
8.3678178643
 30
0.0
 10
17.79444113
 20
8.3432377362
 30
0.0
 10
18.1267244827
 20
8.3422205624
 30
0.0
 10
18.5861456765
 20
8.3727453948
 30
0.0
 10
19.1789731915
 20
8.4721602529
 30
0.0
 10
19.900665028
 20
8.6825683858
 30
0.0
 10
20.6355194308
 20
8.9833420415
 30
0.0
 10
21.1172688677
 20
9.2355339385
 30
0.0
 10
21.3585884028
 20
9.3748590054
 30
0.0
  0
SPLINE
  5
272
100
AcDbEntity
  8
0
100
AcDbSpline
 62
7
  6
BYLAYER
 70
0
 71
3
 72
9
 73
5
 74
0
 42
0.0000001
 43
0.0000001
 44
0.0000000001
 40
0.0
 40
0.0
 40
0.0
 40
0.0
 40
0.5110060218
 40
1.0
 40
1.0
 40
1.0
 40
1.0
 10
16.069378219
 20
35.4537804686
 30
0.0
 10
16.6372787023
 20
35.7816560083
 30
0.0
 10
17.7713185222
 20
36.3849661031
 30
0.0
 10
18.9488129827
 20
36.8991734391
 30
0.0
 10
19.5341870213
 20
37.125231056
 30
0.0
  0
SPLINE
  5
273
100
AcDbEntity
  8
0
100
AcDbSpline
 62
7
  6
BYLAYER
 70
0
 71
3
 72
15
 73
11
 74
0
 42
0.0000001
 43
0.0000001
 44
0.0000000001
 40
0.0
 40
0.0
 40
0.0
 40
0.0
 40
0.1226170442
 40
0.2471961612
 40
0.3731146657
 40
0.4997252184
 40
0.6263708584
 40
0.7523939032
 40
0.8771455996
 40
1.0
 40
1.0
 40
1.0
 40
1.0
 10
15.3612592857
 20
17.6676625476
 30
0.0
 10
15.5459479935
 20
17.8713846391
 30
0.0
 10
15.9068354983
 20
18.2926101368
 30
0.0
 10
16.4167588189
 20
18.9564753213
 30
0.0
 10
16.8965527684
 20
19.6533518675
 30
0.0
 10
17.3424610401
 20
20.377814118
 30
0.0
 10
17.751058319
 20
21.1242233571
 30
0.0
 10
18.119134495
 20
21.8868126698
 30
0.0
 10
18.4438523243
 20
22.659617831
 30
0.0
 10
18.631507632
 20
23.1825658155
 30
0.0
 10
18.7172969741
 20
23.4443783744
 30
0.0
  0
SPLINE
  5
274
100
AcDbEntity
  8
0
100
AcDbSpline
 62
7
  6
BYLAYER
 70
0
 71
3
 72
19
 73
15
 74
0
 42
0.0000001
 43
0.0000001
 44
0.0000000001
 40
0.0
 40
0.0
 40
0.0
 40
0.0
 40
0.1485346005
 40
0.2894093512
 40
0.4225785934
 40
0.5484547762
 40
0.6089074875
 40
0.6678448565
 40
0.7254244007
 40
0.7818256204
 40
0.8372519981
 40
0.8919280223
 40
0.9460931745
 40
1.0
 40
1.0
 40
1.0
 40
1.0
 10
13.7925773446
 20
13.7432224223
 30
0.0
 10
13.7925773446
 20
13.4645584584
 30
0.0
 10
13.8150472207
 20
12.9212309075
 30
0.0
 10
13.9220002797
 20
12.134406623
 30
0.0
 10
14.1006346795
 20
11.404167843
 30
0.0
 10
14.3109619665
 20
10.8410336834
 30
0.0
 10
14.514246593
 20
10.42788509
 30
0.0
 10
14.6812767723
 20
10.1406177333
 30
0.0
 10
14.8644537645
 20
9.872511922
 30
0.0
 10
15.0633853126
 20
9.6242345706
 30
0.0
 10
15.2776101071
 20
9.396428373
 30
0.0
 10
15.5065778786
 20
9.1896239501
 30
0.0
 10
15.7497378371
 20
9.0043946495
 30
0.0
 10
15.921102448
 20
8.8954911818
 30
0.0
 10
16.0086875056
 20
8.8449250676
 30
0.0
  0
SPLINE
  5
275
100
AcDbEntity
  8
0
100
AcDbSpline
 62
7
  6
BYLAYER
 70
0
 71
3
 72
11
 73
7
 74
0
 42
0.0000001
 43
0.0000001
 44
0.0000000001
 40
0.0
 40
0.0
 40
0.0
 40
0.0
 40
0.2510251772
 40
0.5030631929
 40
0.7535577428
 40
1.0
 40
1.0
 40
1.0
 40
1.0
 10
16.5175228214
 20
24.2435541298
 30
0.0
 10
16.2326984219
 20
23.847773311
 30
0.0
 10
15.6906444296
 20
23.0335087432
 30
0.0
 10
14.967568625
 20
21.7594264749
 30
0.0
 10
14.3408597252
 20
20.445121992
 30
0.0
 10
13.9895559851
 20
19.5448860967
 30
0.0
 10
13.8328298576
 20
19.0925567738
 30
0.0
  0
SPLINE
  5
276
100
AcDbEntity
  8
0
100
AcDbSpline
 62
7
  6
BYLAYER
 70
0
 71
3
 72
39
 73
35
 74
0
 42
0.0000001
 43
0.0000001
 44
0.0000000001
 40
0.0
 40
0.0
 40
0.0
 40
0.0
 40
0.0213240552
 40
0.0428763637
 40
0.0648735061
 40
0.0875096706
 40
0.1109504668
 40
0.135328105
 40
0.1607418034
 40
0.1872572955
 40
0.2149110248
 40
0.2437108923
 40
0.2736416682
 40
0.3046653754
 40
0.3367267431
 40
0.3697529211
 40
0.4036585785
 40
0.4383451903
 40
0.473705626
 40
0.5096233905
 40
0.5459765727
 40
0.5826373985
 40
0.6194754414
 40
0.6563578243
 40
0.693151468
 40
0.7297240675
 40
0.7659457021
 40
0.8016912447
 40
0.8368398455
 40
0.8712769211
 40
0.9048970043
 40
0.9376132484
 40
0.9693442702
 40
1.0
 40
1.0
 40
1.0
 40
1.0
 10
25.2238906009
 20
25.8679481027
 30
0.0
 10
25.3301605892
 20
25.8065880923
 30
0.0
 10
25.5361742794
 20
25.6693694082
 30
0.0
 10
25.8189196589
 20
25.4241800698
 30
0.0
 10
26.0745968718
 20
25.1406309612
 30
0.0
 10
26.3017767871
 20
24.8204693822
 30
0.0
 10
26.4993030606
 20
24.4655401353
 30
0.0
 10
26.666222558
 20
24.0778584387
 30
0.0
 10
26.8017057711
 20
23.6595476318
 30
0.0
 10
26.9051391154
 20
23.2128811565
 30
0.0
 10
26.9759946577
 20
22.7402519037
 30
0.0
 10
27.0139789711
 20
22.2441915098
 30
0.0
 10
27.0188771198
 20
21.7273527982
 30
0.0
 10
26.9907298235
 20
21.192498691
 30
0.0
 10
26.9296543704
 20
20.6425021871
 30
0.0
 10
26.8360371499
 20
20.0803063588
 30
0.0
 10
26.7103364297
 20
19.5089457095
 30
0.0
 10
26.5532842884
 20
18.9314802084
 30
0.0
 10
26.3656758589
 20
18.351038975
 30
0.0
 10
26.1485776955
 20
17.7707307615
 30
0.0
 10
25.903106734
 20
17.1937097795
 30
0.0
 10
25.6306437779
 20
16.6230639721
 30
0.0
 10
25.332603367
 20
16.0619028186
 30
0.0
 10
25.0106513203
 20
15.5132245263
 30
0.0
 10
24.6664685309
 20
14.9800269294
 30
0.0
 10
24.3019732404
 20
14.4651508819
 30
0.0
 10
23.919073042
 20
13.9714148191
 30
0.0
 10
23.5198881608
 20
13.5014397026
 30
0.0
 10
23.1065163468
 20
13.0578157876
 30
0.0
 10
22.6812612581
 20
12.6428821357
 30
0.0
 10
22.2463355818
 20
12.2589126523
 30
0.0
 10
21.8040734919
 20
11.9079096945
 30
0.0
 10
21.3568975889
 20
11.5919007475
 30
0.0
 10
21.0517454951
 20
11.4022515827
 30
0.0
 10
20.8989670814
 20
11.314045451
 30
0.0
  0
SPLINE
  5
277
100
AcDbEntity
  8
0
100
AcDbSpline
 62
7
  6
BYLAYER
 70
0
 71
3
 72
15
 73
11
 74
0
 42
0.0000001
 43
0.0000001
 44
0.0000000001
 40
0.0
 40
0.0
 40
0.0
 40
0.0
 40
0.1080115942
 40
0.2180661562
 40
0.332002388
 40
0.4513387659
 40
0.5772455935
 40
0.7105262128
 40
0.8515201999
 40
1.0
 40
1.0
 40
1.0
 40
1.0
 10
4.4804073889
 20
18.0493628998
 30
0.0
 10
4.4558151578
 20
18.0351646525
 30
0.0
 10
4.4036056331
 20
18.0106986722
 30
0.0
 10
4.3191115703
 20
17.9873632393
 30
0.0
 10
4.2290564414
 20
17.977303186
 30
0.0
 10
4.1343821496
 20
17.980588457
 30
0.0
 10
4.0359853761
 20
17.9970902439
 30
0.0
 10
3.9347736588
 20
18.0266032928
 30
0.0
 10
3.8317597809
 20
18.0687904832
 30
0.0
 10
3.7642224898
 20
18.1041221749
 30
0.0
 10
3.7304162596
 20
18.1236397694
 30
0.0
  0
SPLINE
  5
278
100
AcDbEntity
  8
0
100
AcDbSpline
 62
7
  6
BYLAYER
 70
0
 71
3
 72
9
 73
5
 74
0
 42
0.0000001
 43
0.0000001
 44
0.0000000001
 40
0.0
 40
0.0
 40
0.0
 40
0.0
 40
0.4900879307
 40
1.0
 40
1.0
 40
1.0
 40
1.0
 10
26.1996539842
 20
29.8335017955
 30
0.0
 10
25.985888524
 20
29.8646520645
 30
0.0
 10
25.545193021
 20
29.8997035
 30
0.0
 10
25.1037095431
 20
29.8819140549
 30
0.0
 10
24.8799371142
 20
29.8608531234
 30
0.0
  0
SPLINE
  5
279
100
AcDbEntity
  8
0
100
AcDbSpline
 62
7
  6
BYLAYER
 70
0
 71
3
 72
47
 73
43
 74
0
 42
0.0000001
 43
0.0000001
 44
0.0000000001
 40
0.0
 40
0.0
 40
0.0
 40
0.0
 40
0.0309812713
 40
0.0603672988
 40
0.0881448357
 40
0.1144005492
 40
0.1392891089
 40
0.1630469402
 40
0.1746082237
 40
0.1860130213
 40
0.1973114076
 40
0.2085558482
 40
0.219800334
 40
0.231098651
 40
0.2425035109
 40
0.2540650708
 40
0.2658297918
 40
0.2778403496
 40
0.302728753
 40
0.3156811322
 40
0.3289983077
 40
0.3426966307
 40
0.3567884052
 40
0.3712808887
 40
0.3861766159
 40
0.4171637789
 40
0.4497083401
 40
0.4837116506
 40
0.5190338202
 40
0.5555019501
 40
0.5929174006
 40
0.6310604266
 40
0.6696966242
 40
0.7085819652
 40
0.7474672773
 40
0.7861035004
 40
0.824246217
 40
0.8616619589
 40
0.8981298833
 40
0.9334500936
 40
0.9674605618
 40
1.0
 40
1.0
 40
1.0
 40
1.0
 10
21.3585884028
 20
25.704907348
 30
0.0
 10
21.5683289979
 20
25.8260004142
 30
0.0
 10
21.9870604839
 20
26.0451931506
 30
0.0
 10
22.625758711
 20
26.3066259616
 30
0.0
 10
23.2530918329
 20
26.4895111214
 30
0.0
 10
23.8631211885
 20
26.5918158913
 30
0.0
 10
24.4501011716
 20
26.6122670371
 30
0.0
 10
24.91986051
 20
26.5598390359
 30
0.0
 10
25.2757348085
 20
26.4760948953
 30
0.0
 10
25.530898475
 20
26.3936033703
 30
0.0
 10
25.7760084546
 20
26.2910801892
 30
0.0
 10
26.0104388111
 20
26.1687182747
 30
0.0
 10
26.23360527
 20
26.0268549788
 30
0.0
 10
26.4449698054
 20
25.8658696384
 30
0.0
 10
26.6439732814
 20
25.6861247727
 30
0.0
 10
26.8301424788
 20
25.4881076216
 30
0.0
 10
27.0030626907
 20
25.2723201273
 30
0.0
 10
27.2178338691
 20
24.9579756828
 30
0.0
 10
27.4015674536
 20
24.6126109541
 30
0.0
 10
27.5542279149
 20
24.2427963125
 30
0.0
 10
27.6553267665
 20
23.9469444909
 30
0.0
 10
27.7412452897
 20
23.6371235632
 30
0.0
 10
27.8117614696
 20
23.3140356648
 30
0.0
 10
27.8667222021
 20
22.9784632951
 30
0.0
 10
27.919827236
 20
22.5093297106
 30
0.0
 10
27.9451513912
 20
21.8958588382
 30
0.0
 10
27.9120637024
 20
21.1333322031
 30
0.0
 10
27.8162114585
 20
20.3420407429
 30
0.0
 10
27.6585537848
 20
19.5295396773
 30
0.0
 10
27.4406373552
 20
18.7035270829
 30
0.0
 10
27.1645119892
 20
17.8718874404
 30
0.0
 10
26.8328304042
 20
17.0425551484
 30
0.0
 10
26.4487858756
 20
16.2234467704
 30
0.0
 10
26.0160174542
 20
15.4224120934
 30
0.0
 10
25.5386809739
 20
14.6471096097
 30
0.0
 10
25.0213624929
 20
13.9049465221
 30
0.0
 10
24.4689758192
 20
13.2030386814
 30
0.0
 10
23.88680995
 20
12.5480955307
 30
0.0
 10
23.2804583907
 20
11.9463576107
 30
0.0
 10
22.6555983156
 20
11.4035330667
 30
0.0
 10
22.0182697882
 20
10.924943349
 30
0.0
 10
21.5788776567
 20
10.6451456903
 30
0.0
 10
21.3585884028
 20
10.5179623894
 30
0.0
  0
SPLINE
  5
27A
100
AcDbEntity
  8
0
100
AcDbSpline
 62
7
  6
BYLAYER
 70
0
 71
3
 72
28
 73
24
 74
0
 42
0.0000001
 43
0.0000001
 44
0.0000000001
 40
0.0
 40
0.0
 40
0.0
 40
0.0
 40
0.0742723301
 40
0.1447203538
 40
0.2113123126
 40
0.2742559724
 40
0.3339221207
 40
0.3908775369
 40
0.4185937707
 40
0.4459348509
 40
0.4730208208
 40
0.499977457
 40
0.526934191
 40
0.5540199654
 40
0.5813611463
 40
0.6090779764
 40
0.6372818382
 40
0.666075039
 40
0.7257405801
 40
0.788686634
 40
0.8552826266
 40
0.9257138384
 40
1.0
 40
1.0
 40
1.0
 40
1.0
 10
21.3585884028
 20
10.5179623894
 30
0.0
 10
21.1488487874
 20
10.3968698888
 30
0.0
 10
20.7301192492
 20
10.1776780704
 30
0.0
 10
20.0914240248
 20
9.9162459763
 30
0.0
 10
19.4640937487
 20
9.7333607618
 30
0.0
 10
18.8540670014
 20
9.6310551433
 30
0.0
 10
18.2670893086
 20
9.6106023365
 30
0.0
 10
17.7973315407
 20
9.6630282631
 30
0.0
 10
17.4414582033
 20
9.7467703646
 30
0.0
 10
17.1862951373
 20
9.8292601901
 30
0.0
 10
16.9411856198
 20
9.9317814901
 30
0.0
 10
16.7067555749
 20
10.0541413539
 30
0.0
 10
16.4835892864
 20
10.1960024239
 30
0.0
 10
16.2722247299
 20
10.35698545
 30
0.0
 10
16.07322119
 20
10.5367276047
 30
0.0
 10
15.887051297
 20
10.7347428729
 30
0.0
 10
15.7141320163
 20
10.9505247054
 30
0.0
 10
15.4993525675
 20
11.2648802855
 30
0.0
 10
15.2666422543
 20
11.7022893457
 30
0.0
 10
15.0503205474
 20
12.2817147673
 30
0.0
 10
14.8950259133
 20
12.9164218017
 30
0.0
 10
14.8020390658
 20
13.6002570025
 30
0.0
 10
14.7825375275
 20
14.0724773192
 30
0.0
 10
14.7825357048
 20
14.3147085063
 30
0.0
  0
SPLINE
  5
27B
100
AcDbEntity
  8
0
100
AcDbSpline
 62
7
  6
BYLAYER
 70
0
 71
3
 72
11
 73
7
 74
0
 42
0.0000001
 43
0.0000001
 44
0.0000000001
 40
0.0
 40
0.0
 40
0.0
 40
0.0
 40
0.2396890325
 40
0.4865139717
 40
0.7401019857
 40
1.0
 40
1.0
 40
1.0
 40
1.0
 10
10.7519719652
 20
30.3589018587
 30
0.0
 10
10.3015223197
 20
30.0988361869
 30
0.0
 10
9.4016100948
 20
29.5456663715
 30
0.0
 10
8.0775526339
 20
28.6355725358
 30
0.0
 10
6.7640860732
 20
27.6361039984
 30
0.0
 10
5.9088346557
 20
26.9211631428
 30
0.0
 10
5.484048378
 20
26.5501659144
 30
0.0
  0
SPLINE
  5
27C
100
AcDbEntity
  8
0
100
AcDbSpline
 62
7
  6
BYLAYER
 70
0
 71
3
 72
11
 73
7
 74
0
 42
0.0000001
 43
0.0000001
 44
0.0000000001
 40
0.0
 40
0.0
 40
0.0
 40
0.0
 40
0.2370482788
 40
0.4827296625
 40
0.7370817585
 40
1.0
 40
1.0
 40
1.0
 40
1.0
 10
23.0909339246
 20
36.7154453458
 30
0.0
 10
22.6534408937
 20
36.5923698974
 30
0.0
 10
21.7713961879
 20
36.3092262697
 30
0.0
 10
20.4566722762
 20
35.7885580999
 30
0.0
 10
19.1318768706
 20
35.1664172116
 30
0.0
 10
18.2595516934
 20
34.6933791623
 30
0.0
 10
17.8230103374
 20
34.4413433974
 30
0.0
  0
SPLINE
  5
27D
100
AcDbEntity
  8
0
100
AcDbSpline
 62
7
  6
BYLAYER
 70
0
 71
3
 72
15
 73
11
 74
0
 42
0.0000001
 43
0.0000001
 44
0.0000000001
 40
0.0
 40
0.0
 40
0.0
 40
0.0
 40
0.1079125754
 40
0.2188764769
 40
0.3341280507
 40
0.45465487
 40
0.5811603499
 40
0.714110509
 40
0.8537575364
 40
1.0
 40
1.0
 40
1.0
 40
1.0
 10
22.6084324738
 20
30.6726827289
 30
0.0
 10
22.4266802996
 20
30.7428922203
 30
0.0
 10
22.0469177834
 20
30.8580108022
 30
0.0
 10
21.4489197395
 20
30.9502090623
 30
0.0
 10
20.8213019902
 20
30.9635209741
 30
0.0
 10
20.1690092171
 20
30.8980671149
 30
0.0
 10
19.4967778693
 20
30.7548049529
 30
0.0
 10
18.8094122409
 20
30.5348948381
 30
0.0
 10
18.1120194856
 20
30.2401277263
 30
0.0
 10
17.6540217231
 20
30.0007032653
 30
0.0
 10
17.4246613213
 20
29.8698782415
 30
0.0
  0
SPLINE
  5
27E
100
AcDbEntity
  8
0
100
AcDbSpline
 62
7
  6
BYLAYER
 70
0
 71
3
 72
37
 73
33
 74
0
 42
0.0000001
 43
0.0000001
 44
0.0000000001
 40
0.0
 40
0.0
 40
0.0
 40
0.0
 40
0.0213230214
 40
0.0428730372
 40
0.06486523
 40
0.0874938253
 40
0.110922993
 40
0.1352856173
 40
0.1606797146
 40
0.1871724832
 40
0.2147993784
 40
0.2435702037
 40
0.2734689759
 40
0.3044598047
 40
0.3364869141
 40
0.3694795321
 40
0.403352079
 40
0.4380079682
 40
0.473340063
 40
0.5092335795
 40
0.5821963163
 40
0.6558910016
 40
0.6926912519
 40
0.7292788973
 40
0.765524256
 40
0.8013024869
 40
0.8364932743
 40
0.8709824922
 40
0.9046637207
 40
0.9374486262
 40
0.9692571038
 40
1.0
 40
1.0
 40
1.0
 40
1.0
 10
11.0581930015
 20
10.7215410509
 30
0.0
 10
10.9166540512
 20
10.8032580256
 30
0.0
 10
10.6422431471
 20
10.9859417253
 30
0.0
 10
10.2655668753
 20
11.3123100661
 30
0.0
 10
9.9247877991
 20
11.6895977883
 30
0.0
 10
9.6219108637
 20
12.1155856154
 30
0.0
 10
9.3583380028
 20
12.5877463341
 30
0.0
 10
9.1354815265
 20
13.1034867951
 30
0.0
 10
8.9542949114
 20
13.6599379387
 30
0.0
 10
8.8157444958
 20
14.2541318954
 30
0.0
 10
8.7203867407
 20
14.8828746377
 30
0.0
 10
8.668758572
 20
15.542828749
 30
0.0
 10
8.6610137807
 20
16.2304804027
 30
0.0
 10
8.6972333307
 20
16.9421652989
 30
0.0
 10
8.7771482219
 20
17.6740945296
 30
0.0
 10
8.9003655358
 20
18.4223510676
 30
0.0
 10
9.0661830371
 20
19.1829424334
 30
0.0
 10
9.2737331443
 20
19.9517841446
 30
0.0
 10
9.5218863216
 20
20.7247776148
 30
0.0
 10
9.9071941619
 20
21.7609344477
 30
0.0
 10
10.4815422573
 20
23.0388692402
 30
0.0
 10
11.1654686957
 20
24.2695224539
 30
0.0
 10
11.7746636524
 20
25.2184331724
 30
0.0
 10
12.2585766777
 20
25.9057462116
 30
0.0
 10
12.767075842
 20
26.5652006634
 30
0.0
 10
13.2974023668
 20
27.1933030767
 30
0.0
 10
13.8467591833
 20
27.7866305958
 30
0.0
 10
14.4121266506
 20
28.3420451484
 30
0.0
 10
14.9905430239
 20
28.8565368582
 30
0.0
 10
15.5789329306
 20
29.3274207054
 30
0.0
 10
16.1740971513
 20
29.7520132931
 30
0.0
 10
16.5803516052
 20
30.0072737025
 30
0.0
 10
16.7838015331
 20
30.1261525775
 30
0.0
  0
SPLINE
  5
27F
100
AcDbEntity
  8
0
100
AcDbSpline
 62
7
  6
BYLAYER
 70
0
 71
3
 72
10
 73
6
 74
0
 42
0.0000001
 43
0.0000001
 44
0.0000000001
 40
0.0
 40
0.0
 40
0.0
 40
0.0
 40
0.2477654127
 40
0.6188883636
 40
1.0
 40
1.0
 40
1.0
 40
1.0
 10
15.2800808024
 20
24.9579754502
 30
0.0
 10
15.2748152216
 20
24.9572062076
 30
0.0
 10
15.2616697694
 20
24.9552353157
 30
0.0
 10
15.2403869533
 20
24.9523345985
 30
0.0
 10
15.224467721
 20
24.9495507768
 30
0.0
 10
15.2164246496
 20
24.9480306283
 30
0.0
  0
SPLINE
  5
280
100
AcDbEntity
  8
0
100
AcDbSpline
 62
7
  6
BYLAYER
 70
0
 71
3
 72
11
 73
7
 74
0
 42
0.0000001
 43
0.0000001
 44
0.0000000001
 40
0.0
 40
0.0
 40
0.0
 40
0.0
 40
0.2464218896
 40
0.4968857858
 40
0.7489159239
 40
1.0
 40
1.0
 40
1.0
 40
1.0
 10
12.5953878386
 20
19.8069780942
 30
0.0
 10
12.7510057868
 20
20.2561089165
 30
0.0
 10
13.0995702648
 20
21.1500426146
 30
0.0
 10
13.7208502002
 20
22.4555173241
 30
0.0
 10
14.4373096767
 20
23.7216074005
 30
0.0
 10
14.9742111291
 20
24.5311879572
 30
0.0
 10
15.2563085512
 20
24.9248712616
 30
0.0
  0
SPLINE
  5
281
100
AcDbEntity
  8
0
100
AcDbSpline
 62
7
  6
BYLAYER
 70
0
 71
3
 72
22
 73
18
 74
0
 42
0.0000001
 43
0.0000001
 44
0.0000000001
 40
0.0
 40
0.0
 40
0.0
 40
0.0
 40
0.0486885988
 40
0.0978957388
 40
0.148112164
 40
0.1997805762
 40
0.2532757343
 40
0.3089009929
 40
0.3668802691
 40
0.4273668649
 40
0.4904421064
 40
0.5561282949
 40
0.6243894394
 40
0.6951435485
 40
0.7682638253
 40
0.8435886905
 40
1.0
 40
1.0
 40
1.0
 40
1.0
 10
14.0629860602
 20
9.9682447714
 30
0.0
 10
13.9319164323
 20
10.0439157839
 30
0.0
 10
13.6778042638
 20
10.2130860141
 30
0.0
 10
13.3289697885
 20
10.5152850726
 30
0.0
 10
13.0133586134
 20
10.8646212145
 30
0.0
 10
12.7328294906
 20
11.2590413235
 30
0.0
 10
12.4886867786
 20
11.6962093146
 30
0.0
 10
12.2822254588
 20
12.1737203635
 30
0.0
 10
12.1143414027
 20
12.6889255761
 30
0.0
 10
11.985915531
 20
13.2390750598
 30
0.0
 10
11.8974788315
 20
13.821216822
 30
0.0
 10
11.8495122877
 20
14.4322608386
 30
0.0
 10
11.8421758356
 20
15.0689589402
 30
0.0
 10
11.8755281897
 20
15.727913184
 30
0.0
 10
11.9493400261
 20
16.4056492809
 30
0.0
 10
12.1031091555
 20
17.3410518358
 30
0.0
 10
12.2753159383
 20
18.0420968618
 30
0.0
 10
12.4127653134
 20
18.5084572307
 30
0.0
  0
SPLINE
  5
282
100
AcDbEntity
  8
0
100
AcDbSpline
 62
7
  6
BYLAYER
 70
0
 71
3
 72
43
 73
39
 74
0
 42
0.0000001
 43
0.0000001
 44
0.0000000001
 40
0.0
 40
0.0
 40
0.0
 40
0.0
 40
0.0233113521
 40
0.0459209301
 40
0.0570499648
 40
0.0681042508
 40
0.0791207464
 40
0.0901369471
 40
0.1011903209
 40
0.1123178628
 40
0.134922916
 40
0.1582278625
 40
0.1824532747
 40
0.1949723761
 40
0.2077823464
 40
0.2343200582
 40
0.2621528881
 40
0.2913145548
 40
0.3218001509
 40
0.3535724237
 40
0.3865640872
 40
0.4206847816
 40
0.4558224506
 40
0.4918484039
 40
0.5286197605
 40
0.5659820771
 40
0.6037728424
 40
0.6418229347
 40
0.6799601553
 40
0.7180107103
 40
0.755802302
 40
0.7931657172
 40
0.8299389504
 40
0.8659673116
 40
0.9011057613
 40
0.935228695
 40
0.9682309988
 40
1.0
 40
1.0
 40
1.0
 40
1.0
 10
14.35926028
 20
9.6132808879
 30
0.0
 10
14.1686206268
 20
9.62223969
 30
0.0
 10
13.7936679636
 20
9.6626230781
 30
0.0
 10
13.3385073894
 20
9.7740374373
 30
0.0
 10
12.9931428503
 20
9.8981328129
 30
0.0
 10
12.744268411
 20
10.0079938821
 30
0.0
 10
12.5047021529
 20
10.1349209116
 30
0.0
 10
12.2748396985
 20
10.2786611268
 30
0.0
 10
12.0550875544
 20
10.4389913156
 30
0.0
 10
11.7747149006
 20
10.6756773278
 30
0.0
 10
11.4503112505
 20
11.0137779448
 30
0.0
 10
11.1102279433
 20
11.4782923233
 30
0.0
 10
10.8701730536
 20
11.9087421996
 30
0.0
 10
10.7029960067
 20
12.2785752256
 30
0.0
 10
10.5491818577
 20
12.6745726242
 30
0.0
 10
10.3905146974
 20
13.2022240929
 30
0.0
 10
10.2556235705
 20
13.8735617957
 30
0.0
 10
10.1747898286
 20
14.5859894327
 30
0.0
 10
10.1484314979
 20
15.3346662016
 30
0.0
 10
10.1767399753
 20
16.1145722707
 30
0.0
 10
10.2594073627
 20
16.920456847
 30
0.0
 10
10.3959176839
 20
17.7468731053
 30
0.0
 10
10.5852983574
 20
18.5882370257
 30
0.0
 10
10.8262580431
 20
19.438849922
 30
0.0
 10
11.1171912058
 20
20.292929316
 30
0.0
 10
11.4560642799
 20
21.1446964223
 30
0.0
 10
11.8406369263
 20
21.9883353604
 30
0.0
 10
12.2682388188
 20
22.8181359267
 30
0.0
 10
12.7359946315
 20
23.6284377817
 30
0.0
 10
13.2407191822
 20
24.4137308246
 30
0.0
 10
13.7789541077
 20
25.1686891889
 30
0.0
 10
14.3470853332
 20
25.8881515091
 30
0.0
 10
14.9412042397
 20
26.5672655848
 30
0.0
 10
15.5573178614
 20
27.2013649844
 30
0.0
 10
16.191197786
 20
27.7861946686
 30
0.0
 10
16.8386454033
 20
28.3178104342
 30
0.0
 10
17.4951987218
 20
28.7924604195
 30
0.0
 10
17.9448790767
 20
29.0744460404
 30
0.0
 10
18.1701263951
 20
29.204491864
 30
0.0
  0
SPLINE
  5
283
100
AcDbEntity
  8
0
100
AcDbSpline
 62
7
  6
BYLAYER
 70
0
 71
3
 72
17
 73
13
 74
0
 42
0.0000001
 43
0.0000001
 44
0.0000000001
 40
0.0
 40
0.0
 40
0.0
 40
0.0
 40
0.148551028
 40
0.2894529234
 40
0.4226426436
 40
0.5485357507
 40
0.6678739453
 40
0.7817906682
 40
0.8372257502
 40
0.8919102957
 40
0.9460844975
 40
1.0
 40
1.0
 40
1.0
 40
1.0
 10
20.8989670814
 20
11.314045451
 30
0.0
 10
20.7038889987
 20
11.2014177397
 30
0.0
 10
20.3144306079
 20
10.9975479336
 30
0.0
 10
19.720382991
 20
10.7543898793
 30
0.0
 10
19.1369056386
 20
10.5842865809
 30
0.0
 10
18.5695206609
 20
10.4891279781
 30
0.0
 10
18.0235718123
 20
10.4701009864
 30
0.0
 10
17.5866476584
 20
10.5188579252
 30
0.0
 10
17.2556493212
 20
10.596741517
 30
0.0
 10
17.0183182541
 20
10.6734637843
 30
0.0
 10
16.7903542902
 20
10.7688082419
 30
0.0
 10
16.6448441674
 20
10.8447545331
 30
0.0
 10
16.574043562
 20
10.8856346156
 30
0.0
  0
SPLINE
  5
284
100
AcDbEntity
  8
0
100
AcDbSpline
 62
7
  6
BYLAYER
 70
0
 71
3
 72
15
 73
11
 74
0
 42
0.0000001
 43
0.0000001
 44
0.0000000001
 40
0.0
 40
0.0
 40
0.0
 40
0.0
 40
0.1418573273
 40
0.2788096519
 40
0.4107053275
 40
0.537592887
 40
0.6596451508
 40
0.7771289028
 40
0.8904127424
 40
1.0
 40
1.0
 40
1.0
 40
1.0
 10
14.7117569864
 20
29.9506216491
 30
0.0
 10
14.8647147181
 20
30.0389313095
 30
0.0
 10
15.1704170797
 20
30.2039116226
 30
0.0
 10
15.6349763519
 20
30.4184219687
 30
0.0
 10
16.0955591676
 20
30.5945663647
 30
0.0
 10
16.549976073
 20
30.7315342147
 30
0.0
 10
16.9962527734
 20
30.8286418504
 30
0.0
 10
17.4324230514
 20
30.8854735514
 30
0.0
 10
17.8564731908
 20
30.9016370844
 30
0.0
 10
18.1340238103
 20
30.8849419821
 30
0.0
 10
18.2695956252
 20
30.8695558337
 30
0.0
  0
SPLINE
  5
285
100
AcDbEntity
  8
0
100
AcDbSpline
 62
7
  6
BYLAYER
 70
0
 71
3
 72
38
 73
34
 74
0
 42
0.0000001
 43
0.0000001
 44
0.0000000001
 40
0.0
 40
0.0
 40
0.0
 40
0.0
 40
0.0302551513
 40
0.0615326631
 40
0.0937513763
 40
0.1268385455
 40
0.1607160834
 40
0.1952889817
 40
0.230454228
 40
0.2661029268
 40
0.3021221327
 40
0.3383940671
 40
0.3747986542
 40
0.4112144314
 40
0.4475197932
 40
0.4835944815
 40
0.5193201097
 40
0.5545825734
 40
0.5892718159
 40
0.6232850776
 40
0.6565260789
 40
0.688909111
 40
0.7203578285
 40
0.7508101401
 40
0.780216868
 40
0.8085473634
 40
0.8357882889
 40
0.8619497287
 40
0.9111431502
 40
0.9343730989
 40
0.9568235669
 40
0.9786411674
 40
1.0
 40
1.0
 40
1.0
 40
1.0
 10
17.3754624997
 20
29.8416445749
 30
0.0
 10
17.1794079368
 20
29.7284530959
 30
0.0
 10
16.7877784806
 20
29.4857475193
 30
0.0
 10
16.2132619935
 20
29.0826396883
 30
0.0
 10
15.64458138
 20
28.6361434541
 30
0.0
 10
15.0846191383
 20
28.1486402967
 30
0.0
 10
14.5361527411
 20
27.622484183
 30
0.0
 10
14.0018291484
 20
27.0603408346
 30
0.0
 10
13.4843988403
 20
26.4649543791
 30
0.0
 10
12.9863784207
 20
25.8393599674
 30
0.0
 10
12.5103174018
 20
25.1866284837
 30
0.0
 10
12.0585215532
 20
24.5100667179
 30
0.0
 10
11.6333205433
 20
23.813006927
 30
0.0
 10
11.2367659329
 20
23.098975529
 30
0.0
 10
10.8709114645
 20
22.3714976612
 30
0.0
 10
10.5375096995
 20
21.6342456079
 30
0.0
 10
10.2383019897
 20
20.8908643
 30
0.0
 10
9.9747045719
 20
20.1450989923
 30
0.0
 10
9.7481132134
 20
19.4006394271
 30
0.0
 10
9.559577729
 20
18.6612271598
 30
0.0
 10
9.4101244702
 20
17.9305209877
 30
0.0
 10
9.3004153199
 20
17.2121816445
 30
0.0
 10
9.2310926543
 20
16.5097618768
 30
0.0
 10
9.2024186385
 20
15.8267676304
 30
0.0
 10
9.2146505801
 20
15.1665668222
 30
0.0
 10
9.2676433314
 20
14.5324692166
 30
0.0
 10
9.3613100472
 20
13.9274909999
 30
0.0
 10
9.5359976578
 20
13.1795120572
 30
0.0
 10
9.7909094272
 20
12.482226718
 30
0.0
 10
10.1307140048
 20
11.8577602931
 30
0.0
 10
10.4174918683
 20
11.440783886
 30
0.0
 10
10.7396065043
 20
11.0688127747
 30
0.0
 10
10.9788171753
 20
10.850322438
 30
0.0
 10
11.1031653664
 20
10.7499276932
 30
0.0
  0
ENDSEC
  0
SECTION
  2
OBJECTS
  0
DICTIONARY
  5
C
100
AcDbDictionary
280
0
281
1
  3
ACAD_GROUP
350
D
  3
ACAD_MLINESTYLE
350
17
  3
ACAD_LAYOUT
350
1A
  3
ACAD_PLOTSETTINGS
350
19
  3
ACAD_PLOTSTYLENAME
350
E
  0
DICTIONARY
  5
D
102
{ACAD_REACTORS
330
C
102
}
100
AcDbDictionary
280
0
281
1
  0
ACDBDICTIONARYWDFLT
  5
E
102
{ACAD_REACTORS
330
C
102
}
100
AcDbDictionary
281
1
  3
Normal
350
F
100
AcDbDictionaryWithDefault
340
F
  0
DICTIONARY
  5
17
102
{ACAD_REACTORS
330
C
102
}
100
AcDbDictionary
280
0
281
1
  3
Standard
350
18
  0
DICTIONARY
  5
19
102
{ACAD_REACTORS
330
C
102
}
100
AcDbDictionary
281
1
  0
DICTIONARY
  5
1A
102
{ACAD_REACTORS
330
C
102
}
100
AcDbDictionary
281
1
  3
Model
350
286
  3
Layout1
350
287
  0
ACDBPLACEHOLDER
  5
F
102
{ACAD_REACTORS
330
E
102
}
  0
MLINESTYLE
  5
18
102
{ACAD_REACTORS
330
17
102
}
100
AcDbMlineStyle
  2
STANDARD
 70
0
  3

 62
256
 51
90.0
 52
90.0
 71
2
 49
0.5
 62
256
  6
BYLAYER
 49
-0.5
 62
256
  6
BYLAYER
  0
LAYOUT
  5
286
102
{ACAD_REACTORS
330
1A
102
}
100
AcDbPlotSettings
  1

  2
none_device
  4

  6

 40
0.0
 41
0.0
 42
0.0
 43
0.0
 44
210.0
 45
297.0
 46
0.0
 47
0.0
 48
0.0
 49
0.0
140
0.0
141
0.0
142
1.0
143
1.0
 70
1024
 72
1
 73
0
 74
0
  7

 75
0
147
1.0
148
0.0
149
0.0
100
AcDbLayout
  1
Model
 70
0
 71
0
 10
0.0
 20
0.0
 11
210.0
 21
297.0
 12
0.0
 22
0.0
 32
0.0
 14
0.0
 24
0.0
 34
0.0
 15
0.0
 25
0.0
 35
0.0
146
0.0
 13
0.0
 23
0.0
 33
0.0
 16
1.0
 26
0.0
 36
0.0
 17
0.0
 27
1.0
 37
0.0
 76
0
330
210
345
0
346
0
  0
LAYOUT
  5
287
102
{ACAD_REACTORS
330
1A
102
}
100
AcDbPlotSettings
  1

  2
none_device
  4

  6

 40
0.0
 41
0.0
 42
0.0
 43
0.0
 44
210.0
 45
297.0
 46
0.0
 47
0.0
 48
0.0
 49
0.0
140
0.0
141
0.0
142
1.0
143
1.0
 70
0
 72
1
 73
0
 74
0
  7

 75
0
147
1.0
148
0.0
149
0.0
100
AcDbLayout
  1
Layout1
 70
0
 71
1
 10
0.0
 20
0.0
 11
210.0
 21
297.0
 12
0.0
 22
0.0
 32
0.0
 14
0.0
 24
0.0
 34
0.0
 15
0.0
 25
0.0
 35
0.0
146
0.0
 13
0.0
 23
0.0
 33
0.0
 16
1.0
 26
0.0
 36
0.0
 17
0.0
 27
1.0
 37
0.0
 76
0
330
211
345
0
346
0
  0
ENDSEC
  0
EOF
