999
DXF file: C:\Users\sesa63760\Dev\_Creo\CAD\MCADID0004742_3D-CAD\drw0001_4.dxf
999
Pro/ENGINEER 2019471 by Parametric Technology Corporation
  0
SECTION
  2
HEADER
  9
$ACADVER
  1
AC1024
  9
$DWGCODEPAGE
  3
ANSI_1252
  9
$EXTMAX
 10
37.7232889237
 20
53.3515086207
 30
0.0
  9
$EXTMIN
 10
0.0
 20
0.0
 30
0.0
  9
$LIMMIN
 10
0.0
 20
0.0
  9
$LIMMAX
 10
37.7232889237
 20
53.3515086207
  9
$VIEWCTR
 10
18.8616444619
 20
26.6757543103
  9
$VIEWSIZE
 40
53.3515086207
  9
$CLAYER
  8
0
  9
$LTSCALE
 40
3.4777279693
  9
$CELTYPE
  6
BYLAYER
  9
$DIMSCALE
 40
1.0
  9
$DIMASZ
 40
0.4490867729
  9
$DIMEXO
 40
1.0
  9
$DIMDLI
 40
2.4027938697
  9
$DIMEXE
 40
1.0
  9
$DIMCEN
 40
0.5690827586
  9
$DIMLFAC
 40
1.0
  9
$DIMBLK
  1
_FILLED
  9
$DIMALT
 70
0
  9
$DIMALTF
 40
0.0393700787
  9
$DIMTXT
 40
0.6287214821
  9
$DIMTOL
 70
1
  9
$DIMLIM
 70
0
  9
$DIMTFAC
 40
1.0
  9
$DIMTP
 40
0.01
  9
$DIMTM
 40
0.01
  9
$DIMGAP
 40
0.625
  9
$DIMDSEP
 70
46
  9
$AUNITS
 70
0
  9
$PDMODE
 70
3
  9
$PDSIZE
 40
0.3125
  9
$HANDSEED
  5
297
  9
$TILEMODE
 70
1
  9
$MEASUREMENT
 70
1
  9
$INSUNITS
 70
4
  0
ENDSEC
  0
SECTION
  2
CLASSES
  0
CLASS
  1
ACDBDICTIONARYWDFLT
  2
AcDbDictionaryWithDefault
  3
AutoCAD 2000
 90
0
 91
1
280
0
281
0
  0
CLASS
  1
ACDBPLACEHOLDER
  2
AcDbPlaceHolder
  3
AutoCAD 2000
 90
0
 91
1
280
0
281
0
  0
CLASS
  1
LAYOUT
  2
AcDbLayout
  3
AutoCAD 2000
 90
0
 91
0
280
0
281
0
  0
ENDSEC
  0
SECTION
  2
TABLES
  0
TABLE
  2
VPORT
  5
8
100
AcDbSymbolTable
 70
2
  0
VPORT
  5
1F4
100
AcDbSymbolTableRecord
100
AcDbViewportTableRecord
  2
*ACTIVE
 70
0
 10
0.0
 20
0.0
 11
1.0
 21
1.0
 12
18.8616444619
 22
26.6757543103
 13
0.0
 23
0.0
 14
1.0
 24
1.0
 15
0.0
 25
0.0
 16
0.0
 26
0.0
 36
1.0
 17
0.0
 27
0.0
 37
0.0
 40
53.3515086207
 41
0.7070707071
 42
50.0
 43
0.0
 44
0.0
 50
0.0
 51
0.0
 71
0
 72
100
 73
1
 74
1
 75
0
 76
0
 77
0
 78
0
  0
ENDTAB
  0
TABLE
  2
LTYPE
  5
5
100
AcDbSymbolTable
 70
6
  0
LTYPE
  5
14
100
AcDbSymbolTableRecord
100
AcDbLinetypeTableRecord
  2
BYBLOCK
 70
0
  3

 72
65
 73
0
 40
0.0
  0
LTYPE
  5
15
100
AcDbSymbolTableRecord
100
AcDbLinetypeTableRecord
  2
BYLAYER
 70
0
  3

 72
65
 73
0
 40
0.0
  0
LTYPE
  5
16
100
AcDbSymbolTableRecord
100
AcDbLinetypeTableRecord
  2
CONTINUOUS
 70
64
  3
Solid line
 72
65
 73
0
 40
0.0
  0
LTYPE
  5
1F5
100
AcDbSymbolTableRecord
100
AcDbLinetypeTableRecord
  2
CENTER
 70
64
  3
____ _ ____ _ ____ _ ____ _ ____ _ ____ _ ____
 72
65
 73
4
 40
0.6
 49
0.375
 74
0
 49
-0.075
 74
0
 49
0.075
 74
0
 49
-0.075
 74
0
  0
LTYPE
  5
1F6
100
AcDbSymbolTableRecord
100
AcDbLinetypeTableRecord
  2
HIDDEN
 70
64
  3
- - - - - - - - - - - - - - - - - - - -
 72
65
 73
2
 40
0.2
 49
0.1
 74
0
 49
-0.1
 74
0
  0
LTYPE
  5
1F7
100
AcDbSymbolTableRecord
100
AcDbLinetypeTableRecord
  2
PHANTOM
 70
64
  3
_____ _ _ _____ _ _ _____ _ _ _____
 72
65
 73
6
 40
0.8
 49
0.45
 74
0
 49
-0.05
 74
0
 49
0.1
 74
0
 49
-0.05
 74
0
 49
0.1
 74
0
 49
-0.05
 74
0
  0
LTYPE
  5
1F8
100
AcDbSymbolTableRecord
100
AcDbLinetypeTableRecord
  2
DOT
 70
64
  3
. . . . . . . . . . . . . . . . . . . .
 72
65
 73
2
 40
0.2
 49
0.1
 74
0
 49
-0.1
 74
0
  0
LTYPE
  5
1F9
100
AcDbSymbolTableRecord
100
AcDbLinetypeTableRecord
  2
DASHED
 70
64
  3
- - - - - - - - - - - - - - - - - - - -
 72
65
 73
2
 40
0.2
 49
0.1
 74
0
 49
-0.1
 74
0
  0
ENDTAB
  0
TABLE
  2
LAYER
  5
2
100
AcDbSymbolTable
 70
36
  0
LAYER
  5
10
100
AcDbSymbolTableRecord
100
AcDbLayerTableRecord
  2
0
 70
0
 62
7
  6
CONTINUOUS
370
-3
390
F
  0
LAYER
  5
1FA
100
AcDbSymbolTableRecord
100
AcDbLayerTableRecord
  2
DEFAULT_1
 70
0
 62
7
  6
CENTER
370
-3
390
F
  0
LAYER
  5
1FB
100
AcDbSymbolTableRecord
100
AcDbLayerTableRecord
  2
DEFAULT_2
 70
0
 62
7
  6
HIDDEN
370
-3
390
F
  0
LAYER
  5
1FC
100
AcDbSymbolTableRecord
100
AcDbLayerTableRecord
  2
DEFAULT_3
 70
0
 62
7
  6
PHANTOM
370
-3
390
F
  0
LAYER
  5
1FD
100
AcDbSymbolTableRecord
100
AcDbLayerTableRecord
  2
00_COMPONENTS
 70
0
 62
7
  6
CONTINUOUS
370
-3
390
F
  0
LAYER
  5
1FE
100
AcDbSymbolTableRecord
100
AcDbLayerTableRecord
  2
01_1_DEFAULT_DATUMS
 70
0
 62
7
  6
CONTINUOUS
370
-3
390
F
  0
LAYER
  5
1FF
100
AcDbSymbolTableRecord
100
AcDbLayerTableRecord
  2
01_PLANES
 70
0
 62
7
  6
CONTINUOUS
370
-3
390
F
  0
LAYER
  5
200
100
AcDbSymbolTableRecord
100
AcDbLayerTableRecord
  2
02_COORD_SYS
 70
0
 62
7
  6
CONTINUOUS
370
-3
390
F
  0
LAYER
  5
201
100
AcDbSymbolTableRecord
100
AcDbLayerTableRecord
  2
03_AXES
 70
0
 62
7
  6
CONTINUOUS
370
-3
390
F
  0
LAYER
  5
202
100
AcDbSymbolTableRecord
100
AcDbLayerTableRecord
  2
04_POINTS
 70
0
 62
7
  6
CONTINUOUS
370
-3
390
F
  0
LAYER
  5
203
100
AcDbSymbolTableRecord
100
AcDbLayerTableRecord
  2
05_CURVES
 70
0
 62
7
  6
CONTINUOUS
370
-3
390
F
  0
LAYER
  5
204
100
AcDbSymbolTableRecord
100
AcDbLayerTableRecord
  2
06_SURFS
 70
0
 62
7
  6
CONTINUOUS
370
-3
390
F
  0
LAYER
  5
205
100
AcDbSymbolTableRecord
100
AcDbLayerTableRecord
  2
07_COSMETICS
 70
0
 62
7
  6
CONTINUOUS
370
-3
390
F
  0
LAYER
  5
206
100
AcDbSymbolTableRecord
100
AcDbLayerTableRecord
  2
10_NOTES
 70
0
 62
7
  6
CONTINUOUS
370
-3
390
F
  0
LAYER
  5
207
100
AcDbSymbolTableRecord
100
AcDbLayerTableRecord
  2
11_NOTES_PUB
 70
0
 62
7
  6
CONTINUOUS
370
-3
390
F
  0
LAYER
  5
208
100
AcDbSymbolTableRecord
100
AcDbLayerTableRecord
  2
13_REF_GTOL
 70
0
 62
7
  6
CONTINUOUS
370
-3
390
F
  0
LAYER
  5
209
100
AcDbSymbolTableRecord
100
AcDbLayerTableRecord
  2
16_MISC
 70
0
 62
7
  6
CONTINUOUS
370
-3
390
F
  0
LAYER
  5
20A
100
AcDbSymbolTableRecord
100
AcDbLayerTableRecord
  2
17_NO_PRINT
 70
0
 62
7
  6
CONTINUOUS
370
-3
390
F
  0
LAYER
  5
20B
100
AcDbSymbolTableRecord
100
AcDbLayerTableRecord
  2
18_DATUM_CAMS_JOINTS
 70
0
 62
7
  6
CONTINUOUS
370
-3
390
F
  0
LAYER
  5
20C
100
AcDbSymbolTableRecord
100
AcDbLayerTableRecord
  2
19_DATUM_FUNCTIONAL
 70
0
 62
7
  6
CONTINUOUS
370
-3
390
F
  0
LAYER
  5
20D
100
AcDbSymbolTableRecord
100
AcDbLayerTableRecord
  2
20_DATUM_KINEMATIC_SCHEME
 70
0
 62
7
  6
CONTINUOUS
370
-3
390
F
  0
ENDTAB
  0
TABLE
  2
STYLE
  5
3
100
AcDbSymbolTable
 70
1
  0
STYLE
  5
11
100
AcDbSymbolTableRecord
100
AcDbTextStyleTableRecord
  2
STANDARD
 70
0
 40
0.0
 41
1.0
 50
0.0
 71
0
 42
0.2
  3
ARIAL.TTF
  4

  0
STYLE
  5
20E
100
AcDbSymbolTableRecord
100
AcDbTextStyleTableRecord
  2
TEXTSTYLE_1
 70
0
 40
0.0
 41
0.8
 50
0.0
 71
0
 42
0.2
  3
gdt
  4

  0
ENDTAB
  0
TABLE
  2
VIEW
  5
6
100
AcDbSymbolTable
 70
0
  0
ENDTAB
  0
TABLE
  2
UCS
  5
7
100
AcDbSymbolTable
 70
0
  0
ENDTAB
  0
TABLE
  2
APPID
  5
9
100
AcDbSymbolTable
 70
1
  0
APPID
  5
20F
100
AcDbSymbolTableRecord
100
AcDbRegAppTableRecord
  2
ACAD
 70
0
  0
ENDTAB
  0
TABLE
  2
BLOCK_RECORD
  5
1
100
AcDbSymbolTable
 70
0
  0
BLOCK_RECORD
  5
210
100
AcDbSymbolTableRecord
100
AcDbBlockTableRecord
  2
*Model_Space
  0
BLOCK_RECORD
  5
211
100
AcDbSymbolTableRecord
100
AcDbBlockTableRecord
  2
*Paper_Space
  0
BLOCK_RECORD
  5
212
100
AcDbSymbolTableRecord
100
AcDbBlockTableRecord
  2
_FILLED
  0
ENDTAB
  0
TABLE
  2
DIMSTYLE
  5
A
100
AcDbSymbolTable
 70
1
100
AcDbDimStyleTable
 71
0
  0
DIMSTYLE
105
213
100
AcDbSymbolTableRecord
100
AcDbDimStyleTableRecord
  2
STANDARD
 70
0
  3

  4

 40
1.0
 41
0.4490867729
 42
1.0
 43
0.38
 44
1.0
 45
0.0
 46
0.0
 47
0.01
 48
0.01
140
0.6287214821
141
0.09
142
0.0
143
25.4
144
1.0
145
0.0
146
1.0
147
0.625
 71
1
 72
0
 73
0
 74
0
 75
0
 76
0
 77
1
 78
8
 79
2
170
0
171
1
172
0
173
0
174
0
175
0
176
0
177
0
178
0
270
2
179
2
271
2
272
2
273
2
274
2
275
0
280
0
281
0
282
0
283
1
284
8
285
0
286
0
287
3
288
0
340
11
278
46
341
212
342
212
343
212
344
212
  0
ENDTAB
  0
ENDSEC
  0
SECTION
  2
BLOCKS
  0
BLOCK
  5
20
100
AcDbEntity
  8
0
100
AcDbBlockBegin
  2
*Model_Space
 70
0
 10
0.0
 20
0.0
 30
0.0
  3
*Model_Space
  1

  0
ENDBLK
  5
21
100
AcDbEntity
  8
0
100
AcDbBlockEnd
  0
BLOCK
  5
1C
100
AcDbEntity
  8
0
100
AcDbBlockBegin
  2
*Paper_Space
 70
0
 10
0.0
 20
0.0
 30
0.0
  3
*Paper_Space
  1

  0
ENDBLK
  5
1D
100
AcDbEntity
  8
0
100
AcDbBlockEnd
  0
BLOCK
  5
214
100
AcDbEntity
  8
0
100
AcDbBlockBegin
  2
_FILLED
 70
64
 10
0.0
 20
0.0
  3
_FILLED
  1

  0
SOLID
  5
215
100
AcDbEntity
  8
0
  6
BYBLOCK
 62
0
100
AcDbTrace
 10
0.0
 20
0.0
 11
-1.0
 21
0.25
 12
-1.0
 22
-0.25
 13
-1.0
 23
-0.25
  0
ENDBLK
  5
216
100
AcDbEntity
  8
0
  6
BYBLOCK
 62
0
100
AcDbBlockEnd
  0
ENDSEC
  0
SECTION
  2
ENTITIES
  0
LINE
  5
217
100
AcDbEntity
  8
0
100
AcDbLine
 62
7
  6
BYLAYER
 10
18.5513986584
 20
7.5625402701
 11
5.8514161274
 21
7.5625402701
  0
LINE
  5
218
100
AcDbEntity
  8
0
100
AcDbLine
 62
7
  6
BYLAYER
 10
5.8514161274
 20
9.9625402701
 11
18.5513986584
 21
9.9625402701
  0
LINE
  5
219
100
AcDbEntity
  8
0
100
AcDbLine
 62
7
  6
BYLAYER
 10
4.2014073929
 20
31.8068411115
 11
4.2014073929
 21
15.2625402701
  0
LINE
  5
21A
100
AcDbEntity
  8
0
100
AcDbLine
 62
7
  6
BYLAYER
 10
5.9548368294
 20
42.92969727
 11
4.2014073929
 21
31.8068411115
  0
LINE
  5
21B
100
AcDbEntity
  8
0
100
AcDbLine
 62
7
  6
BYLAYER
 10
18.5513986584
 20
11.1625402701
 11
5.8514161274
 21
11.1625402701
  0
LINE
  5
21C
100
AcDbEntity
  8
0
100
AcDbLine
 62
7
  6
BYLAYER
 10
5.5014073929
 20
13.6125402701
 11
5.5014073929
 21
15.2625402701
  0
LINE
  5
21D
100
AcDbEntity
  8
0
100
AcDbLine
 62
7
  6
BYLAYER
 10
5.8514073929
 20
12.3125402701
 11
5.8514073929
 21
11.1625402701
  0
LINE
  5
21E
100
AcDbEntity
  8
0
100
AcDbLine
 62
7
  6
BYLAYER
 10
5.8514073929
 20
9.9625402701
 11
5.8514073929
 21
7.5625402701
  0
LINE
  5
21F
100
AcDbEntity
  8
0
100
AcDbLine
 62
7
  6
BYLAYER
 10
6.6014073929
 20
11.1625402701
 11
6.6014073929
 21
9.9625402701
  0
LINE
  5
220
100
AcDbEntity
  8
0
100
AcDbLine
 62
7
  6
BYLAYER
 10
5.8514161274
 20
12.3125402701
 11
18.5513986584
 21
12.3125402701
  0
LINE
  5
221
100
AcDbEntity
  8
0
100
AcDbLine
 62
7
  6
BYLAYER
 10
18.9014073929
 20
13.6125402701
 11
5.5014073929
 21
13.6125402701
  0
LINE
  5
222
100
AcDbEntity
  8
0
100
AcDbLine
 62
7
  6
BYLAYER
 10
6.7014073929
 20
13.6125402701
 11
6.7014073929
 21
12.3125402701
  0
LINE
  5
223
100
AcDbEntity
  8
0
100
AcDbLine
 62
7
  6
BYLAYER
 10
20.2014073929
 20
15.2625402701
 11
4.2014073929
 21
15.2625402701
  0
LINE
  5
224
100
AcDbEntity
  8
0
100
AcDbLine
 62
7
  6
BYLAYER
 10
32.2014073929
 20
16.2625402701
 11
20.2014073929
 21
16.2625402701
  0
LINE
  5
225
100
AcDbEntity
  8
0
100
AcDbLine
 62
7
  6
BYLAYER
 10
12.2014073439
 20
45.2505712693
 11
12.201407258
 21
42.7377878763
  0
LINE
  5
226
100
AcDbEntity
  8
0
100
AcDbLine
 62
7
  6
BYLAYER
 10
12.2014073929
 20
21.1394346445
 11
12.2014073932
 21
31.9616069556
  0
LINE
  5
227
100
AcDbEntity
  8
0
100
AcDbLine
 62
7
  6
BYLAYER
 10
32.7014073929
 20
19.7625402701
 11
32.2014073929
 21
19.7625402701
  0
LINE
  5
228
100
AcDbEntity
  8
0
100
AcDbLine
 62
7
  6
BYLAYER
 10
32.7014073929
 20
20.2799295765
 11
34.3014073929
 21
20.2799295765
  0
LINE
  5
229
100
AcDbEntity
  8
0
100
AcDbLine
 62
7
  6
BYLAYER
 10
34.3014073929
 20
20.3418729971
 11
32.7014073929
 21
20.3418729971
  0
LINE
  5
22A
100
AcDbEntity
  8
0
100
AcDbLine
 62
7
  6
BYLAYER
 10
32.7014073929
 20
20.5575428406
 11
34.3014073929
 21
20.5575428406
  0
LINE
  5
22B
100
AcDbEntity
  8
0
100
AcDbLine
 62
7
  6
BYLAYER
 10
34.3014073929
 20
20.7391517605
 11
32.7014073929
 21
20.7391517605
  0
LINE
  5
22C
100
AcDbEntity
  8
0
100
AcDbLine
 62
7
  6
BYLAYER
 10
32.2014073929
 20
21.1394346445
 11
12.2014073929
 21
21.1394346445
  0
LINE
  5
22D
100
AcDbEntity
  8
0
100
AcDbLine
 62
7
  6
BYLAYER
 10
32.7014073929
 20
21.1557939041
 11
34.3014073929
 21
21.1557939041
  0
LINE
  5
22E
100
AcDbEntity
  8
0
100
AcDbLine
 62
7
  6
BYLAYER
 10
34.3014073929
 20
21.4446919756
 11
32.7014073929
 21
21.4446919756
  0
LINE
  5
22F
100
AcDbEntity
  8
0
100
AcDbLine
 62
7
  6
BYLAYER
 10
32.7014073929
 20
21.9915099128
 11
34.5014073929
 21
21.9915099128
  0
LINE
  5
230
100
AcDbEntity
  8
0
100
AcDbLine
 62
7
  6
BYLAYER
 10
32.7014073929
 20
22.0339129457
 11
34.3014073929
 21
22.0339129457
  0
LINE
  5
231
100
AcDbEntity
  8
0
100
AcDbLine
 62
7
  6
BYLAYER
 10
34.3014073929
 20
22.4104122427
 11
32.7014073929
 21
22.4104122427
  0
LINE
  5
232
100
AcDbEntity
  8
0
100
AcDbLine
 62
7
  6
BYLAYER
 10
32.7014073929
 20
22.8501619905
 11
34.5014073929
 21
22.8501619905
  0
LINE
  5
233
100
AcDbEntity
  8
0
100
AcDbLine
 62
7
  6
BYLAYER
 10
34.5014073929
 20
23.0994374882
 11
32.7014073929
 21
23.0994374882
  0
LINE
  5
234
100
AcDbEntity
  8
0
100
AcDbLine
 62
7
  6
BYLAYER
 10
32.7014073929
 20
23.1320576039
 11
34.3014073929
 21
23.1320576039
  0
LINE
  5
235
100
AcDbEntity
  8
0
100
AcDbLine
 62
7
  6
BYLAYER
 10
17.7014073929
 20
13.6125402701
 11
17.7014073929
 21
12.3125402701
  0
LINE
  5
236
100
AcDbEntity
  8
0
100
AcDbLine
 62
7
  6
BYLAYER
 10
17.8014073929
 20
11.1625402701
 11
17.8014073929
 21
9.9625402701
  0
LINE
  5
237
100
AcDbEntity
  8
0
100
AcDbLine
 62
7
  6
BYLAYER
 10
34.3014073929
 20
23.5705003215
 11
32.7014073929
 21
23.5705003215
  0
LINE
  5
238
100
AcDbEntity
  8
0
100
AcDbLine
 62
7
  6
BYLAYER
 10
32.7014073929
 20
23.8732136613
 11
34.5014073929
 21
23.8732136613
  0
LINE
  5
239
100
AcDbEntity
  8
0
100
AcDbLine
 62
7
  6
BYLAYER
 10
34.5014073929
 20
24.1049274462
 11
32.7014073929
 21
24.1049274462
  0
LINE
  5
23A
100
AcDbEntity
  8
0
100
AcDbLine
 62
7
  6
BYLAYER
 10
32.7014073929
 20
24.2464036367
 11
34.5014073929
 21
24.2464036367
  0
LINE
  5
23B
100
AcDbEntity
  8
0
100
AcDbLine
 62
7
  6
BYLAYER
 10
32.7014073929
 20
24.3753911351
 11
34.3014073929
 21
24.3753911351
  0
LINE
  5
23C
100
AcDbEntity
  8
0
100
AcDbLine
 62
7
  6
BYLAYER
 10
34.3014073929
 20
24.8458981266
 11
32.7014073929
 21
24.8458981266
  0
LINE
  5
23D
100
AcDbEntity
  8
0
100
AcDbLine
 62
7
  6
BYLAYER
 10
32.7014073929
 20
24.9909456446
 11
34.5014073929
 21
24.9909456446
  0
LINE
  5
23E
100
AcDbEntity
  8
0
100
AcDbLine
 62
7
  6
BYLAYER
 10
18.5514073929
 20
12.3125402701
 11
18.5514073929
 21
11.1625402701
  0
LINE
  5
23F
100
AcDbEntity
  8
0
100
AcDbLine
 62
7
  6
BYLAYER
 10
18.5514073929
 20
9.9625402701
 11
18.5514073929
 21
7.5625402701
  0
LINE
  5
240
100
AcDbEntity
  8
0
100
AcDbLine
 62
7
  6
BYLAYER
 10
18.9014073929
 20
13.6125402701
 11
18.9014073929
 21
15.2625402701
  0
LINE
  5
241
100
AcDbEntity
  8
0
100
AcDbLine
 62
7
  6
BYLAYER
 10
34.5014073929
 20
25.1893068051
 11
32.7014073929
 21
25.1893068051
  0
LINE
  5
242
100
AcDbEntity
  8
0
100
AcDbLine
 62
7
  6
BYLAYER
 10
32.7014073929
 20
25.3357737357
 11
34.5014073929
 21
25.3357737357
  0
LINE
  5
243
100
AcDbEntity
  8
0
100
AcDbLine
 62
7
  6
BYLAYER
 10
34.5014073929
 20
25.5341348957
 11
32.7014073929
 21
25.5341348957
  0
LINE
  5
244
100
AcDbEntity
  8
0
100
AcDbLine
 62
7
  6
BYLAYER
 10
32.7014073929
 20
25.6791824137
 11
34.3014073929
 21
25.6791824137
  0
LINE
  5
245
100
AcDbEntity
  8
0
100
AcDbLine
 62
7
  6
BYLAYER
 10
34.3014073929
 20
26.1496894052
 11
32.7014073929
 21
26.1496894052
  0
LINE
  5
246
100
AcDbEntity
  8
0
100
AcDbLine
 62
7
  6
BYLAYER
 10
34.5014073929
 20
26.2786769035
 11
32.7014073929
 21
26.2786769035
  0
LINE
  5
247
100
AcDbEntity
  8
0
100
AcDbLine
 62
7
  6
BYLAYER
 10
32.7014073929
 20
26.4201530952
 11
34.5014073929
 21
26.4201530952
  0
LINE
  5
248
100
AcDbEntity
  8
0
100
AcDbLine
 62
7
  6
BYLAYER
 10
34.5014073929
 20
26.6518668789
 11
32.7014073929
 21
26.6518668789
  0
LINE
  5
249
100
AcDbEntity
  8
0
100
AcDbLine
 62
7
  6
BYLAYER
 10
20.2014073929
 20
16.2625402701
 11
20.2014073929
 21
15.2625402701
  0
LINE
  5
24A
100
AcDbEntity
  8
0
100
AcDbLine
 62
7
  6
BYLAYER
 10
32.7014073929
 20
26.9545802188
 11
34.3014073929
 21
26.9545802188
  0
LINE
  5
24B
100
AcDbEntity
  8
0
100
AcDbLine
 62
7
  6
BYLAYER
 10
34.3014073929
 20
27.3930229363
 11
32.7014073929
 21
27.3930229363
  0
LINE
  5
24C
100
AcDbEntity
  8
0
100
AcDbLine
 62
7
  6
BYLAYER
 10
32.7014073929
 20
27.4256430537
 11
34.5014073929
 21
27.4256430537
  0
LINE
  5
24D
100
AcDbEntity
  8
0
100
AcDbLine
 62
7
  6
BYLAYER
 10
34.5014073929
 20
27.6749185497
 11
32.7014073929
 21
27.6749185497
  0
LINE
  5
24E
100
AcDbEntity
  8
0
100
AcDbLine
 62
7
  6
BYLAYER
 10
32.7014073929
 20
28.1146682976
 11
34.3014073929
 21
28.1146682976
  0
LINE
  5
24F
100
AcDbEntity
  8
0
100
AcDbLine
 62
7
  6
BYLAYER
 10
18.4479779564
 20
42.9296972699
 11
19.4150035643
 21
36.7953832712
  0
LINE
  5
250
100
AcDbEntity
  8
0
100
AcDbLine
 62
7
  6
BYLAYER
 10
34.3014073929
 20
28.4911675946
 11
32.7014073929
 21
28.4911675946
  0
LINE
  5
251
100
AcDbEntity
  8
0
100
AcDbLine
 62
7
  6
BYLAYER
 10
34.5014073929
 20
28.5335706274
 11
32.7014073929
 21
28.5335706274
  0
LINE
  5
252
100
AcDbEntity
  8
0
100
AcDbLine
 62
7
  6
BYLAYER
 10
32.7014073929
 20
29.0803885646
 11
34.3014073929
 21
29.0803885646
  0
LINE
  5
253
100
AcDbEntity
  8
0
100
AcDbLine
 62
7
  6
BYLAYER
 10
34.3014073929
 20
29.3692866362
 11
32.7014073929
 21
29.3692866362
  0
LINE
  5
254
100
AcDbEntity
  8
0
100
AcDbLine
 62
7
  6
BYLAYER
 10
32.7014073929
 20
29.7859287798
 11
34.3014073929
 21
29.7859287798
  0
LWPOLYLINE
  5
255
100
AcDbEntity
  8
0
100
AcDbPolyline
 62
7
  6
BYLAYER
 90
6
 70
0
 10
18.4479779546
 20
42.9296972696
 10
18.3119922763
 20
43.4653885196
 10
17.6627623453
 20
44.5254252754
 10
17.1880497163
 20
44.9319875182
 10
16.0408010514
 20
45.4105245328
 10
15.484573774
 20
45.4625402696
  0
LINE
  5
256
100
AcDbEntity
  8
0
100
AcDbLine
 62
7
  6
BYLAYER
 10
34.3014073929
 20
29.9675376997
 11
32.7014073929
 21
29.9675376997
  0
LINE
  5
257
100
AcDbEntity
  8
0
100
AcDbLine
 62
7
  6
BYLAYER
 10
32.7014073929
 20
30.1832075432
 11
34.3014073929
 21
30.1832075432
  0
LINE
  5
258
100
AcDbEntity
  8
0
100
AcDbLine
 62
7
  6
BYLAYER
 10
34.3014073929
 20
30.2451509638
 11
32.7014073929
 21
30.2451509638
  0
LINE
  5
259
100
AcDbEntity
  8
0
100
AcDbLine
 62
7
  6
BYLAYER
 10
32.7014073929
 20
30.7625402701
 11
32.2014073929
 21
30.7625402701
  0
LINE
  5
25A
100
AcDbEntity
  8
0
100
AcDbLine
 62
7
  6
BYLAYER
 10
12.2014073929
 20
31.6501665054
 11
32.2014073929
 21
31.6501665054
  0
LINE
  5
25B
100
AcDbEntity
  8
0
100
AcDbLine
 62
7
  6
BYLAYER
 10
8.176191995
 20
31.8068767122
 11
4.2014073929
 21
31.8068409592
  0
LINE
  5
25C
100
AcDbEntity
  8
0
100
AcDbLine
 62
7
  6
BYLAYER
 10
32.2014073929
 20
33.6089292148
 11
19.7338851458
 21
33.6089292148
  0
LINE
  5
25D
100
AcDbEntity
  8
0
100
AcDbLine
 62
7
  6
BYLAYER
 10
32.2014073929
 20
34.2625402701
 11
22.3784077456
 21
34.2625402701
  0
LWPOLYLINE
  5
25E
100
AcDbEntity
  8
0
100
AcDbPolyline
 62
7
  6
BYLAYER
 90
6
 70
0
 10
22.3784077455
 20
34.2625402679
 10
21.8280739769
 20
34.3134501128
 10
20.6798723161
 20
34.7896922344
 10
20.2043483439
 20
35.1953040157
 10
19.5530006825
 20
36.2540389334
 10
19.4150035614
 20
36.7953832707
  0
LINE
  5
25F
100
AcDbEntity
  8
0
100
AcDbLine
 62
7
  6
BYLAYER
 10
32.2014073929
 20
16.2625476116
 11
32.2014073929
 21
34.2625371683
  0
LINE
  5
260
100
AcDbEntity
  8
0
100
AcDbLine
 62
7
  6
BYLAYER
 10
32.7014073929
 20
30.7624925217
 11
32.7014073929
 21
19.7625880185
  0
LINE
  5
261
100
AcDbEntity
  8
0
100
AcDbLine
 62
7
  6
BYLAYER
 10
34.3014073929
 20
30.2451509638
 11
34.3014073929
 21
30.1832075432
  0
LINE
  5
262
100
AcDbEntity
  8
0
100
AcDbLine
 62
7
  6
BYLAYER
 10
34.3014073929
 20
29.9675376997
 11
34.3014073929
 21
29.7859287798
  0
LINE
  5
263
100
AcDbEntity
  8
0
100
AcDbLine
 62
7
  6
BYLAYER
 10
34.3014073929
 20
29.3692866362
 11
34.3014073929
 21
29.0803885646
  0
LINE
  5
264
100
AcDbEntity
  8
0
100
AcDbLine
 62
7
  6
BYLAYER
 10
34.3014073929
 20
28.4911675946
 11
34.3014073929
 21
28.1146682976
  0
LINE
  5
265
100
AcDbEntity
  8
0
100
AcDbLine
 62
7
  6
BYLAYER
 10
34.3014073929
 20
27.3930229363
 11
34.3014073929
 21
26.9545802188
  0
LINE
  5
266
100
AcDbEntity
  8
0
100
AcDbLine
 62
7
  6
BYLAYER
 10
34.3014073929
 20
26.1496894052
 11
34.3014073929
 21
25.6791824137
  0
LINE
  5
267
100
AcDbEntity
  8
0
100
AcDbLine
 62
7
  6
BYLAYER
 10
34.3014073929
 20
24.8458981266
 11
34.3014073929
 21
24.3753911351
  0
LINE
  5
268
100
AcDbEntity
  8
0
100
AcDbLine
 62
7
  6
BYLAYER
 10
34.3014073929
 20
23.5705003215
 11
34.3014073929
 21
23.1320576039
  0
LINE
  5
269
100
AcDbEntity
  8
0
100
AcDbLine
 62
7
  6
BYLAYER
 10
34.3014073929
 20
22.4104122427
 11
34.3014073929
 21
22.0339129457
  0
LINE
  5
26A
100
AcDbEntity
  8
0
100
AcDbLine
 62
7
  6
BYLAYER
 10
34.3014073929
 20
21.4446919756
 11
34.3014073929
 21
21.1557939041
  0
LINE
  5
26B
100
AcDbEntity
  8
0
100
AcDbLine
 62
7
  6
BYLAYER
 10
34.3014073929
 20
20.7391517605
 11
34.3014073929
 21
20.5575428406
  0
LINE
  5
26C
100
AcDbEntity
  8
0
100
AcDbLine
 62
7
  6
BYLAYER
 10
34.3014073929
 20
20.3418729971
 11
34.3014073929
 21
20.2799295765
  0
LINE
  5
26D
100
AcDbEntity
  8
0
100
AcDbLine
 62
7
  6
BYLAYER
 10
34.5014073929
 20
30.0481683841
 11
34.5014073929
 21
20.5439138749
  0
LINE
  5
26E
100
AcDbEntity
  8
0
100
AcDbLine
 62
7
  6
BYLAYER
 10
15.4845737741
 20
45.4625402701
 11
8.9182410117
 21
45.4625402701
  0
LWPOLYLINE
  5
26F
100
AcDbEntity
  8
0
100
AcDbPolyline
 62
7
  6
BYLAYER
 90
6
 70
0
 10
8.9182410117
 20
45.4625402696
 10
8.3620137274
 20
45.4105245315
 10
7.214765063
 20
44.9319875137
 10
6.740052435
 20
44.5254252697
 10
6.0908225068
 20
43.4653885121
 10
5.9548368311
 20
42.9296972697
  0
ARC
  5
270
100
AcDbEntity
  8
0
100
AcDbCircle
 62
7
  6
BYLAYER
 10
12.2012401647
 20
83.4335262321
 40
51.7833553218
100
AcDbArc
 50
265.5419787523
 51
270.0001850299
  0
SPLINE
  5
271
100
AcDbEntity
  8
0
100
AcDbSpline
 62
7
  6
BYLAYER
 70
0
 71
3
 72
11
 73
7
 74
0
 42
0.0000001
 43
0.0000001
 44
0.0000000001
 40
0.0
 40
0.0
 40
0.0
 40
0.0
 40
0.2470598091
 40
0.4958055254
 40
0.7470146201
 40
1.0
 40
1.0
 40
1.0
 40
1.0
 10
34.5014073929
 20
30.0481683841
 30
0.0
 10
34.5014073929
 20
30.0736815851
 30
0.0
 10
34.4910486824
 20
30.1254531514
 30
0.0
 10
34.4466356204
 20
30.190910301
 30
0.0
 10
34.380168179
 20
30.2348790844
 30
0.0
 10
34.3275325117
 20
30.2451509638
 30
0.0
 10
34.3014073929
 20
30.2451509638
 30
0.0
  0
SPLINE
  5
272
100
AcDbEntity
  8
0
100
AcDbSpline
 62
7
  6
BYLAYER
 70
0
 71
3
 72
14
 73
10
 74
0
 42
0.0000001
 43
0.0000001
 44
0.0000000001
 40
0.0
 40
0.0
 40
0.0
 40
0.0
 40
0.1173488314
 40
0.2360988802
 40
0.3569142944
 40
0.4805947551
 40
0.6073003439
 40
0.7367555193
 40
1.0
 40
1.0
 40
1.0
 40
1.0
 10
34.5014073929
 20
29.7890374554
 30
0.0
 10
34.5014073929
 20
29.8006445816
 30
0.0
 10
34.4988119375
 20
29.8240732949
 30
0.0
 10
34.4874004831
 20
29.8577542725
 30
0.0
 10
34.4688139531
 20
29.8888138241
 30
0.0
 10
34.4437975522
 20
29.9160135135
 30
0.0
 10
34.4133089153
 20
29.938380434
 30
0.0
 10
34.3667695691
 20
29.9606328084
 30
0.0
 10
34.3274452482
 20
29.9675376997
 30
0.0
 10
34.3014073929
 20
29.9675376997
 30
0.0
  0
SPLINE
  5
273
100
AcDbEntity
  8
0
100
AcDbSpline
 62
7
  6
BYLAYER
 70
0
 71
3
 72
13
 73
9
 74
0
 42
0.0000001
 43
0.0000001
 44
0.0000000001
 40
0.0
 40
0.0
 40
0.0
 40
0.0
 40
0.1056187544
 40
0.2146725784
 40
0.3294278001
 40
0.4514700254
 40
0.7161196396
 40
1.0
 40
1.0
 40
1.0
 40
1.0
 10
34.5014073929
 20
29.221433224
 30
0.0
 10
34.5014073929
 20
29.2310737222
 30
0.0
 10
34.498746965
 20
29.2507567187
 30
0.0
 10
34.4871467164
 20
29.2788170262
 30
0.0
 10
34.4683888775
 20
29.3045476012
 30
0.0
 10
34.434048949
 20
29.3352332565
 30
0.0
 10
34.3776810507
 20
29.3621730738
 30
0.0
 10
34.3273189662
 20
29.3692866362
 30
0.0
 10
34.3014073929
 20
29.3692866362
 30
0.0
  0
SPLINE
  5
274
100
AcDbEntity
  8
0
100
AcDbSpline
 62
7
  6
BYLAYER
 70
0
 71
3
 72
15
 73
11
 74
0
 42
0.0000001
 43
0.0000001
 44
0.0000000001
 40
0.0
 40
0.0
 40
0.0
 40
0.0
 40
0.0857193605
 40
0.179026469
 40
0.2847325638
 40
0.4049961657
 40
0.5393330538
 40
0.685626728
 40
0.8407100518
 40
1.0
 40
1.0
 40
1.0
 40
1.0
 10
34.5014073929
 20
28.3840369802
 30
0.0
 10
34.5014073929
 20
28.3910766714
 30
0.0
 10
34.4985586124
 20
28.4058815679
 30
0.0
 10
34.4865654668
 20
28.4263520084
 30
0.0
 10
34.4676355459
 20
28.4448406094
 30
0.0
 10
34.4425805193
 20
28.4608738353
 30
0.0
 10
34.4122739474
 20
28.4740275899
 30
0.0
 10
34.3777547003
 20
28.4838002201
 30
0.0
 10
34.3403277897
 20
28.4898082517
 30
0.0
 10
34.3144890589
 20
28.4911675946
 30
0.0
 10
34.3014073929
 20
28.4911675946
 30
0.0
  0
SPLINE
  5
275
100
AcDbEntity
  8
0
100
AcDbSpline
 62
7
  6
BYLAYER
 70
0
 71
3
 72
17
 73
13
 74
0
 42
0.0000001
 43
0.0000001
 44
0.0000000001
 40
0.0
 40
0.0
 40
0.0
 40
0.0
 40
0.0266528047
 40
0.0558362885
 40
0.089344911
 40
0.1283013078
 40
0.2242762823
 40
0.3447589521
 40
0.487230968
 40
0.6475953792
 40
0.8207252812
 40
1.0
 40
1.0
 40
1.0
 40
1.0
 10
34.5014073929
 20
27.333915894
 30
0.0
 10
34.5014073929
 20
27.3358588445
 30
0.0
 10
34.5006891987
 20
27.3399521716
 30
0.0
 10
34.4976463844
 20
27.345794697
 30
0.0
 10
34.4927629302
 20
27.3514352998
 30
0.0
 10
34.4831885564
 20
27.3591946089
 30
0.0
 10
34.4665594972
 20
27.3678929457
 30
0.0
 10
34.4418144724
 20
27.3765214604
 30
0.0
 10
34.4117445626
 20
27.3836635844
 30
0.0
 10
34.3774312879
 20
27.3889940519
 30
0.0
 10
34.3401722579
 20
27.3922796803
 30
0.0
 10
34.3144762577
 20
27.3930229363
 30
0.0
 10
34.3014073929
 20
27.3930229363
 30
0.0
  0
SPLINE
  5
276
100
AcDbEntity
  8
0
100
AcDbSpline
 62
7
  6
BYLAYER
 70
0
 71
3
 72
21
 73
17
 74
0
 42
0.0000001
 43
0.0000001
 44
0.0000000001
 40
0.0
 40
0.0
 40
0.0
 40
0.0
 40
0.0020872533
 40
0.0060466938
 40
0.0206542973
 40
0.0444079582
 40
0.0772447515
 40
0.1188806813
 40
0.1689423175
 40
0.2270397253
 40
0.2926328938
 40
0.3650638552
 40
0.4436695735
 40
0.6164513807
 40
0.8045413647
 40
1.0
 40
1.0
 40
1.0
 40
1.0
 10
34.5014073929
 20
26.1426339823
 30
0.0
 10
34.5014073929
 20
26.1427734823
 30
0.0
 10
34.5010649803
 20
26.1431017731
 30
0.0
 10
34.4998101445
 20
26.143567882
 30
0.0
 10
34.4969903721
 20
26.1441602147
 30
0.0
 10
34.4922968198
 20
26.1447714034
 30
0.0
 10
34.485749735
 20
26.1454005372
 30
0.0
 10
34.4774525408
 20
26.1460054262
 30
0.0
 10
34.4674562388
 20
26.1465875879
 30
0.0
 10
34.4558568463
 20
26.1471342813
 30
0.0
 10
34.4427587217
 20
26.1476411681
 30
0.0
 10
34.4282877347
 20
26.1481027139
 30
0.0
 10
34.4066528153
 20
26.1486676061
 30
0.0
 10
34.3772852243
 20
26.1492102518
 30
0.0
 10
34.3401050281
 20
26.1496010748
 30
0.0
 10
34.3144707317
 20
26.1496894052
 30
0.0
 10
34.3014073929
 20
26.1496894052
 30
0.0
  0
SPLINE
  5
277
100
AcDbEntity
  8
0
100
AcDbSpline
 62
7
  6
BYLAYER
 70
0
 71
3
 72
11
 73
7
 74
0
 42
0.0000001
 43
0.0000001
 44
0.0000000001
 40
0.0
 40
0.0
 40
0.0
 40
0.0
 40
0.2529849483
 40
0.5041878768
 40
0.7529305806
 40
1.0
 40
1.0
 40
1.0
 40
1.0
 10
34.3014073929
 20
20.2799295765
 30
0.0
 10
34.3275324752
 20
20.2799295765
 30
0.0
 10
34.3801674998
 20
20.2902012226
 30
0.0
 10
34.4466342169
 20
20.3341690889
 30
0.0
 10
34.4910482817
 20
20.3996255831
 30
0.0
 10
34.5014073929
 20
20.4513979548
 30
0.0
 10
34.5014073929
 20
20.4769121562
 30
0.0
  0
SPLINE
  5
278
100
AcDbEntity
  8
0
100
AcDbSpline
 62
7
  6
BYLAYER
 70
0
 71
3
 72
14
 73
10
 74
0
 42
0.0000001
 43
0.0000001
 44
0.0000000001
 40
0.0
 40
0.0
 40
0.0
 40
0.0
 40
0.2632441331
 40
0.3926959571
 40
0.5193987256
 40
0.6430762565
 40
0.7638919727
 40
0.8826476779
 40
1.0
 40
1.0
 40
1.0
 40
1.0
 10
34.3014073929
 20
20.5575428406
 30
0.0
 10
34.3274452128
 20
20.5575428406
 30
0.0
 10
34.3667692086
 20
20.5644475328
 30
0.0
 10
34.4133079305
 20
20.586699646
 30
0.0
 10
34.4437961082
 20
20.6090656594
 30
0.0
 10
34.468812348
 20
20.6362646945
 30
0.0
 10
34.487399908
 20
20.6673240519
 30
0.0
 10
34.4988110914
 20
20.7010061041
 30
0.0
 10
34.5014073929
 20
20.7244356139
 30
0.0
 10
34.5014073929
 20
20.7360430848
 30
0.0
  0
SPLINE
  5
279
100
AcDbEntity
  8
0
100
AcDbSpline
 62
7
  6
BYLAYER
 70
0
 71
3
 72
13
 73
9
 74
0
 42
0.0000001
 43
0.0000001
 44
0.0000000001
 40
0.0
 40
0.0
 40
0.0
 40
0.0
 40
0.2838799929
 40
0.5485235363
 40
0.6705631607
 40
0.7853190388
 40
0.8943780386
 40
1.0
 40
1.0
 40
1.0
 40
1.0
 10
34.3014073929
 20
21.1557939041
 30
0.0
 10
34.3273189324
 20
21.1557939041
 30
0.0
 10
34.3776804201
 20
21.1629073238
 30
0.0
 10
34.4340476737
 20
21.1898465013
 30
0.0
 10
34.4683872803
 20
21.2205312908
 30
0.0
 10
34.4871461001
 20
21.2462616112
 30
0.0
 10
34.4987461257
 20
21.2743228873
 30
0.0
 10
34.5014073929
 20
21.2940065255
 30
0.0
 10
34.5014073929
 20
21.3036473162
 30
0.0
  0
SPLINE
  5
27A
100
AcDbEntity
  8
0
100
AcDbSpline
 62
7
  6
BYLAYER
 70
0
 71
3
 72
15
 73
11
 74
0
 42
0.0000001
 43
0.0000001
 44
0.0000000001
 40
0.0
 40
0.0
 40
0.0
 40
0.0
 40
0.1592906349
 40
0.314372953
 40
0.4606629413
 40
0.5949973818
 40
0.7152589167
 40
0.8209663235
 40
0.9142778552
 40
1.0
 40
1.0
 40
1.0
 40
1.0
 10
34.3014073929
 20
22.0339129457
 30
0.0
 10
34.3144891113
 20
22.0339129457
 30
0.0
 10
34.3403277988
 20
22.0352723697
 30
0.0
 10
34.3777544026
 20
22.0412801915
 30
0.0
 10
34.4122730422
 20
22.0510527178
 30
0.0
 10
34.4425791273
 20
22.06420591
 30
0.0
 10
34.4676339622
 20
22.0802388006
 30
0.0
 10
34.4865647712
 20
22.0987270469
 30
0.0
 10
34.4985577818
 20
22.1191983141
 30
0.0
 10
34.5014073929
 20
22.1340036424
 30
0.0
 10
34.5014073929
 20
22.1410435601
 30
0.0
  0
SPLINE
  5
27B
100
AcDbEntity
  8
0
100
AcDbSpline
 62
7
  6
BYLAYER
 70
0
 71
3
 72
17
 73
13
 74
0
 42
0.0000001
 43
0.0000001
 44
0.0000000001
 40
0.0
 40
0.0
 40
0.0
 40
0.0
 40
0.1792755284
 40
0.3524043822
 40
0.5127648239
 40
0.655234585
 40
0.7757157837
 40
0.8716930304
 40
0.9106508513
 40
0.9441614041
 40
0.973346618
 40
1.0
 40
1.0
 40
1.0
 40
1.0
 10
34.3014073929
 20
23.1320576039
 30
0.0
 10
34.3144763096
 20
23.1320576039
 30
0.0
 10
34.340172275
 20
23.1328009064
 30
0.0
 10
34.3774309901
 20
23.1360864145
 30
0.0
 10
34.4117437059
 20
23.1414168443
 30
0.0
 10
34.4418131138
 20
23.1485586361
 30
0.0
 10
34.4665580004
 20
23.157187061
 30
0.0
 10
34.4831874901
 20
23.1658849653
 30
0.0
 10
34.4927621082
 20
23.1736446426
 30
0.0
 10
34.4976457666
 20
23.1792855314
 30
0.0
 10
34.5006889827
 20
23.1851281702
 30
0.0
 10
34.5014073929
 20
23.1892216547
 30
0.0
 10
34.5014073929
 20
23.1911646462
 30
0.0
  0
SPLINE
  5
27C
100
AcDbEntity
  8
0
100
AcDbSpline
 62
7
  6
BYLAYER
 70
0
 71
3
 72
21
 73
17
 74
0
 42
0.0000001
 43
0.0000001
 44
0.0000000001
 40
0.0
 40
0.0
 40
0.0
 40
0.0
 40
0.1954594413
 40
0.3835482314
 40
0.556325713
 40
0.6349297464
 40
0.7073601129
 40
0.7729528721
 40
0.8310494932
 40
0.8811122047
 40
0.9227500702
 40
0.9555879172
 40
0.9793430472
 40
0.9939525184
 40
0.9979125837
 40
1.0
 40
1.0
 40
1.0
 40
1.0
 10
34.3014073929
 20
24.3753911351
 30
0.0
 10
34.3144707833
 20
24.3753911351
 30
0.0
 10
34.3401050494
 20
24.3754794704
 30
0.0
 10
34.3772849243
 20
24.3758702818
 30
0.0
 10
34.4066520289
 20
24.3764129157
 30
0.0
 10
34.4282865032
 20
24.3769777972
 30
0.0
 10
34.4427573086
 20
24.3774393207
 30
0.0
 10
34.4558553124
 20
24.3779461803
 30
0.0
 10
34.4674546946
 20
24.3784928715
 30
0.0
 10
34.4774511454
 20
24.3790750193
 30
0.0
 10
34.4857486095
 20
24.3796798865
 30
0.0
 10
34.492295996
 20
24.3803090638
 30
0.0
 10
34.4969898196
 20
24.3809202969
 30
0.0
 10
34.4998098892
 20
24.3815126592
 30
0.0
 10
34.5010648753
 20
24.3819787526
 30
0.0
 10
34.5014073929
 20
24.382307047
 30
0.0
 10
34.5014073929
 20
24.382446558
 30
0.0
  0
SPLINE
  5
27D
100
AcDbEntity
  8
0
100
AcDbSpline
 62
7
  6
BYLAYER
 70
0
 71
3
 72
15
 73
11
 74
0
 42
0.0000001
 43
0.0000001
 44
0.0000000001
 40
0.0
 40
0.0
 40
0.0
 40
0.0
 40
0.1643926799
 40
0.3240439335
 40
0.4738174519
 40
0.6100354876
 40
0.7301033625
 40
0.8331462764
 40
0.9212521201
 40
1.0
 40
1.0
 40
1.0
 40
1.0
 10
34.3014073929
 20
26.9545802188
 30
0.0
 10
34.3144851535
 20
26.9545802188
 30
0.0
 10
34.3402798912
 20
26.9533792114
 30
0.0
 10
34.3776561292
 20
26.9480709292
 30
0.0
 10
34.4121182886
 20
26.9394417111
 30
0.0
 10
34.4423653941
 20
26.9278381477
 30
0.0
 10
34.4673701546
 20
26.913714232
 30
0.0
 10
34.486307367
 20
26.8974340712
 30
0.0
 10
34.4984510265
 20
26.8793070294
 30
0.0
 10
34.5014073929
 20
26.8659345038
 30
0.0
 10
34.5014073929
 20
26.8596699553
 30
0.0
  0
SPLINE
  5
27E
100
AcDbEntity
  8
0
100
AcDbSpline
 62
7
  6
BYLAYER
 70
0
 71
3
 72
11
 73
7
 74
0
 42
0.0000001
 43
0.0000001
 44
0.0000000001
 40
0.0
 40
0.0
 40
0.0
 40
0.0
 40
0.2500464975
 40
0.5000473667
 40
0.7500120773
 40
1.0
 40
1.0
 40
1.0
 40
1.0
 10
34.3014073929
 20
30.1832075432
 30
0.0
 10
34.3275578
 20
30.1832075432
 30
0.0
 10
34.3804450071
 20
30.1725780921
 30
0.0
 10
34.4469188447
 20
30.1272860929
 30
0.0
 10
34.4911392785
 20
30.0601607711
 30
0.0
 10
34.5014073929
 20
30.0073109466
 30
0.0
 10
34.5014073929
 20
29.9811666654
 30
0.0
  0
SPLINE
  5
27F
100
AcDbEntity
  8
0
100
AcDbSpline
 62
7
  6
BYLAYER
 70
0
 71
3
 72
18
 73
14
 74
0
 42
0.0000001
 43
0.0000001
 44
0.0000000001
 40
0.0
 40
0.0
 40
0.0
 40
0.0
 40
0.1846298095
 40
0.3626681625
 40
0.5270159836
 40
0.6720751957
 40
0.7932101637
 40
0.8437224447
 40
0.8872748507
 40
0.9239055642
 40
0.9540152767
 40
0.9786819957
 40
1.0
 40
1.0
 40
1.0
 40
1.0
 10
34.3014073929
 20
25.6791824137
 30
0.0
 10
34.3144740225
 20
25.6791824137
 30
0.0
 10
34.3401447427
 20
25.6786115762
 30
0.0
 10
34.3773700946
 20
25.6760872506
 30
0.0
 10
34.4116444009
 20
25.6719972934
 30
0.0
 10
34.441636346
 20
25.6665166666
 30
0.0
 10
34.4633401137
 20
25.6607351971
 30
0.0
 10
34.4776103395
 20
25.6553765803
 30
0.0
 10
34.485980944
 20
25.6514088838
 30
0.0
 10
34.4926312713
 20
25.6472769912
 30
0.0
 10
34.4975199457
 20
25.6429781948
 30
0.0
 10
34.5006336958
 20
25.6384887018
 30
0.0
 10
34.5014073929
 20
25.6352141206
 30
0.0
 10
34.5014073929
 20
25.6337054018
 30
0.0
  0
SPLINE
  5
280
100
AcDbEntity
  8
0
100
AcDbSpline
 62
7
  6
BYLAYER
 70
0
 71
3
 72
11
 73
7
 74
0
 42
0.0000001
 43
0.0000001
 44
0.0000000001
 40
0.0
 40
0.0
 40
0.0
 40
0.0
 40
0.2551441038
 40
0.5072431083
 40
0.7550932419
 40
1.0
 40
1.0
 40
1.0
 40
1.0
 10
34.3014073929
 20
29.7859287798
 30
0.0
 10
34.3275145747
 20
29.7859287798
 30
0.0
 10
34.3799696334
 20
29.7759109511
 30
0.0
 10
34.4464231535
 20
29.732897947
 30
0.0
 10
34.4909779512
 20
29.66865447
 30
0.0
 10
34.5014073929
 20
29.6176580187
 30
0.0
 10
34.5014073929
 20
29.5925983557
 30
0.0
  0
SPLINE
  5
281
100
AcDbEntity
  8
0
100
AcDbSpline
 62
7
  6
BYLAYER
 70
0
 71
3
 72
11
 73
7
 74
0
 42
0.0000001
 43
0.0000001
 44
0.0000000001
 40
0.0
 40
0.0
 40
0.0
 40
0.0
 40
0.2499782149
 40
0.4999460329
 40
0.7499530723
 40
1.0
 40
1.0
 40
1.0
 40
1.0
 10
34.5014073929
 20
20.5439138749
 30
0.0
 10
34.5014073929
 20
20.5177706171
 30
0.0
 10
34.491139669
 20
20.4649216081
 30
0.0
 10
34.4469202559
 20
20.3977956432
 30
0.0
 10
34.3804456955
 20
20.3525026897
 30
0.0
 10
34.3275578369
 20
20.3418729971
 30
0.0
 10
34.3014073929
 20
20.3418729971
 30
0.0
  0
SPLINE
  5
282
100
AcDbEntity
  8
0
100
AcDbSpline
 62
7
  6
BYLAYER
 70
0
 71
3
 72
11
 73
7
 74
0
 42
0.0000001
 43
0.0000001
 44
0.0000000001
 40
0.0
 40
0.0
 40
0.0
 40
0.0
 40
0.2448972199
 40
0.4927502955
 40
0.7448554635
 40
1.0
 40
1.0
 40
1.0
 40
1.0
 10
34.5014073929
 20
20.9324821845
 30
0.0
 10
34.5014073929
 20
20.9074235052
 30
0.0
 10
34.4909783597
 20
20.856427852
 30
0.0
 10
34.4464245512
 20
20.7921837109
 30
0.0
 10
34.379970306
 20
20.7491698164
 30
0.0
 10
34.3275146109
 20
20.7391517605
 30
0.0
 10
34.3014073929
 20
20.7391517605
 30
0.0
  0
SPLINE
  5
283
100
AcDbEntity
  8
0
100
AcDbSpline
 62
7
  6
BYLAYER
 70
0
 71
3
 72
13
 73
9
 74
0
 42
0.0000001
 43
0.0000001
 44
0.0000000001
 40
0.0
 40
0.0
 40
0.0
 40
0.0
 40
0.1149507473
 40
0.2317140037
 40
0.3512949946
 40
0.4746835799
 40
0.7319783402
 40
1.0
 40
1.0
 40
1.0
 40
1.0
 10
34.5014073929
 20
21.6161367969
 30
0.0
 10
34.5014073929
 20
21.60498287
 30
0.0
 10
34.4987998092
 20
21.5824205229
 30
0.0
 10
34.4873524422
 20
21.5500310503
 30
0.0
 10
34.468722754
 20
21.5201902118
 30
0.0
 10
34.4349268943
 20
21.4849374004
 30
0.0
 10
34.3788057837
 20
21.4532278332
 30
0.0
 10
34.3274141313
 20
21.4446919756
 30
0.0
 10
34.3014073929
 20
21.4446919756
 30
0.0
  0
SPLINE
  5
284
100
AcDbEntity
  8
0
100
AcDbSpline
 62
7
  6
BYLAYER
 70
0
 71
3
 72
13
 73
9
 74
0
 42
0.0000001
 43
0.0000001
 44
0.0000000001
 40
0.0
 40
0.0
 40
0.0
 40
0.0
 40
0.2680212812
 40
0.5253099608
 40
0.6486956738
 40
0.7682770291
 40
0.8850458317
 40
1.0
 40
1.0
 40
1.0
 40
1.0
 10
34.3014073929
 20
29.0803885646
 30
0.0
 10
34.3274140963
 20
29.0803885646
 30
0.0
 10
34.3788051184
 20
29.0718528836
 30
0.0
 10
34.4349255717
 20
29.0401440906
 30
0.0
 10
34.4687211553
 20
29.0048922702
 30
0.0
 10
34.4873518575
 20
28.9750516322
 30
0.0
 10
34.4987989648
 20
28.9426611114
 30
0.0
 10
34.5014073929
 20
28.920098003
 30
0.0
 10
34.5014073929
 20
28.9089437433
 30
0.0
  0
SPLINE
  5
285
100
AcDbEntity
  8
0
100
AcDbSpline
 62
7
  6
BYLAYER
 70
0
 71
3
 72
13
 73
9
 74
0
 42
0.0000001
 43
0.0000001
 44
0.0000000001
 40
0.0
 40
0.0
 40
0.0
 40
0.0
 40
0.1012296878
 40
0.2067248356
 40
0.3193412073
 40
0.4408803601
 40
0.7090099601
 40
1.0
 40
1.0
 40
1.0
 40
1.0
 10
34.5014073929
 20
22.5482877801
 30
0.0
 10
34.5014073929
 20
22.5392862172
 30
0.0
 10
34.4987157992
 20
22.520810931
 30
0.0
 10
34.4870357509
 20
22.4945912677
 30
0.0
 10
34.4682253347
 20
22.4706157813
 30
0.0
 10
34.4336606072
 20
22.4419022601
 30
0.0
 10
34.3772456594
 20
22.416963363
 30
0.0
 10
34.3272828568
 20
22.4104122427
 30
0.0
 10
34.3014073929
 20
22.4104122427
 30
0.0
  0
SPLINE
  5
286
100
AcDbEntity
  8
0
100
AcDbSpline
 62
7
  6
BYLAYER
 70
0
 71
3
 72
15
 73
11
 74
0
 42
0.0000001
 43
0.0000001
 44
0.0000000001
 40
0.0
 40
0.0
 40
0.0
 40
0.0
 40
0.0787452363
 40
0.1668469129
 40
0.2698882854
 40
0.389958068
 40
0.5261784937
 40
0.6759557675
 40
0.8356080372
 40
1.0
 40
1.0
 40
1.0
 40
1.0
 10
34.5014073929
 20
23.6654105849
 30
0.0
 10
34.5014073929
 20
23.6591462444
 30
0.0
 10
34.4984518555
 20
23.6457740861
 30
0.0
 10
34.4863080942
 20
23.6276478236
 30
0.0
 10
34.4673717273
 20
23.6113672852
 30
0.0
 10
34.4423667745
 20
23.5972430945
 30
0.0
 10
34.4121191809
 20
23.5856390291
 30
0.0
 10
34.3776564265
 20
23.5770097258
 30
0.0
 10
34.3402798798
 20
23.5717012563
 30
0.0
 10
34.3144851012
 20
23.5705003215
 30
0.0
 10
34.3014073929
 20
23.5705003215
 30
0.0
  0
SPLINE
  5
287
100
AcDbEntity
  8
0
100
AcDbSpline
 62
7
  6
BYLAYER
 70
0
 71
3
 72
18
 73
14
 74
0
 42
0.0000001
 43
0.0000001
 44
0.0000000001
 40
0.0
 40
0.0
 40
0.0
 40
0.0
 40
0.0213174733
 40
0.0459825081
 40
0.0760904524
 40
0.112719869
 40
0.1562705767
 40
0.2067820131
 40
0.3279183163
 40
0.47297975
 40
0.6373316222
 40
0.8153710353
 40
1.0
 40
1.0
 40
1.0
 40
1.0
 10
34.5014073929
 20
24.8913751384
 30
0.0
 10
34.5014073929
 20
24.8898664563
 30
0.0
 10
34.5006339324
 20
24.8865920104
 30
0.0
 10
34.4975205551
 20
24.8821025672
 30
0.0
 10
34.4926320926
 20
24.8778040109
 30
0.0
 10
34.4859820094
 20
24.8736723777
 30
0.0
 10
34.4776117521
 20
24.8697045822
 30
0.0
 10
34.4633416546
 20
24.8643458197
 30
0.0
 10
34.4416377141
 20
24.8585641924
 30
0.0
 10
34.4116452421
 20
24.8530833377
 30
0.0
 10
34.3773703944
 20
24.8489933446
 30
0.0
 10
34.3401447235
 20
24.8464689288
 30
0.0
 10
34.3144739707
 20
24.8458981266
 30
0.0
 10
34.3014073929
 20
24.8458981266
 30
0.0
  0
SPLINE
  5
288
100
AcDbEntity
  8
0
100
AcDbSpline
 62
7
  6
BYLAYER
 70
0
 71
3
 72
13
 73
9
 74
0
 42
0.0000001
 43
0.0000001
 44
0.0000000001
 40
0.0
 40
0.0
 40
0.0
 40
0.0
 40
0.2909896794
 40
0.5591132082
 40
0.6806498823
 40
0.7932670514
 40
0.8987672034
 40
1.0
 40
1.0
 40
1.0
 40
1.0
 10
34.3014073929
 20
28.1146682976
 30
0.0
 10
34.3272828235
 20
28.1146682976
 30
0.0
 10
34.3772450419
 20
28.1081173067
 30
0.0
 10
34.4336593545
 20
28.0831789949
 30
0.0
 10
34.4682237396
 20
28.054466282
 30
0.0
 10
34.4870351183
 20
28.0304910739
 30
0.0
 10
34.4987149622
 20
28.004270476
 30
0.0
 10
34.5014073929
 20
27.985794599
 30
0.0
 10
34.5014073929
 20
27.9767927602
 30
0.0
  0
SPLINE
  5
289
100
AcDbEntity
  8
0
100
AcDbSpline
 62
7
  6
BYLAYER
 70
0
 71
3
 72
16
 73
12
 74
0
 42
0.0000001
 43
0.0000001
 44
0.0000000001
 40
0.0
 40
0.0
 40
0.0
 40
0.0
 40
0.1290800823
 40
0.2625045204
 40
0.3975391805
 40
0.5308757967
 40
0.6595545203
 40
0.7214941699
 40
0.7814704016
 40
0.8949272262
 40
1.0
 40
1.0
 40
1.0
 40
1.0
 10
17.5645705711
 20
36.0799142074
 30
0.0
 10
17.5971047471
 20
35.934161699
 30
0.0
 10
17.6798538733
 20
35.6412046568
 30
0.0
 10
17.8540571714
 20
35.2144236192
 30
0.0
 10
18.082014517
 20
34.8078701491
 30
0.0
 10
18.3569681686
 20
34.4381308329
 30
0.0
 10
18.6232998285
 20
34.1721631925
 30
0.0
 10
18.8512207403
 20
33.9925335672
 30
0.0
 10
19.0783641005
 20
33.841824054
 30
0.0
 10
19.3691253701
 20
33.6989937555
 30
0.0
 10
19.6141472382
 20
33.6299238267
 30
0.0
 10
19.7338846231
 20
33.6089286502
 30
0.0
  0
SPLINE
  5
28A
100
AcDbEntity
  8
0
100
AcDbSpline
 62
7
  6
BYLAYER
 70
0
 71
3
 72
36
 73
32
 74
0
 42
0.0000001
 43
0.0000001
 44
0.0000000001
 40
0.0
 40
0.0
 40
0.0
 40
0.0
 40
0.1975650841
 40
0.2938330518
 40
0.3870460421
 40
0.4762165564
 40
0.5605434734
 40
0.6392683558
 40
0.7116287184
 40
0.7769129444
 40
0.8346236198
 40
0.8604996942
 40
0.8843150012
 40
0.906013446
 40
0.9255388078
 40
0.9428411178
 40
0.957895792
 40
0.9706845822
 40
0.9762235626
 40
0.9811892184
 40
0.9855792624
 40
0.9893914055
 40
0.9926233577
 40
0.9952728272
 40
0.9973375212
 40
0.9981498605
 40
0.9988151454
 40
0.9993330889
 40
0.999703404
 40
0.9999258034
 40
1.0
 40
1.0
 40
1.0
 40
1.0
 10
12.2014073926
 20
45.2505716545
 30
0.0
 10
12.4182167854
 20
45.2505758305
 30
0.0
 10
12.740689108
 20
45.2549050142
 30
0.0
 10
13.1652287218
 20
45.2683688071
 30
0.0
 10
13.4707390491
 20
45.2817380255
 30
0.0
 10
13.762976878
 20
45.2981212675
 30
0.0
 10
14.0391473496
 20
45.3167193947
 30
0.0
 10
14.2967185396
 20
45.3367288122
 30
0.0
 10
14.5332696473
 20
45.3573560395
 30
0.0
 10
14.7466755589
 20
45.3778402768
 30
0.0
 10
14.9091729289
 20
45.3947397102
 30
0.0
 10
15.0263367219
 20
45.407568059
 30
0.0
 10
15.1041874707
 20
45.4163441834
 30
0.0
 10
15.1750896208
 20
45.4245419237
 30
0.0
 10
15.2388735157
 20
45.4320737128
 30
0.0
 10
15.2954044009
 20
45.4388544573
 30
0.0
 10
15.3445844347
 20
45.444843354
 30
0.0
 10
15.3809419678
 20
45.4493367645
 30
0.0
 10
15.4063069613
 20
45.4525075347
 30
0.0
 10
15.4225243925
 20
45.4545494474
 30
0.0
 10
15.4368602884
 20
45.456367243
 30
0.0
 10
15.4493065284
 20
45.4579567292
 30
0.0
 10
15.4598592054
 20
45.4593131843
 30
0.0
 10
15.4685023067
 20
45.4604333933
 30
0.0
 10
15.4745274002
 20
45.4612158588
 30
0.0
 10
15.4783647927
 20
45.4617230501
 30
0.0
 10
15.4805718035
 20
45.4620041113
 30
0.0
 10
15.4821696393
 20
45.4622384877
 30
0.0
 10
15.4835872096
 20
45.4623725467
 30
0.0
 10
15.4839453298
 20
45.4625142471
 30
0.0
 10
15.4846485519
 20
45.4625101856
 30
0.0
 10
15.4845728895
 20
45.4625402696
 30
0.0
  0
SPLINE
  5
28B
100
AcDbEntity
  8
0
100
AcDbSpline
 62
7
  6
BYLAYER
 70
0
 71
3
 72
35
 73
31
 74
0
 42
0.0000001
 43
0.0000001
 44
0.0000000001
 40
0.0
 40
0.0
 40
0.0
 40
0.0
 40
0.1954698679
 40
0.2908136503
 40
0.3833134599
 40
0.4720920484
 40
0.5562808201
 40
0.6350756015
 40
0.7077234377
 40
0.7735396681
 40
0.8318928561
 40
0.8580988277
 40
0.8822363727
 40
0.9042504824
 40
0.9240917621
 40
0.9417108597
 40
0.9570633418
 40
0.9701170927
 40
0.980841882
 40
0.9853214689
 40
0.989208131
 40
0.9925003474
 40
0.9951968397
 40
0.9972963295
 40
0.998121799
 40
0.9987975384
 40
0.9993233881
 40
0.9996991881
 40
0.9999247787
 40
1.0
 40
1.0
 40
1.0
 40
1.0
 10
12.2014073929
 20
42.7377882718
 30
0.0
 10
12.6086667187
 20
42.7378010745
 30
0.0
 10
13.2145823428
 20
42.7414734282
 30
0.0
 10
14.0131235057
 20
42.7535490357
 30
0.0
 10
14.5893400416
 20
42.7656079285
 30
0.0
 10
15.1422464613
 20
42.7802626738
 30
0.0
 10
15.6665274654
 20
42.7969333572
 30
0.0
 10
16.1571336258
 20
42.8149611117
 30
0.0
 10
16.6094054673
 20
42.8336515194
 30
0.0
 10
17.0190498497
 20
42.8522775979
 30
0.0
 10
17.33197821
 20
42.8676588544
 30
0.0
 10
17.5581450636
 20
42.8793429926
 30
0.0
 10
17.7086891316
 20
42.8873409629
 30
0.0
 10
17.8459811169
 20
42.8948208854
 30
0.0
 10
17.9697036234
 20
42.9017155312
 30
0.0
 10
18.0795614648
 20
42.9079577997
 30
0.0
 10
18.1752952931
 20
42.9134847891
 30
0.0
 10
18.2566849719
 20
42.9182523156
 30
0.0
 10
18.3154568854
 20
42.9217380368
 30
0.0
 10
18.3551625897
 20
42.9241098205
 30
0.0
 10
18.3794082077
 20
42.9255624233
 30
0.0
 10
18.3999498316
 20
42.9267974746
 30
0.0
 10
18.4167613636
 20
42.9278100873
 30
0.0
 10
18.4284742264
 20
42.9285207841
 30
0.0
 10
18.4359289016
 20
42.9289692108
 30
0.0
 10
18.4402149788
 20
42.9292368792
 30
0.0
 10
18.4433133205
 20
42.929406161
 30
0.0
 10
18.4460697036
 20
42.9296173054
 30
0.0
 10
18.4467536368
 20
42.9295831397
 30
0.0
 10
18.4481280136
 20
42.9297455656
 30
0.0
 10
18.4479768793
 20
42.9297040871
 30
0.0
  0
SPLINE
  5
28C
100
AcDbEntity
  8
0
100
AcDbSpline
 62
7
  6
BYLAYER
 70
0
 71
3
 72
17
 73
13
 74
0
 42
0.0000001
 43
0.0000001
 44
0.0000000001
 40
0.0
 40
0.0
 40
0.0
 40
0.0
 40
0.0188117632
 40
0.0421056837
 40
0.0744631558
 40
0.1156874257
 40
0.1653792419
 40
0.2883742944
 40
0.4394591037
 40
0.6129546194
 40
0.8024324623
 40
1.0
 40
1.0
 40
1.0
 40
1.0
 10
8.9182418908
 20
45.4625402696
 30
0.0
 10
8.9387162817
 20
45.4598995614
 30
0.0
 10
8.9845368751
 20
45.4539377407
 30
0.0
 10
9.065635341
 20
45.4439099266
 30
0.0
 10
9.1711780596
 20
45.4311507752
 30
0.0
 10
9.3055442647
 20
45.4154473792
 30
0.0
 10
9.5388562957
 20
45.3895326892
 30
0.0
 10
9.892426624
 20
45.354291595
 30
0.0
 10
10.3819704468
 20
45.3140360193
 30
0.0
 10
10.9450757549
 20
45.2792884717
 30
0.0
 10
11.5598393107
 20
45.2562953697
 30
0.0
 10
11.984597263
 20
45.2505761189
 30
0.0
 10
12.2014073932
 20
45.2505717197
 30
0.0
  0
SPLINE
  5
28D
100
AcDbEntity
  8
0
100
AcDbSpline
 62
7
  6
BYLAYER
 70
0
 71
3
 72
17
 73
13
 74
0
 42
0.0000001
 43
0.0000001
 44
0.0000000001
 40
0.0
 40
0.0
 40
0.0
 40
0.0
 40
0.2796817479
 40
0.4154065497
 40
0.5470101739
 40
0.6731609711
 40
0.7336894663
 40
0.7921790494
 40
0.8483549362
 40
0.9019061815
 40
0.952549489
 40
1.0
 40
1.0
 40
1.0
 40
1.0
 10
12.2014252937
 20
31.9615876262
 30
0.0
 10
12.6698558549
 20
32.3880638058
 30
0.0
 10
13.3668572507
 20
33.0201807769
 30
0.0
 10
14.2980851368
 20
33.8375242595
 30
0.0
 10
14.9789464746
 20
34.4127233166
 30
0.0
 10
15.5426368597
 20
34.8624421867
 30
0.0
 10
15.9883365581
 20
35.193793784
 30
0.0
 10
16.313594053
 20
35.4212345084
 30
0.0
 10
16.633686776
 20
35.6281069768
 30
0.0
 10
16.9480742631
 20
35.8104395185
 30
0.0
 10
17.2556168652
 20
35.9639718579
 30
0.0
 10
17.4625197636
 20
36.0461801917
 30
0.0
 10
17.5645710571
 20
36.0798978258
 30
0.0
  0
SPLINE
  5
28E
100
AcDbEntity
  8
0
100
AcDbSpline
 62
7
  6
BYLAYER
 70
0
 71
3
 72
32
 73
28
 74
0
 42
0.0000001
 43
0.0000001
 44
0.0000000001
 40
0.0
 40
0.0
 40
0.0
 40
0.0
 40
0.2217281767
 40
0.4196534413
 40
0.5090569978
 40
0.5917417729
 40
0.6674448023
 40
0.7359002223
 40
0.7968567561
 40
0.8501300028
 40
0.8955516388
 40
0.9152652419
 40
0.9329523842
 40
0.9485938471
 40
0.962178679
 40
0.9736979915
 40
0.9831428865
 40
0.9870846443
 40
0.9905044567
 40
0.9934012087
 40
0.9957737848
 40
0.997621069
 40
0.9989419445
 40
0.9994046299
 40
0.9997352941
 40
0.9999337974
 40
1.0
 40
1.0
 40
1.0
 40
1.0
 10
17.5645702358
 20
36.0799140966
 30
0.0
 10
17.7038497276
 20
36.1259448942
 30
0.0
 10
17.9664932011
 20
36.216012735
 30
0.0
 10
18.282698946
 20
36.3319780251
 30
0.0
 10
18.5112787141
 20
36.4195842848
 30
0.0
 10
18.6638423104
 20
36.4795718546
 30
0.0
 10
18.8030735545
 20
36.5355799813
 30
0.0
 10
18.928616113
 20
36.5870897717
 30
0.0
 10
19.0401682581
 20
36.6335998977
 30
0.0
 10
19.137441017
 20
36.6747560623
 30
0.0
 10
19.2094400556
 20
36.7056209338
 30
0.0
 10
19.2597338406
 20
36.7273647542
 30
0.0
 10
19.2919204873
 20
36.7413436772
 30
0.0
 10
19.3203726644
 20
36.7537429213
 30
0.0
 10
19.3450709683
 20
36.7645422353
 30
0.0
 10
19.3660019462
 20
36.7737248
 30
0.0
 10
19.3810828539
 20
36.7803625767
 30
0.0
 10
19.3912550052
 20
36.7848516182
 30
0.0
 10
19.3974624021
 20
36.7875951427
 30
0.0
 10
19.4027183191
 20
36.7899229307
 30
0.0
 10
19.4070234389
 20
36.7918298957
 30
0.0
 10
19.4103703786
 20
36.7933220851
 30
0.0
 10
19.4125714038
 20
36.7942896827
 30
0.0
 10
19.413840547
 20
36.7948706092
 30
0.0
 10
19.4144539032
 20
36.7951184232
 30
0.0
 10
19.4147888045
 20
36.7953131362
 30
0.0
 10
19.4149744084
 20
36.7953490661
 30
0.0
 10
19.4150038405
 20
36.7953815005
 30
0.0
  0
SPLINE
  5
28F
100
AcDbEntity
  8
0
100
AcDbSpline
 62
7
  6
BYLAYER
 70
0
 71
3
 72
12
 73
8
 74
0
 42
0.0000001
 43
0.0000001
 44
0.0000000001
 40
0.0
 40
0.0
 40
0.0
 40
0.0
 40
0.2343713881
 40
0.4820743379
 40
0.6095799132
 40
0.7387930875
 40
1.0
 40
1.0
 40
1.0
 40
1.0
 10
8.1761948234
 20
31.8068767705
 30
0.0
 10
8.4856585847
 20
31.8068846927
 30
0.0
 10
9.1222067207
 20
31.8125197532
 30
0.0
 10
9.9268261888
 20
31.8348459787
 30
0.0
 10
10.5923684341
 20
31.8606628173
 30
0.0
 10
11.2753608717
 20
31.8960340309
 30
0.0
 10
11.7893348669
 20
31.9364406361
 30
0.0
 10
12.1332827174
 20
31.9620153659
 30
0.0
  0
SPLINE
  5
290
100
AcDbEntity
  8
0
100
AcDbSpline
 62
7
  6
BYLAYER
 70
0
 71
3
 72
29
 73
25
 74
0
 42
0.0000001
 43
0.0000001
 44
0.0000000001
 40
0.0
 40
0.0
 40
0.0
 40
0.0
 40
0.0002664365
 40
0.0010671743
 40
0.0024012034
 40
0.0042674937
 40
0.0066650154
 40
0.009592739
 40
0.0170346739
 40
0.0265850648
 40
0.0382356809
 40
0.0519779059
 40
0.0677960509
 40
0.0856682621
 40
0.1055724956
 40
0.151388935
 40
0.2050652772
 40
0.2663755376
 40
0.3350653264
 40
0.4108799653
 40
0.4935560932
 40
0.5828237207
 40
0.7800287744
 40
1.0
 40
1.0
 40
1.0
 40
1.0
 10
22.3783958092
 20
34.2625400195
 30
0.0
 10
22.3786099994
 20
34.2626525957
 30
0.0
 10
22.3765870932
 20
34.2619558289
 30
0.0
 10
22.3755420071
 20
34.2617837485
 30
0.0
 10
22.3714435769
 20
34.2605597924
 30
0.0
 10
22.3668149688
 20
34.2592888207
 30
0.0
 10
22.3604245286
 20
34.2574813383
 30
0.0
 10
22.3493097556
 20
34.2543679578
 30
0.0
 10
22.3318571234
 20
34.2494760213
 30
0.0
 10
22.3068175536
 20
34.2424817075
 30
0.0
 10
22.2762426607
 20
34.2339601907
 30
0.0
 10
22.240184885
 20
34.2239359748
 30
0.0
 10
22.1986714519
 20
34.2124315421
 30
0.0
 10
22.1517518471
 20
34.1994833243
 30
0.0
 10
22.0785451334
 20
34.1793769346
 30
0.0
 10
21.9739221297
 20
34.1508807577
 30
0.0
 10
21.8329025076
 20
34.1129233014
 30
0.0
 10
21.6716699501
 20
34.0701411836
 30
0.0
 10
21.4908078692
 20
34.0229483148
 30
0.0
 10
21.2909376364
 20
33.9717557234
 30
0.0
 10
21.0726856313
 20
33.9170205918
 30
0.0
 10
20.7470507846
 20
33.8372805464
 30
0.0
 10
20.2992931119
 20
33.7320536372
 30
0.0
 10
19.9292901378
 20
33.6504804596
 30
0.0
 10
19.7338851458
 20
33.6089292148
 30
0.0
  0
SPLINE
  5
291
100
AcDbEntity
  8
0
100
AcDbSpline
 62
7
  6
BYLAYER
 70
0
 71
3
 72
11
 73
7
 74
0
 42
0.0000001
 43
0.0000001
 44
0.0000000001
 40
0.0
 40
0.0
 40
0.0
 40
0.0
 40
0.2499922719
 40
0.4999823171
 40
0.7499963766
 40
1.0
 40
1.0
 40
1.0
 40
1.0
 10
12.1332827174
 20
31.9620153659
 30
0.0
 10
12.1389598642
 20
31.9620076307
 30
0.0
 10
12.1503106451
 20
31.9616515921
 30
0.0
 10
12.167342947
 20
31.9615344681
 30
0.0
 10
12.1843748871
 20
31.9616535061
 30
0.0
 10
12.1957299831
 20
31.961607216
 30
0.0
 10
12.2014073929
 20
31.9616070178
 30
0.0
  0
SPLINE
  5
292
100
AcDbEntity
  8
0
100
AcDbSpline
 62
7
  6
BYLAYER
 70
0
 71
3
 72
17
 73
13
 74
0
 42
0.0000001
 43
0.0000001
 44
0.0000000001
 40
0.0
 40
0.0
 40
0.0
 40
0.0
 40
0.0590255922
 40
0.1189688507
 40
0.1796496652
 40
0.2409428161
 40
0.3649748667
 40
0.4904506856
 40
0.6169539287
 40
0.7441868575
 40
0.8719329998
 40
1.0
 40
1.0
 40
1.0
 40
1.0
 10
19.7338851458
 20
33.6089292148
 30
0.0
 10
19.5826938295
 20
33.5948421069
 30
0.0
 10
19.2784852012
 20
33.5606707005
 30
0.0
 10
18.8208618334
 20
33.4957799686
 30
0.0
 10
18.359082688
 20
33.4195798178
 30
0.0
 10
17.7366017744
 20
33.3052791971
 30
0.0
 10
16.9534540492
 20
33.1437121466
 30
0.0
 10
16.0100667422
 20
32.9297675205
 30
0.0
 10
15.0617362004
 20
32.7008704162
 30
0.0
 10
14.1100125564
 20
32.4613863436
 30
0.0
 10
13.1561399934
 20
32.2140803198
 30
0.0
 10
12.5198661901
 20
32.0460279785
 30
0.0
 10
12.2014073932
 20
31.9616069556
 30
0.0
  0
SPLINE
  5
293
100
AcDbEntity
  8
0
100
AcDbSpline
 62
7
  6
BYLAYER
 70
0
 71
3
 72
35
 73
31
 74
0
 42
0.0000001
 43
0.0000001
 44
0.0000000001
 40
0.0
 40
0.0
 40
0.0
 40
0.0
 40
0.0000752603
 40
0.0003008764
 40
0.0006766905
 40
0.0012025447
 40
0.001878281
 40
0.0027037415
 40
0.0048032039
 40
0.0074996688
 40
0.0107918731
 40
0.0146785539
 40
0.0191581563
 40
0.0298827965
 40
0.0429362927
 40
0.0582885803
 40
0.0759074493
 40
0.0957482388
 40
0.1177618321
 40
0.1418990389
 40
0.1681044551
 40
0.2264564053
 40
0.2922717241
 40
0.3649187916
 40
0.443713251
 40
0.5279024553
 40
0.6166814502
 40
0.7091820047
 40
0.8045274915
 40
1.0
 40
1.0
 40
1.0
 40
1.0
 10
5.9548379066
 20
42.9297040883
 30
0.0
 10
5.9549899
 20
42.9296655467
 30
0.0
 10
5.9556266002
 20
42.9296977848
 30
0.0
 10
5.9570232457
 20
42.9295438925
 30
0.0
 10
5.9593736346
 20
42.9294398703
 30
0.0
 10
5.9626514065
 20
42.9292232371
 30
0.0
 10
5.9668680147
 20
42.928973886
 30
0.0
 10
5.9743557056
 20
42.9285167234
 30
0.0
 10
5.9860467669
 20
42.9278117447
 30
0.0
 10
6.0028676111
 20
42.9267966214
 30
0.0
 10
6.0234057755
 20
42.9255624157
 30
0.0
 10
6.047652597
 20
42.9241093802
 30
0.0
 10
6.0873575512
 20
42.921737533
 30
0.0
 10
6.1461289568
 20
42.9182516975
 30
0.0
 10
6.2275172625
 20
42.9134842052
 30
0.0
 10
6.323249712
 20
42.9079570878
 30
0.0
 10
6.4331056279
 20
42.9017147239
 30
0.0
 10
6.5568255764
 20
42.8948203452
 30
0.0
 10
6.694114767
 20
42.8873406556
 30
0.0
 10
6.8446558874
 20
42.8793425686
 30
0.0
 10
7.0708182917
 20
42.8676583758
 30
0.0
 10
7.3837410215
 20
42.8522773488
 30
0.0
 10
7.7933793465
 20
42.8336518718
 30
0.0
 10
8.2456470661
 20
42.8149627807
 30
0.0
 10
8.736251831
 20
42.7969343978
 30
0.0
 10
9.260533934
 20
42.7802643437
 30
0.0
 10
9.8134436477
 20
42.765609334
 30
0.0
 10
10.3896661389
 20
42.7535507012
 30
0.0
 10
11.1882178824
 20
42.7414732817
 30
0.0
 10
11.7941425654
 20
42.737801823
 30
0.0
 10
12.2014073929
 20
42.7377882718
 30
0.0
  0
SPLINE
  5
294
100
AcDbEntity
  8
0
100
AcDbSpline
 62
7
  6
BYLAYER
 70
0
 71
3
 72
22
 73
18
 74
0
 42
0.0000001
 43
0.0000001
 44
0.0000000001
 40
0.0
 40
0.0
 40
0.0
 40
0.0
 40
0.0251457526
 40
0.0961910928
 40
0.2032155427
 40
0.3360788627
 40
0.4096412818
 40
0.486908149
 40
0.5672644268
 40
0.6502066449
 40
0.7353225573
 40
0.7785956665
 40
0.8222848604
 40
0.8663415269
 40
0.910704534
 40
0.9552914335
 40
1.0
 40
1.0
 40
1.0
 40
1.0
 10
20.2014073929
 20
16.2625402701
 30
0.0
 10
20.1416242311
 20
16.3156800696
 30
0.0
 10
19.9126975458
 20
16.5186938812
 30
0.0
 10
19.4270297771
 20
16.9452919968
 30
0.0
 10
18.6771517938
 20
17.5902422247
 30
0.0
 10
17.9092518199
 20
18.2264060679
 30
0.0
 10
17.2008858987
 20
18.7855535537
 30
0.0
 10
16.61366375
 20
19.2283555823
 30
0.0
 10
15.9889091353
 20
19.6705114321
 30
0.0
 10
15.324912023
 20
20.0994090601
 30
0.0
 10
14.7384505174
 20
20.4294512912
 30
0.0
 10
14.2442528995
 20
20.6652809538
 30
0.0
 10
13.8585560919
 20
20.8238457638
 30
0.0
 10
13.4597610441
 20
20.9575004252
 30
0.0
 10
13.0487084841
 20
21.0598751334
 30
0.0
 10
12.6278761058
 20
21.1246321799
 30
0.0
 10
12.3436220335
 20
21.139434799
 30
0.0
 10
12.2014073929
 20
21.139434799
 30
0.0
  0
ENDSEC
  0
SECTION
  2
OBJECTS
  0
DICTIONARY
  5
C
100
AcDbDictionary
280
0
281
1
  3
ACAD_GROUP
350
D
  3
ACAD_MLINESTYLE
350
17
  3
ACAD_LAYOUT
350
1A
  3
ACAD_PLOTSETTINGS
350
19
  3
ACAD_PLOTSTYLENAME
350
E
  0
DICTIONARY
  5
D
102
{ACAD_REACTORS
330
C
102
}
100
AcDbDictionary
280
0
281
1
  0
ACDBDICTIONARYWDFLT
  5
E
102
{ACAD_REACTORS
330
C
102
}
100
AcDbDictionary
281
1
  3
Normal
350
F
100
AcDbDictionaryWithDefault
340
F
  0
DICTIONARY
  5
17
102
{ACAD_REACTORS
330
C
102
}
100
AcDbDictionary
280
0
281
1
  3
Standard
350
18
  0
DICTIONARY
  5
19
102
{ACAD_REACTORS
330
C
102
}
100
AcDbDictionary
281
1
  0
DICTIONARY
  5
1A
102
{ACAD_REACTORS
330
C
102
}
100
AcDbDictionary
281
1
  3
Model
350
295
  3
Layout1
350
296
  0
ACDBPLACEHOLDER
  5
F
102
{ACAD_REACTORS
330
E
102
}
  0
MLINESTYLE
  5
18
102
{ACAD_REACTORS
330
17
102
}
100
AcDbMlineStyle
  2
STANDARD
 70
0
  3

 62
256
 51
90.0
 52
90.0
 71
2
 49
0.5
 62
256
  6
BYLAYER
 49
-0.5
 62
256
  6
BYLAYER
  0
LAYOUT
  5
295
102
{ACAD_REACTORS
330
1A
102
}
100
AcDbPlotSettings
  1

  2
none_device
  4

  6

 40
0.0
 41
0.0
 42
0.0
 43
0.0
 44
210.0
 45
297.0
 46
0.0
 47
0.0
 48
0.0
 49
0.0
140
0.0
141
0.0
142
1.0
143
1.0
 70
1024
 72
1
 73
0
 74
0
  7

 75
0
147
1.0
148
0.0
149
0.0
100
AcDbLayout
  1
Model
 70
0
 71
0
 10
0.0
 20
0.0
 11
210.0
 21
297.0
 12
0.0
 22
0.0
 32
0.0
 14
0.0
 24
0.0
 34
0.0
 15
0.0
 25
0.0
 35
0.0
146
0.0
 13
0.0
 23
0.0
 33
0.0
 16
1.0
 26
0.0
 36
0.0
 17
0.0
 27
1.0
 37
0.0
 76
0
330
210
345
0
346
0
  0
LAYOUT
  5
296
102
{ACAD_REACTORS
330
1A
102
}
100
AcDbPlotSettings
  1

  2
none_device
  4

  6

 40
0.0
 41
0.0
 42
0.0
 43
0.0
 44
210.0
 45
297.0
 46
0.0
 47
0.0
 48
0.0
 49
0.0
140
0.0
141
0.0
142
1.0
143
1.0
 70
0
 72
1
 73
0
 74
0
  7

 75
0
147
1.0
148
0.0
149
0.0
100
AcDbLayout
  1
Layout1
 70
0
 71
1
 10
0.0
 20
0.0
 11
210.0
 21
297.0
 12
0.0
 22
0.0
 32
0.0
 14
0.0
 24
0.0
 34
0.0
 15
0.0
 25
0.0
 35
0.0
146
0.0
 13
0.0
 23
0.0
 33
0.0
 16
1.0
 26
0.0
 36
0.0
 17
0.0
 27
1.0
 37
0.0
 76
0
330
211
345
0
346
0
  0
ENDSEC
  0
EOF
